  0
SECTION
  2
HEADER
  9
$ACADVER
  1
AC1024
  9
$ACADMAINTVER
 70
     6
  9
$DWGCODEPAGE
  3
UNDEFINED
  9
$INSBASE
 10
0.0
 20
0.0
 30
0.0
  9
$EXTMIN
 10
1.000000000000000E+20
 20
1.000000000000000E+20
 30
1.000000000000000E+20
  9
$EXTMAX
 10
-1.000000000000000E+20
 20
-1.000000000000000E+20
 30
-1.000000000000000E+20
  9
$LIMMIN
 10
0.0
 20
0.0
  9
$LIMMAX
 10
12.0
 20
9.0
  9
$ORTHOMODE
 70
     0
  9
$REGENMODE
 70
     1
  9
$FILLMODE
 70
     1
  9
$QTEXTMODE
 70
     0
  9
$MIRRTEXT
 70
     1
  9
$LTSCALE
 40
1.0
  9
$ATTMODE
 70
     1
  9
$TEXTSIZE
 40
0.2
  9
$TRACEWID
 40
0.05
  9
$TEXTSTYLE
  7
Standard
  9
$CLAYER
  8
0
  9
$CELTYPE
  6
ByLayer
  9
$CECOLOR
 62
   256
  9
$CELTSCALE
 40
1.0
  9
$DISPSILH
 70
     0
  9
$DIMSCALE
 40
1.0
  9
$DIMASZ
 40
0.18
  9
$DIMEXO
 40
0.0625
  9
$DIMDLI
 40
0.38
  9
$DIMRND
 40
0.0
  9
$DIMDLE
 40
0.0
  9
$DIMEXE
 40
0.18
  9
$DIMTP
 40
0.0
  9
$DIMTM
 40
0.0
  9
$DIMTXT
 40
0.18
  9
$DIMCEN
 40
0.09
  9
$DIMTSZ
 40
0.0
  9
$DIMTOL
 70
     0
  9
$DIMLIM
 70
     0
  9
$DIMTIH
 70
     1
  9
$DIMTOH
 70
     1
  9
$DIMSE1
 70
     0
  9
$DIMSE2
 70
     0
  9
$DIMTAD
 70
     0
  9
$DIMZIN
 70
     0
  9
$DIMBLK
  1

  9
$DIMASO
 70
     1
  9
$DIMSHO
 70
     1
  9
$DIMPOST
  1

  9
$DIMAPOST
  1

  9
$DIMALT
 70
     0
  9
$DIMALTD
 70
     2
  9
$DIMALTF
 40
25.4
  9
$DIMLFAC
 40
1.0
  9
$DIMTOFL
 70
     0
  9
$DIMTVP
 40
0.0
  9
$DIMTIX
 70
     0
  9
$DIMSOXD
 70
     0
  9
$DIMSAH
 70
     0
  9
$DIMBLK1
  1

  9
$DIMBLK2
  1

  9
$DIMSTYLE
  2
Standard
  9
$DIMCLRD
 70
     0
  9
$DIMCLRE
 70
     0
  9
$DIMCLRT
 70
     0
  9
$DIMTFAC
 40
1.0
  9
$DIMGAP
 40
0.09
  9
$DIMJUST
 70
     0
  9
$DIMSD1
 70
     0
  9
$DIMSD2
 70
     0
  9
$DIMTOLJ
 70
     1
  9
$DIMTZIN
 70
     0
  9
$DIMALTZ
 70
     0
  9
$DIMALTTZ
 70
     0
  9
$DIMUPT
 70
     0
  9
$DIMDEC
 70
     4
  9
$DIMTDEC
 70
     4
  9
$DIMALTU
 70
     2
  9
$DIMALTTD
 70
     2
  9
$DIMTXSTY
  7
Standard
  9
$DIMAUNIT
 70
     0
  9
$DIMADEC
 70
     0
  9
$DIMALTRND
 40
0.0
  9
$DIMAZIN
 70
     0
  9
$DIMDSEP
 70
    46
  9
$DIMATFIT
 70
     3
  9
$DIMFRAC
 70
     0
  9
$DIMLDRBLK
  1

  9
$DIMLUNIT
 70
     2
  9
$DIMLWD
 70
    -2
  9
$DIMLWE
 70
    -2
  9
$DIMTMOVE
 70
     0
  9
$DIMFXL
 40
1.0
  9
$DIMFXLON
 70
     0
  9
$DIMJOGANG
 40
0.7853981633974483
  9
$DIMTFILL
 70
     0
  9
$DIMTFILLCLR
 70
     0
  9
$DIMARCSYM
 70
     0
  9
$DIMLTYPE
  6

  9
$DIMLTEX1
  6

  9
$DIMLTEX2
  6

  9
$DIMTXTDIRECTION
 70
     0
  9
$LUNITS
 70
     2
  9
$LUPREC
 70
     4
  9
$SKETCHINC
 40
0.1
  9
$FILLETRAD
 40
0.5
  9
$AUNITS
 70
     0
  9
$AUPREC
 70
     0
  9
$MENU
  1
.
  9
$ELEVATION
 40
0.0
  9
$PELEVATION
 40
0.0
  9
$THICKNESS
 40
0.0
  9
$LIMCHECK
 70
     0
  9
$CHAMFERA
 40
0.5
  9
$CHAMFERB
 40
0.5
  9
$CHAMFERC
 40
1.0
  9
$CHAMFERD
 40
0.0
  9
$SKPOLY
 70
     0
  9
$TDCREATE
 40
2458759.606689815
  9
$TDUCREATE
 40
2458759.231689815
  9
$TDUPDATE
 40
2458759.606689815
  9
$TDUUPDATE
 40
2458759.231689815
  9
$TDINDWG
 40
0.0000000116
  9
$TDUSRTIMER
 40
0.0000000116
  9
$USRTIMER
 70
     1
  9
$ANGBASE
 50
0.0
  9
$ANGDIR
 70
     0
  9
$PDMODE
 70
     0
  9
$PDSIZE
 40
0.0
  9
$PLINEWID
 40
0.0
  9
$SPLFRAME
 70
     0
  9
$SPLINETYPE
 70
     6
  9
$SPLINESEGS
 70
     8
  9
$HANDSEED
  5
272
  9
$SURFTAB1
 70
     6
  9
$SURFTAB2
 70
     6
  9
$SURFTYPE
 70
     6
  9
$SURFU
 70
     6
  9
$SURFV
 70
     6
  9
$UCSBASE
  2

  9
$UCSNAME
  2

  9
$UCSORG
 10
0.0
 20
0.0
 30
0.0
  9
$UCSXDIR
 10
1.0
 20
0.0
 30
0.0
  9
$UCSYDIR
 10
0.0
 20
1.0
 30
0.0
  9
$UCSORTHOREF
  2

  9
$UCSORTHOVIEW
 70
     0
  9
$UCSORGTOP
 10
0.0
 20
0.0
 30
0.0
  9
$UCSORGBOTTOM
 10
0.0
 20
0.0
 30
0.0
  9
$UCSORGLEFT
 10
0.0
 20
0.0
 30
0.0
  9
$UCSORGRIGHT
 10
0.0
 20
0.0
 30
0.0
  9
$UCSORGFRONT
 10
0.0
 20
0.0
 30
0.0
  9
$UCSORGBACK
 10
0.0
 20
0.0
 30
0.0
  9
$PUCSBASE
  2

  9
$PUCSNAME
  2

  9
$PUCSORG
 10
0.0
 20
0.0
 30
0.0
  9
$PUCSXDIR
 10
1.0
 20
0.0
 30
0.0
  9
$PUCSYDIR
 10
0.0
 20
1.0
 30
0.0
  9
$PUCSORTHOREF
  2

  9
$PUCSORTHOVIEW
 70
     0
  9
$PUCSORGTOP
 10
0.0
 20
0.0
 30
0.0
  9
$PUCSORGBOTTOM
 10
0.0
 20
0.0
 30
0.0
  9
$PUCSORGLEFT
 10
0.0
 20
0.0
 30
0.0
  9
$PUCSORGRIGHT
 10
0.0
 20
0.0
 30
0.0
  9
$PUCSORGFRONT
 10
0.0
 20
0.0
 30
0.0
  9
$PUCSORGBACK
 10
0.0
 20
0.0
 30
0.0
  9
$USERI1
 70
     0
  9
$USERI2
 70
     0
  9
$USERI3
 70
     0
  9
$USERI4
 70
     0
  9
$USERI5
 70
     0
  9
$USERR1
 40
0.0
  9
$USERR2
 40
0.0
  9
$USERR3
 40
0.0
  9
$USERR4
 40
0.0
  9
$USERR5
 40
0.0
  9
$WORLDVIEW
 70
     1
  9
$SHADEDGE
 70
     3
  9
$SHADEDIF
 70
    70
  9
$TILEMODE
 70
     1
  9
$MAXACTVP
 70
    64
  9
$PINSBASE
 10
0.0
 20
0.0
 30
0.0
  9
$PLIMCHECK
 70
     0
  9
$PEXTMIN
 10
1.000000000000000E+20
 20
1.000000000000000E+20
 30
1.000000000000000E+20
  9
$PEXTMAX
 10
-1.000000000000000E+20
 20
-1.000000000000000E+20
 30
-1.000000000000000E+20
  9
$PLIMMIN
 10
0.0
 20
0.0
  9
$PLIMMAX
 10
12.0
 20
9.0
  9
$UNITMODE
 70
     0
  9
$VISRETAIN
 70
     1
  9
$PLINEGEN
 70
     0
  9
$PSLTSCALE
 70
     1
  9
$TREEDEPTH
 70
  3020
  9
$CMLSTYLE
  2
Standard
  9
$CMLJUST
 70
     0
  9
$CMLSCALE
 40
1.0
  9
$PROXYGRAPHICS
 70
     1
  9
$MEASUREMENT
 70
     0
  9
$CELWEIGHT
370
    -1
  9
$ENDCAPS
280
     0
  9
$JOINSTYLE
280
     0
  9
$LWDISPLAY
290
     1
  9
$INSUNITS
 70
     1
  9
$HYPERLINKBASE
  1

  9
$STYLESHEET
  1

  9
$XEDIT
290
     1
  9
$CEPSNTYPE
380
     0
  9
$PSTYLEMODE
290
     1
  9
$FINGERPRINTGUID
  2
{1EAF4173-C055-0D72-9A43-92208550270F}
  9
$VERSIONGUID
  2
{FAEB1C32-E019-11D5-929B-00C0DF256EC4}
  9
$EXTNAMES
290
     1
  9
$PSVPSCALE
 40
0.0
  9
$OLESTARTUP
290
     0
  9
$SORTENTS
280
   127
  9
$INDEXCTL
280
     0
  9
$HIDETEXT
280
     1
  9
$XCLIPFRAME
280
     2
  9
$HALOGAP
280
     0
  9
$OBSCOLOR
 70
   257
  9
$OBSLTYPE
280
     0
  9
$INTERSECTIONDISPLAY
280
     0
  9
$INTERSECTIONCOLOR
 70
   257
  9
$DIMASSOC
280
     2
  9
$PROJECTNAME
  1

  9
$CAMERADISPLAY
290
     0
  9
$LENSLENGTH
 40
50.0
  9
$CAMERAHEIGHT
 40
0.0
  9
$STEPSPERSEC
 40
2.0
  9
$STEPSIZE
 40
6.0
  9
$3DDWFPREC
 40
2.0
  9
$PSOLWIDTH
 40
0.25
  9
$PSOLHEIGHT
 40
4.0
  9
$LOFTANG1
 40
1.570796326794897
  9
$LOFTANG2
 40
1.570796326794897
  9
$LOFTMAG1
 40
0.0
  9
$LOFTMAG2
 40
0.0
  9
$LOFTPARAM
 70
     7
  9
$LOFTNORMALS
280
     1
  9
$LATITUDE
 40
37.795
  9
$LONGITUDE
 40
-122.394
  9
$NORTHDIRECTION
 40
0.0
  9
$TIMEZONE
 70
 -8000
  9
$LIGHTGLYPHDISPLAY
280
     1
  9
$TILEMODELIGHTSYNCH
280
     1
  9
$CMATERIAL
347
3C
  9
$SOLIDHIST
280
     1
  9
$SHOWHIST
280
     1
  9
$DWFFRAME
280
     2
  9
$DGNFRAME
280
     2
  9
$REALWORLDSCALE
290
     1
  9
$INTERFERECOLOR
 62
   256
  9
$CSHADOW
280
     0
  9
$SHADOWPLANELOCATION
 40
0.0
  0
ENDSEC
  0
SECTION
  2
CLASSES
  0
CLASS
  1
ACDBDICTIONARYWDFLT
  2
AcDbDictionaryWithDefault
  3
ObjectDBX Classes
 90
        0
 91
        4
280
     0
281
     0
  0
CLASS
  1
VISUALSTYLE
  2
AcDbVisualStyle
  3
ObjectDBX Classes
 90
     4095
 91
        4
280
     0
281
     0
  0
CLASS
  1
MATERIAL
  2
AcDbMaterial
  3
ObjectDBX Classes
 90
     1153
 91
        4
280
     0
281
     0
  0
CLASS
  1
SUN
  2
AcDbSun
  3
SCENEOE
 90
     1024
 91
        4
280
     0
281
     0
  0
ENDSEC
  0
SECTION
  2
TABLES
  0
TABLE
  2
VPORT
  5
8
330
0
100
AcDbSymbolTable
 70
     1
  0
VPORT
  5
29
330
8
100
AcDbSymbolTableRecord
100
AcDbViewportTableRecord
  2
*Active
 70
     0
 10
0.0
 20
0.0
 11
1.0
 21
1.0
 12
0.0
 22
0.0
 13
0.0
 23
0.0
 14
0.5
 24
0.5
 15
0.5
 25
0.5
 16
0.0
 26
0.0
 36
1.0
 17
-0.0000000000000124
 27
0.0
 37
0.0
 40
8.26771653543306
 41
1.414285714285718
 42
50.0
 43
0.0
 44
0.0
 50
0.0
 51
0.0
 71
     0
 72
   100
 73
     1
 74
     3
 75
     0
 76
     0
 77
     0
 78
     0
281
     0
 65
     1
110
0.0
120
0.0
130
0.0
111
1.0
121
0.0
131
0.0
112
0.0
122
1.0
132
0.0
 79
     0
146
0.0
 60
     3
 61
     5
292
     1
282
     1
141
0.0
142
0.0
 63
   250
361
3F
  0
ENDTAB
  0
TABLE
  2
LTYPE
  5
5
330
0
100
AcDbSymbolTable
 70
     1
  0
LTYPE
  5
14
330
5
100
AcDbSymbolTableRecord
100
AcDbLinetypeTableRecord
  2
ByBlock
 70
     0
  3

 72
    65
 73
     0
 40
0.0
  0
LTYPE
  5
15
330
5
100
AcDbSymbolTableRecord
100
AcDbLinetypeTableRecord
  2
ByLayer
 70
     0
  3

 72
    65
 73
     0
 40
0.0
  0
LTYPE
  5
16
330
5
100
AcDbSymbolTableRecord
100
AcDbLinetypeTableRecord
  2
Continuous
 70
     0
  3
Solid line
 72
    65
 73
     0
 40
0.0
  0
ENDTAB
  0
TABLE
  2
LAYER
  5
2
330
0
100
AcDbSymbolTable
 70
     3
  0
LAYER
  5
10
330
2
100
AcDbSymbolTableRecord
100
AcDbLayerTableRecord
  2
0
 70
     0
 62
     7
  6
Continuous
370
    -3
390
F
347
3E
  0
LAYER
  5
40
330
2
100
AcDbSymbolTableRecord
100
AcDbLayerTableRecord
  2
_U+5F6B_U+523B_U+30D1_U+30B9
 70
     0
 62
     7
  6
Continuous
370
    -3
390
F
347
3E
  0
LAYER
  5
45
330
2
100
AcDbSymbolTableRecord
100
AcDbLayerTableRecord
  2
_U+5207_U+65AD_U+30D1_U+30B9
 70
     0
 62
     7
  6
Continuous
370
    -3
390
F
347
3E
  0
ENDTAB
  0
TABLE
  2
STYLE
  5
3
330
0
100
AcDbSymbolTable
 70
     1
  0
STYLE
  5
11
330
3
100
AcDbSymbolTableRecord
100
AcDbTextStyleTableRecord
  2
Standard
 70
     0
 40
0.0
 41
1.0
 50
0.0
 71
     0
 42
0.2
  3
txt
  4

  0
ENDTAB
  0
TABLE
  2
VIEW
  5
6
330
0
100
AcDbSymbolTable
 70
     0
  0
ENDTAB
  0
TABLE
  2
UCS
  5
7
330
0
100
AcDbSymbolTable
 70
     0
  0
ENDTAB
  0
TABLE
  2
APPID
  5
9
330
0
100
AcDbSymbolTable
 70
     1
  0
APPID
  5
12
330
9
100
AcDbSymbolTableRecord
100
AcDbRegAppTableRecord
  2
ACAD
 70
     0
  0
ENDTAB
  0
TABLE
  2
DIMSTYLE
  5
A
330
0
100
AcDbSymbolTable
 70
     1
100
AcDbDimStyleTable
  0
DIMSTYLE
105
27
330
A
100
AcDbSymbolTableRecord
100
AcDbDimStyleTableRecord
  2
Standard
 70
     0
178
     0
340
11
  0
ENDTAB
  0
TABLE
  2
BLOCK_RECORD
  5
1
330
0
100
AcDbSymbolTable
 70
    67
  0
BLOCK_RECORD
  5
1F
330
1
100
AcDbSymbolTableRecord
100
AcDbBlockTableRecord
  2
*Model_Space
340
22
 70
     0
280
     1
281
     0
  0
BLOCK_RECORD
  5
1B
330
1
100
AcDbSymbolTableRecord
100
AcDbBlockTableRecord
  2
*Paper_Space
340
1E
 70
     0
280
     1
281
     0
  0
BLOCK_RECORD
  5
23
330
1
100
AcDbSymbolTableRecord
100
AcDbBlockTableRecord
  2
*Paper_Space0
340
26
 70
     0
280
     1
281
     0
  0
BLOCK_RECORD
  5
47
330
1
100
AcDbSymbolTableRecord
100
AcDbBlockTableRecord
  2
block 2
340
0
102
{BLKREFS
331
48
102
}
 70
     0
280
     1
281
     0
  0
BLOCK_RECORD
  5
4C
330
1
100
AcDbSymbolTableRecord
100
AcDbBlockTableRecord
  2
block 3
340
0
102
{BLKREFS
331
4D
102
}
 70
     0
280
     1
281
     0
  0
BLOCK_RECORD
  5
51
330
1
100
AcDbSymbolTableRecord
100
AcDbBlockTableRecord
  2
block 4
340
0
102
{BLKREFS
331
52
102
}
 70
     0
280
     1
281
     0
  0
BLOCK_RECORD
  5
56
330
1
100
AcDbSymbolTableRecord
100
AcDbBlockTableRecord
  2
block 5
340
0
102
{BLKREFS
331
57
102
}
 70
     0
280
     1
281
     0
  0
BLOCK_RECORD
  5
5B
330
1
100
AcDbSymbolTableRecord
100
AcDbBlockTableRecord
  2
block 6
340
0
102
{BLKREFS
331
5C
102
}
 70
     0
280
     1
281
     0
  0
BLOCK_RECORD
  5
60
330
1
100
AcDbSymbolTableRecord
100
AcDbBlockTableRecord
  2
block 7
340
0
102
{BLKREFS
331
61
102
}
 70
     0
280
     1
281
     0
  0
BLOCK_RECORD
  5
65
330
1
100
AcDbSymbolTableRecord
100
AcDbBlockTableRecord
  2
block 8
340
0
102
{BLKREFS
331
66
102
}
 70
     0
280
     1
281
     0
  0
BLOCK_RECORD
  5
6A
330
1
100
AcDbSymbolTableRecord
100
AcDbBlockTableRecord
  2
block 9
340
0
102
{BLKREFS
331
6B
102
}
 70
     0
280
     1
281
     0
  0
BLOCK_RECORD
  5
6F
330
1
100
AcDbSymbolTableRecord
100
AcDbBlockTableRecord
  2
block 10
340
0
102
{BLKREFS
331
70
102
}
 70
     0
280
     1
281
     0
  0
BLOCK_RECORD
  5
74
330
1
100
AcDbSymbolTableRecord
100
AcDbBlockTableRecord
  2
block 11
340
0
102
{BLKREFS
331
75
102
}
 70
     0
280
     1
281
     0
  0
BLOCK_RECORD
  5
79
330
1
100
AcDbSymbolTableRecord
100
AcDbBlockTableRecord
  2
block 12
340
0
102
{BLKREFS
331
7A
102
}
 70
     0
280
     1
281
     0
  0
BLOCK_RECORD
  5
7E
330
1
100
AcDbSymbolTableRecord
100
AcDbBlockTableRecord
  2
block 13
340
0
102
{BLKREFS
331
7F
102
}
 70
     0
280
     1
281
     0
  0
BLOCK_RECORD
  5
89
330
1
100
AcDbSymbolTableRecord
100
AcDbBlockTableRecord
  2
block 14
340
0
102
{BLKREFS
331
8A
102
}
 70
     0
280
     1
281
     0
  0
BLOCK_RECORD
  5
94
330
1
100
AcDbSymbolTableRecord
100
AcDbBlockTableRecord
  2
block 15
340
0
102
{BLKREFS
331
95
102
}
 70
     0
280
     1
281
     0
  0
BLOCK_RECORD
  5
9F
330
1
100
AcDbSymbolTableRecord
100
AcDbBlockTableRecord
  2
block 16
340
0
102
{BLKREFS
331
A0
102
}
 70
     0
280
     1
281
     0
  0
BLOCK_RECORD
  5
AA
330
1
100
AcDbSymbolTableRecord
100
AcDbBlockTableRecord
  2
block 17
340
0
102
{BLKREFS
331
AB
102
}
 70
     0
280
     1
281
     0
  0
BLOCK_RECORD
  5
B5
330
1
100
AcDbSymbolTableRecord
100
AcDbBlockTableRecord
  2
block 18
340
0
102
{BLKREFS
331
B6
102
}
 70
     0
280
     1
281
     0
  0
BLOCK_RECORD
  5
C0
330
1
100
AcDbSymbolTableRecord
100
AcDbBlockTableRecord
  2
block 19
340
0
102
{BLKREFS
331
C1
102
}
 70
     0
280
     1
281
     0
  0
BLOCK_RECORD
  5
CB
330
1
100
AcDbSymbolTableRecord
100
AcDbBlockTableRecord
  2
block 20
340
0
102
{BLKREFS
331
CC
102
}
 70
     0
280
     1
281
     0
  0
BLOCK_RECORD
  5
D6
330
1
100
AcDbSymbolTableRecord
100
AcDbBlockTableRecord
  2
block 21
340
0
102
{BLKREFS
331
D7
102
}
 70
     0
280
     1
281
     0
  0
BLOCK_RECORD
  5
E1
330
1
100
AcDbSymbolTableRecord
100
AcDbBlockTableRecord
  2
block 22
340
0
102
{BLKREFS
331
E2
102
}
 70
     0
280
     1
281
     0
  0
BLOCK_RECORD
  5
EC
330
1
100
AcDbSymbolTableRecord
100
AcDbBlockTableRecord
  2
block 23
340
0
102
{BLKREFS
331
ED
102
}
 70
     0
280
     1
281
     0
  0
BLOCK_RECORD
  5
F7
330
1
100
AcDbSymbolTableRecord
100
AcDbBlockTableRecord
  2
block 24
340
0
102
{BLKREFS
331
F8
102
}
 70
     0
280
     1
281
     0
  0
BLOCK_RECORD
  5
102
330
1
100
AcDbSymbolTableRecord
100
AcDbBlockTableRecord
  2
block 25
340
0
102
{BLKREFS
331
103
102
}
 70
     0
280
     1
281
     0
  0
BLOCK_RECORD
  5
10D
330
1
100
AcDbSymbolTableRecord
100
AcDbBlockTableRecord
  2
block 26
340
0
102
{BLKREFS
331
10E
102
}
 70
     0
280
     1
281
     0
  0
BLOCK_RECORD
  5
118
330
1
100
AcDbSymbolTableRecord
100
AcDbBlockTableRecord
  2
block 27
340
0
102
{BLKREFS
331
119
102
}
 70
     0
280
     1
281
     0
  0
BLOCK_RECORD
  5
123
330
1
100
AcDbSymbolTableRecord
100
AcDbBlockTableRecord
  2
block 28
340
0
102
{BLKREFS
331
124
102
}
 70
     0
280
     1
281
     0
  0
BLOCK_RECORD
  5
12E
330
1
100
AcDbSymbolTableRecord
100
AcDbBlockTableRecord
  2
block 29
340
0
102
{BLKREFS
331
12F
102
}
 70
     0
280
     1
281
     0
  0
BLOCK_RECORD
  5
139
330
1
100
AcDbSymbolTableRecord
100
AcDbBlockTableRecord
  2
block 30
340
0
102
{BLKREFS
331
13A
102
}
 70
     0
280
     1
281
     0
  0
BLOCK_RECORD
  5
144
330
1
100
AcDbSymbolTableRecord
100
AcDbBlockTableRecord
  2
block 31
340
0
102
{BLKREFS
331
145
102
}
 70
     0
280
     1
281
     0
  0
BLOCK_RECORD
  5
148
330
1
100
AcDbSymbolTableRecord
100
AcDbBlockTableRecord
  2
block 32
340
0
102
{BLKREFS
331
149
102
}
 70
     0
280
     1
281
     0
  0
BLOCK_RECORD
  5
14D
330
1
100
AcDbSymbolTableRecord
100
AcDbBlockTableRecord
  2
block 33
340
0
102
{BLKREFS
331
14E
102
}
 70
     0
280
     1
281
     0
  0
BLOCK_RECORD
  5
152
330
1
100
AcDbSymbolTableRecord
100
AcDbBlockTableRecord
  2
block 34
340
0
102
{BLKREFS
331
153
102
}
 70
     0
280
     1
281
     0
  0
BLOCK_RECORD
  5
15B
330
1
100
AcDbSymbolTableRecord
100
AcDbBlockTableRecord
  2
block 35
340
0
102
{BLKREFS
331
15C
102
}
 70
     0
280
     1
281
     0
  0
BLOCK_RECORD
  5
160
330
1
100
AcDbSymbolTableRecord
100
AcDbBlockTableRecord
  2
block 36
340
0
102
{BLKREFS
331
161
102
}
 70
     0
280
     1
281
     0
  0
BLOCK_RECORD
  5
165
330
1
100
AcDbSymbolTableRecord
100
AcDbBlockTableRecord
  2
block 37
340
0
102
{BLKREFS
331
166
102
}
 70
     0
280
     1
281
     0
  0
BLOCK_RECORD
  5
16A
330
1
100
AcDbSymbolTableRecord
100
AcDbBlockTableRecord
  2
block 38
340
0
102
{BLKREFS
331
16B
102
}
 70
     0
280
     1
281
     0
  0
BLOCK_RECORD
  5
16F
330
1
100
AcDbSymbolTableRecord
100
AcDbBlockTableRecord
  2
block 39
340
0
102
{BLKREFS
331
170
102
}
 70
     0
280
     1
281
     0
  0
BLOCK_RECORD
  5
174
330
1
100
AcDbSymbolTableRecord
100
AcDbBlockTableRecord
  2
block 40
340
0
102
{BLKREFS
331
175
102
}
 70
     0
280
     1
281
     0
  0
BLOCK_RECORD
  5
179
330
1
100
AcDbSymbolTableRecord
100
AcDbBlockTableRecord
  2
block 41
340
0
102
{BLKREFS
331
17A
102
}
 70
     0
280
     1
281
     0
  0
BLOCK_RECORD
  5
17E
330
1
100
AcDbSymbolTableRecord
100
AcDbBlockTableRecord
  2
block 42
340
0
102
{BLKREFS
331
17F
102
}
 70
     0
280
     1
281
     0
  0
BLOCK_RECORD
  5
183
330
1
100
AcDbSymbolTableRecord
100
AcDbBlockTableRecord
  2
block 43
340
0
102
{BLKREFS
331
184
102
}
 70
     0
280
     1
281
     0
  0
BLOCK_RECORD
  5
188
330
1
100
AcDbSymbolTableRecord
100
AcDbBlockTableRecord
  2
block 44
340
0
102
{BLKREFS
331
189
102
}
 70
     0
280
     1
281
     0
  0
BLOCK_RECORD
  5
18D
330
1
100
AcDbSymbolTableRecord
100
AcDbBlockTableRecord
  2
block 45
340
0
102
{BLKREFS
331
18E
102
}
 70
     0
280
     1
281
     0
  0
BLOCK_RECORD
  5
192
330
1
100
AcDbSymbolTableRecord
100
AcDbBlockTableRecord
  2
block 46
340
0
102
{BLKREFS
331
193
102
}
 70
     0
280
     1
281
     0
  0
BLOCK_RECORD
  5
19D
330
1
100
AcDbSymbolTableRecord
100
AcDbBlockTableRecord
  2
block 47
340
0
102
{BLKREFS
331
19E
102
}
 70
     0
280
     1
281
     0
  0
BLOCK_RECORD
  5
1A8
330
1
100
AcDbSymbolTableRecord
100
AcDbBlockTableRecord
  2
block 48
340
0
102
{BLKREFS
331
1A9
102
}
 70
     0
280
     1
281
     0
  0
BLOCK_RECORD
  5
1B3
330
1
100
AcDbSymbolTableRecord
100
AcDbBlockTableRecord
  2
block 49
340
0
102
{BLKREFS
331
1B4
102
}
 70
     0
280
     1
281
     0
  0
BLOCK_RECORD
  5
1BE
330
1
100
AcDbSymbolTableRecord
100
AcDbBlockTableRecord
  2
block 50
340
0
102
{BLKREFS
331
1BF
102
}
 70
     0
280
     1
281
     0
  0
BLOCK_RECORD
  5
1C9
330
1
100
AcDbSymbolTableRecord
100
AcDbBlockTableRecord
  2
block 51
340
0
102
{BLKREFS
331
1CA
102
}
 70
     0
280
     1
281
     0
  0
BLOCK_RECORD
  5
1D4
330
1
100
AcDbSymbolTableRecord
100
AcDbBlockTableRecord
  2
block 52
340
0
102
{BLKREFS
331
1D5
102
}
 70
     0
280
     1
281
     0
  0
BLOCK_RECORD
  5
1DF
330
1
100
AcDbSymbolTableRecord
100
AcDbBlockTableRecord
  2
block 53
340
0
102
{BLKREFS
331
1E0
102
}
 70
     0
280
     1
281
     0
  0
BLOCK_RECORD
  5
1EA
330
1
100
AcDbSymbolTableRecord
100
AcDbBlockTableRecord
  2
block 54
340
0
102
{BLKREFS
331
1EB
102
}
 70
     0
280
     1
281
     0
  0
BLOCK_RECORD
  5
1F5
330
1
100
AcDbSymbolTableRecord
100
AcDbBlockTableRecord
  2
block 55
340
0
102
{BLKREFS
331
1F6
102
}
 70
     0
280
     1
281
     0
  0
BLOCK_RECORD
  5
200
330
1
100
AcDbSymbolTableRecord
100
AcDbBlockTableRecord
  2
block 56
340
0
102
{BLKREFS
331
201
102
}
 70
     0
280
     1
281
     0
  0
BLOCK_RECORD
  5
20B
330
1
100
AcDbSymbolTableRecord
100
AcDbBlockTableRecord
  2
block 57
340
0
102
{BLKREFS
331
20C
102
}
 70
     0
280
     1
281
     0
  0
BLOCK_RECORD
  5
216
330
1
100
AcDbSymbolTableRecord
100
AcDbBlockTableRecord
  2
block 58
340
0
102
{BLKREFS
331
217
102
}
 70
     0
280
     1
281
     0
  0
BLOCK_RECORD
  5
221
330
1
100
AcDbSymbolTableRecord
100
AcDbBlockTableRecord
  2
block 59
340
0
102
{BLKREFS
331
222
102
}
 70
     0
280
     1
281
     0
  0
BLOCK_RECORD
  5
22C
330
1
100
AcDbSymbolTableRecord
100
AcDbBlockTableRecord
  2
block 60
340
0
102
{BLKREFS
331
22D
102
}
 70
     0
280
     1
281
     0
  0
BLOCK_RECORD
  5
237
330
1
100
AcDbSymbolTableRecord
100
AcDbBlockTableRecord
  2
block 61
340
0
102
{BLKREFS
331
238
102
}
 70
     0
280
     1
281
     0
  0
BLOCK_RECORD
  5
242
330
1
100
AcDbSymbolTableRecord
100
AcDbBlockTableRecord
  2
block 62
340
0
102
{BLKREFS
331
243
102
}
 70
     0
280
     1
281
     0
  0
BLOCK_RECORD
  5
24D
330
1
100
AcDbSymbolTableRecord
100
AcDbBlockTableRecord
  2
block 63
340
0
102
{BLKREFS
331
24E
102
}
 70
     0
280
     1
281
     0
  0
BLOCK_RECORD
  5
258
330
1
100
AcDbSymbolTableRecord
100
AcDbBlockTableRecord
  2
block 64
340
0
102
{BLKREFS
331
259
102
}
 70
     0
280
     1
281
     0
  0
BLOCK_RECORD
  5
25C
330
1
100
AcDbSymbolTableRecord
100
AcDbBlockTableRecord
  2
block 65
340
0
102
{BLKREFS
331
25D
102
}
 70
     0
280
     1
281
     0
  0
BLOCK_RECORD
  5
261
330
1
100
AcDbSymbolTableRecord
100
AcDbBlockTableRecord
  2
block 66
340
0
102
{BLKREFS
331
262
102
}
 70
     0
280
     1
281
     0
  0
BLOCK_RECORD
  5
266
330
1
100
AcDbSymbolTableRecord
100
AcDbBlockTableRecord
  2
block 67
340
0
102
{BLKREFS
331
267
102
}
 70
     0
280
     1
281
     0
  0
ENDTAB
  0
ENDSEC
  0
SECTION
  2
BLOCKS
  0
BLOCK
  5
20
330
1F
100
AcDbEntity
  8
0
100
AcDbBlockBegin
  2
*Model_Space
 70
     0
 10
0.0
 20
0.0
 30
0.0
  3
*Model_Space
  1

  0
ENDBLK
  5
21
330
1F
100
AcDbEntity
  8
0
100
AcDbBlockEnd
  0
BLOCK
  5
1C
330
1B
100
AcDbEntity
 67
     1
  8
0
100
AcDbBlockBegin
  2
*Paper_Space
 70
     0
 10
0.0
 20
0.0
 30
0.0
  3
*Paper_Space
  1

  0
ENDBLK
  5
1D
330
1B
100
AcDbEntity
 67
     1
  8
0
100
AcDbBlockEnd
  0
BLOCK
  5
24
330
23
100
AcDbEntity
  8
0
100
AcDbBlockBegin
  2
*Paper_Space0
 70
     0
 10
0.0
 20
0.0
 30
0.0
  3
*Paper_Space0
  1

  0
ENDBLK
  5
25
330
23
100
AcDbEntity
  8
0
100
AcDbBlockEnd
  0
BLOCK
  5
49
330
47
100
AcDbEntity
  8
0
100
AcDbBlockBegin
  2
block 2
 70
     0
 10
0.0
 20
0.0
 30
0.0
  3
block 2
  1

  0
SPLINE
  5
4B
330
47
100
AcDbEntity
  8
_U+5207_U+65AD_U+30D1_U+30B9
 62
     1
420
 16711680
370
     9
100
AcDbSpline
210
0.0
220
0.0
230
1.0
 70
    11
 71
     3
 72
    20
 73
    16
 74
     0
 42
0.0000000001
 43
0.0000000001
 12
1.0
 22
0.0
 32
0.0
 13
1.0
 23
0.0
 33
0.0
 40
0.0
 40
0.0
 40
0.0
 40
0.0
 40
1.0
 40
1.0
 40
1.0
 40
2.0
 40
2.0
 40
2.0
 40
3.0
 40
3.0
 40
3.0
 40
4.0
 40
4.0
 40
4.0
 40
5.0
 40
5.0
 40
5.0
 40
5.0
 10
-3.254087196440196
 20
1.498860131658148
 30
0.0
 10
-3.254087196440196
 20
1.522779671635766
 30
0.0
 10
-3.234696578053141
 20
1.542170290023023
 30
0.0
 10
-3.210777038075523
 20
1.542170290023023
 30
0.0
 10
-3.186857498098056
 20
1.542170290023023
 30
0.0
 10
-3.167466879710901
 20
1.522779671635766
 30
0.0
 10
-3.167466879710901
 20
1.498860131658148
 30
0.0
 10
-3.167466879710901
 20
1.47494059168058
 30
0.0
 10
-3.186857498098056
 20
1.455549973293778
 30
0.0
 10
-3.210777038075523
 20
1.455549973293778
 30
0.0
 10
-3.234696578053141
 20
1.455549973293778
 30
0.0
 10
-3.254087196440196
 20
1.47494059168058
 30
0.0
 10
-3.254087196440196
 20
1.498860131658148
 30
0.0
 10
-3.254087196440196
 20
1.498860131658148
 30
0.0
 10
-3.254087196440196
 20
1.498860131658148
 30
0.0
 10
-3.254087196440196
 20
1.498860131658148
 30
0.0
  0
ENDBLK
  5
4A
330
47
100
AcDbEntity
  8
0
100
AcDbBlockEnd
  0
BLOCK
  5
4E
330
4C
100
AcDbEntity
  8
0
100
AcDbBlockBegin
  2
block 3
 70
     0
 10
0.0
 20
0.0
 30
0.0
  3
block 3
  1

  0
SPLINE
  5
50
330
4C
100
AcDbEntity
  8
_U+5207_U+65AD_U+30D1_U+30B9
 62
     1
420
 16711680
370
     9
100
AcDbSpline
210
0.0
220
0.0
230
1.0
 70
    11
 71
     3
 72
    20
 73
    16
 74
     0
 42
0.0000000001
 43
0.0000000001
 12
1.0
 22
0.0
 32
0.0
 13
1.0
 23
0.0
 33
0.0
 40
0.0
 40
0.0
 40
0.0
 40
0.0
 40
1.0
 40
1.0
 40
1.0
 40
2.0
 40
2.0
 40
2.0
 40
3.0
 40
3.0
 40
3.0
 40
4.0
 40
4.0
 40
4.0
 40
5.0
 40
5.0
 40
5.0
 40
5.0
 10
-1.963603690587358
 20
3.063713411517559
 30
0.0
 10
-1.963603690587358
 20
3.087632951495177
 30
0.0
 10
-1.944213072200303
 20
3.107023569881979
 30
0.0
 10
-1.920293532222685
 20
3.107023569881979
 30
0.0
 10
-1.896373992245218
 20
3.107023569881979
 30
0.0
 10
-1.876983373858163
 20
3.087632951495177
 30
0.0
 10
-1.876983373858163
 20
3.063713411517559
 30
0.0
 10
-1.876983373858163
 20
3.039793871539991
 30
0.0
 10
-1.896373992245218
 20
3.020403253152734
 30
0.0
 10
-1.920293532222685
 20
3.020403253152734
 30
0.0
 10
-1.944213072200303
 20
3.020403253152734
 30
0.0
 10
-1.963603690587358
 20
3.039793871539991
 30
0.0
 10
-1.963603690587358
 20
3.063713411517559
 30
0.0
 10
-1.963603690587358
 20
3.063713411517559
 30
0.0
 10
-1.963603690587358
 20
3.063713411517559
 30
0.0
 10
-1.963603690587358
 20
3.063713411517559
 30
0.0
  0
ENDBLK
  5
4F
330
4C
100
AcDbEntity
  8
0
100
AcDbBlockEnd
  0
BLOCK
  5
53
330
51
100
AcDbEntity
  8
0
100
AcDbBlockBegin
  2
block 4
 70
     0
 10
0.0
 20
0.0
 30
0.0
  3
block 4
  1

  0
SPLINE
  5
55
330
51
100
AcDbEntity
  8
_U+5207_U+65AD_U+30D1_U+30B9
 62
     1
420
 16711680
370
     9
100
AcDbSpline
210
0.0
220
0.0
230
1.0
 70
    11
 71
     3
 72
    20
 73
    16
 74
     0
 42
0.0000000001
 43
0.0000000001
 12
1.0
 22
0.0
 32
0.0
 13
1.0
 23
0.0
 33
0.0
 40
0.0
 40
0.0
 40
0.0
 40
0.0
 40
1.0
 40
1.0
 40
1.0
 40
2.0
 40
2.0
 40
2.0
 40
3.0
 40
3.0
 40
3.0
 40
4.0
 40
4.0
 40
4.0
 40
5.0
 40
5.0
 40
5.0
 40
5.0
 10
-4.208207041532394
 20
2.921099288687552
 30
0.0
 10
-4.208207041532394
 20
2.945018828665019
 30
0.0
 10
-4.188816423145239
 20
2.964409447052276
 30
0.0
 10
-4.164896883167772
 20
2.964409447052276
 30
0.0
 10
-4.140977343190153
 20
2.964409447052276
 30
0.0
 10
-4.121586724803112
 20
2.945018828665019
 30
0.0
 10
-4.121586724803112
 20
2.921099288687552
 30
0.0
 10
-4.121586724803112
 20
2.897179748710136
 30
0.0
 10
-4.140977343190153
 20
2.877789130323031
 30
0.0
 10
-4.164896883167772
 20
2.877789130323031
 30
0.0
 10
-4.188816423145239
 20
2.877789130323031
 30
0.0
 10
-4.208207041532394
 20
2.897179748710136
 30
0.0
 10
-4.208207041532394
 20
2.921099288687552
 30
0.0
 10
-4.208207041532394
 20
2.921099288687552
 30
0.0
 10
-4.208207041532394
 20
2.921099288687552
 30
0.0
 10
-4.208207041532394
 20
2.921099288687552
 30
0.0
  0
ENDBLK
  5
54
330
51
100
AcDbEntity
  8
0
100
AcDbBlockEnd
  0
BLOCK
  5
58
330
56
100
AcDbEntity
  8
0
100
AcDbBlockBegin
  2
block 5
 70
     0
 10
0.0
 20
0.0
 30
0.0
  3
block 5
  1

  0
SPLINE
  5
5A
330
56
100
AcDbEntity
  8
_U+5207_U+65AD_U+30D1_U+30B9
 62
     1
420
 16711680
370
     9
100
AcDbSpline
210
0.0
220
0.0
230
1.0
 70
    11
 71
     3
 72
    20
 73
    16
 74
     0
 42
0.0000000001
 43
0.0000000001
 12
1.0
 22
0.0
 32
0.0
 13
1.0
 23
0.0
 33
0.0
 40
0.0
 40
0.0
 40
0.0
 40
0.0
 40
1.0
 40
1.0
 40
1.0
 40
2.0
 40
2.0
 40
2.0
 40
3.0
 40
3.0
 40
3.0
 40
4.0
 40
4.0
 40
4.0
 40
5.0
 40
5.0
 40
5.0
 40
5.0
 10
-4.208553317478605
 20
2.172471508136318
 30
0.0
 10
-4.208553317478605
 20
2.196391048113886
 30
0.0
 10
-4.18916269909155
 20
2.215781666500991
 30
0.0
 10
-4.165243159113944
 20
2.215781666500991
 30
0.0
 10
-4.141323619136529
 20
2.215781666500991
 30
0.0
 10
-4.12193300074931
 20
2.196391048113886
 30
0.0
 10
-4.12193300074931
 20
2.172471508136318
 30
0.0
 10
-4.12193300074931
 20
2.148551968158699
 30
0.0
 10
-4.141323619136529
 20
2.129161349771746
 30
0.0
 10
-4.165243159113944
 20
2.129161349771746
 30
0.0
 10
-4.18916269909155
 20
2.129161349771746
 30
0.0
 10
-4.208553317478605
 20
2.148551968158699
 30
0.0
 10
-4.208553317478605
 20
2.172471508136318
 30
0.0
 10
-4.208553317478605
 20
2.172471508136318
 30
0.0
 10
-4.208553317478605
 20
2.172471508136318
 30
0.0
 10
-4.208553317478605
 20
2.172471508136318
 30
0.0
  0
ENDBLK
  5
59
330
56
100
AcDbEntity
  8
0
100
AcDbBlockEnd
  0
BLOCK
  5
5D
330
5B
100
AcDbEntity
  8
0
100
AcDbBlockBegin
  2
block 6
 70
     0
 10
0.0
 20
0.0
 30
0.0
  3
block 6
  1

  0
SPLINE
  5
5F
330
5B
100
AcDbEntity
  8
_U+5207_U+65AD_U+30D1_U+30B9
 62
     1
420
 16711680
370
     9
100
AcDbSpline
210
0.0
220
0.0
230
1.0
 70
    11
 71
     3
 72
    20
 73
    16
 74
     0
 42
0.0000000001
 43
0.0000000001
 12
1.0
 22
0.0
 32
0.0
 13
1.0
 23
0.0
 33
0.0
 40
0.0
 40
0.0
 40
0.0
 40
0.0
 40
1.0
 40
1.0
 40
1.0
 40
2.0
 40
2.0
 40
2.0
 40
3.0
 40
3.0
 40
3.0
 40
4.0
 40
4.0
 40
4.0
 40
5.0
 40
5.0
 40
5.0
 40
5.0
 10
-1.422591965712349
 20
1.193564477075445
 30
0.0
 10
-1.422591965712349
 20
1.217484017053064
 30
0.0
 10
-1.403201347325345
 20
1.23687463544032
 30
0.0
 10
-1.379281807347727
 20
1.23687463544032
 30
0.0
 10
-1.355362267370209
 20
1.23687463544032
 30
0.0
 10
-1.335971648983104
 20
1.217484017053064
 30
0.0
 10
-1.335971648983104
 20
1.193564477075445
 30
0.0
 10
-1.335971648983104
 20
1.169644937098181
 30
0.0
 10
-1.355362267370209
 20
1.150254318711025
 30
0.0
 10
-1.379281807347727
 20
1.150254318711025
 30
0.0
 10
-1.403201347325345
 20
1.150254318711025
 30
0.0
 10
-1.422591965712349
 20
1.169644937098181
 30
0.0
 10
-1.422591965712349
 20
1.193564477075445
 30
0.0
 10
-1.422591965712349
 20
1.193564477075445
 30
0.0
 10
-1.422591965712349
 20
1.193564477075445
 30
0.0
 10
-1.422591965712349
 20
1.193564477075445
 30
0.0
  0
ENDBLK
  5
5E
330
5B
100
AcDbEntity
  8
0
100
AcDbBlockEnd
  0
BLOCK
  5
62
330
60
100
AcDbEntity
  8
0
100
AcDbBlockBegin
  2
block 7
 70
     0
 10
0.0
 20
0.0
 30
0.0
  3
block 7
  1

  0
SPLINE
  5
64
330
60
100
AcDbEntity
  8
_U+5207_U+65AD_U+30D1_U+30B9
 62
     1
420
 16711680
370
     9
100
AcDbSpline
210
0.0
220
0.0
230
1.0
 70
    11
 71
     3
 72
   116
 73
   112
 74
     0
 42
0.0000000001
 43
0.0000000001
 12
1.0
 22
0.0
 32
0.0
 13
1.0
 23
0.0
 33
0.0
 40
0.0
 40
0.0
 40
0.0
 40
0.0
 40
1.0
 40
1.0
 40
1.0
 40
2.0
 40
2.0
 40
2.0
 40
3.0
 40
3.0
 40
3.0
 40
4.0
 40
4.0
 40
4.0
 40
5.0
 40
5.0
 40
5.0
 40
6.0
 40
6.0
 40
6.0
 40
7.0
 40
7.0
 40
7.0
 40
8.0
 40
8.0
 40
8.0
 40
9.0
 40
9.0
 40
9.0
 40
10.0
 40
10.0
 40
10.0
 40
11.0
 40
11.0
 40
11.0
 40
12.0
 40
12.0
 40
12.0
 40
13.0
 40
13.0
 40
13.0
 40
14.0
 40
14.0
 40
14.0
 40
15.0
 40
15.0
 40
15.0
 40
16.0
 40
16.0
 40
16.0
 40
17.0
 40
17.0
 40
17.0
 40
18.0
 40
18.0
 40
18.0
 40
19.0
 40
19.0
 40
19.0
 40
20.0
 40
20.0
 40
20.0
 40
21.0
 40
21.0
 40
21.0
 40
22.0
 40
22.0
 40
22.0
 40
23.0
 40
23.0
 40
23.0
 40
24.0
 40
24.0
 40
24.0
 40
25.0
 40
25.0
 40
25.0
 40
26.0
 40
26.0
 40
26.0
 40
27.0
 40
27.0
 40
27.0
 40
28.0
 40
28.0
 40
28.0
 40
29.0
 40
29.0
 40
29.0
 40
30.0
 40
30.0
 40
30.0
 40
31.0
 40
31.0
 40
31.0
 40
32.0
 40
32.0
 40
32.0
 40
33.0
 40
33.0
 40
33.0
 40
34.0
 40
34.0
 40
34.0
 40
35.0
 40
35.0
 40
35.0
 40
36.0
 40
36.0
 40
36.0
 40
37.0
 40
37.0
 40
37.0
 40
37.0
 10
1.008180104017432
 20
1.342410293905333
 30
0.0
 10
0.9973075858458236
 20
1.342410293905333
 30
0.0
 10
0.9884936683971166
 20
1.351224211354242
 30
0.0
 10
0.9884936683971166
 20
1.362096729525749
 30
0.0
 10
0.9884936683971166
 20
1.362096729525749
 30
0.0
 10
0.9884936683971166
 20
3.537447865566971
 30
0.0
 10
0.9884936683971166
 20
3.537447865566971
 30
0.0
 10
0.9884936683971166
 20
3.548320383738731
 30
0.0
 10
0.9973075858458236
 20
3.557134301187185
 30
0.0
 10
1.008180104017432
 20
3.557134301187185
 30
0.0
 10
1.008180104017432
 20
3.557134301187185
 30
0.0
 10
1.736787116789249
 20
3.557134301187185
 30
0.0
 10
1.736787116789249
 20
3.557134301187185
 30
0.0
 10
1.747659634961009
 20
3.557134301187185
 30
0.0
 10
1.756473552409615
 20
3.565948218636095
 30
0.0
 10
1.756473552409615
 20
3.576820736807551
 30
0.0
 10
1.756473552409615
 20
3.576820736807551
 30
0.0
 10
1.756473552409615
 20
3.72446900395961
 30
0.0
 10
1.756473552409615
 20
3.72446900395961
 30
0.0
 10
1.756473552409615
 20
3.735341522131269
 30
0.0
 10
1.765287469858322
 20
3.744155439580128
 30
0.0
 10
1.77615998802998
 20
3.744155439580128
 30
0.0
 10
1.77615998802998
 20
3.744155439580128
 30
0.0
 10
2.484871670360108
 20
3.744155439580128
 30
0.0
 10
2.484871670360108
 20
3.744155439580128
 30
0.0
 10
2.495744188531666
 20
3.744155439580128
 30
0.0
 10
2.504558105980423
 20
3.752969357028582
 30
0.0
 10
2.504558105980423
 20
3.76384187520019
 30
0.0
 10
2.504558105980423
 20
3.76384187520019
 30
0.0
 10
2.504558105980423
 20
3.813057964250977
 30
0.0
 10
2.504558105980423
 20
3.813057964250977
 30
0.0
 10
2.504558105980423
 20
3.823930482422636
 30
0.0
 10
2.513372023429029
 20
3.83274439987109
 30
0.0
 10
2.524244541600486
 20
3.83274439987109
 30
0.0
 10
2.524244541600486
 20
3.83274439987109
 30
0.0
 10
3.193583352690338
 20
3.83274439987109
 30
0.0
 10
3.193583352690338
 20
3.83274439987109
 30
0.0
 10
3.204455870861845
 20
3.83274439987109
 30
0.0
 10
3.2132697883104
 20
3.823930482422636
 30
0.0
 10
3.2132697883104
 20
3.813057964250977
 30
0.0
 10
3.2132697883104
 20
3.813057964250977
 30
0.0
 10
3.2132697883104
 20
3.76384187520019
 30
0.0
 10
3.2132697883104
 20
3.76384187520019
 30
0.0
 10
3.2132697883104
 20
3.752969357028582
 30
0.0
 10
3.222083705759157
 20
3.744155439580128
 30
0.0
 10
3.232956223930715
 20
3.744155439580128
 30
0.0
 10
3.232956223930715
 20
3.744155439580128
 30
0.0
 10
3.941667906260894
 20
3.744155439580128
 30
0.0
 10
3.941667906260894
 20
3.744155439580128
 30
0.0
 10
3.952540424432451
 20
3.744155439580128
 30
0.0
 10
3.96135434188131
 20
3.735341522131269
 30
0.0
 10
3.96135434188131
 20
3.72446900395961
 30
0.0
 10
3.96135434188131
 20
3.72446900395961
 30
0.0
 10
3.96135434188131
 20
3.665409697098918
 30
0.0
 10
3.96135434188131
 20
3.665409697098918
 30
0.0
 10
3.96135434188131
 20
3.654537178927158
 30
0.0
 10
3.970168259329815
 20
3.645723261478552
 30
0.0
 10
3.981040777501625
 20
3.645723261478552
 30
0.0
 10
3.981040777501625
 20
3.645723261478552
 30
0.0
 10
4.68975245983145
 20
3.645723261478552
 30
0.0
 10
4.68975245983145
 20
3.645723261478552
 30
0.0
 10
4.700624978003311
 20
3.645723261478552
 30
0.0
 10
4.709438895451917
 20
3.636909344029846
 30
0.0
 10
4.709438895451917
 20
3.626036825858187
 30
0.0
 10
4.709438895451917
 20
3.626036825858187
 30
0.0
 10
4.709438895451917
 20
3.577430769228057
 30
0.0
 10
4.709438895451917
 20
3.577430769228057
 30
0.0
 10
4.709438895451917
 20
3.577430769228057
 30
0.0
 10
4.709411512565162
 20
2.937243330379109
 30
0.0
 10
4.709411512565162
 20
2.937243330379109
 30
0.0
 10
4.709411512565162
 20
2.937243330379109
 30
0.0
 10
4.709419545492588
 20
1.665872247325347
 30
0.0
 10
4.709419545492588
 20
1.665872247325347
 30
0.0
 10
4.712649808581217
 20
1.650779805285159
 30
0.0
 10
4.720634017223801
 20
1.637120700083313
 30
0.0
 10
4.732199770705342
 20
1.626900633901591
 30
0.0
 10
4.732199770705342
 20
1.626900633901591
 30
0.0
 10
5.483260764182179
 20
1.192358203499225
 30
0.0
 10
5.483260764182179
 20
1.192358203499225
 30
0.0
 10
5.504025230905982
 20
1.176752712727092
 30
0.0
 10
5.510406639087907
 20
1.148390898585856
 30
0.0
 10
5.498327357947144
 20
1.125395564544002
 30
0.0
 10
5.498327357947144
 20
1.125395564544002
 30
0.0
 10
4.977174419887837
 20
0.2183148199874773
 30
0.0
 10
4.977174419887837
 20
0.2183148199874773
 30
0.0
 10
4.976987618483084
 20
0.2180332614440582
 30
0.0
 10
4.976796670976555
 20
0.2177544757435296
 30
0.0
 10
4.976601639774647
 20
0.2174785540000812
 30
0.0
 10
4.965656471182582
 20
0.2019938009366342
 30
0.0
 10
4.944230786353172
 20
0.1983137406091373
 30
0.0
 10
4.928746033289472
 20
0.2092589092014552
 30
0.0
 10
4.928746033289472
 20
0.2092589092014552
 30
0.0
 10
4.348050395256703
 20
0.5434921504514831
 30
0.0
 10
4.348050395256703
 20
0.5434921504514831
 30
0.0
 10
4.344458540085876
 20
0.5447409297442188
 30
0.0
 10
4.340769502591785
 20
0.5456903243368995
 30
0.0
 10
4.337021049385435
 20
0.5463306147792839
 30
0.0
 10
4.337021049385435
 20
0.5463306147792839
 30
0.0
 10
2.88844360057596
 20
0.7616604431072017
 30
0.0
 10
2.88844360057596
 20
0.7616604431072017
 30
0.0
 10
2.883355121679566
 20
0.7621769982871329
 30
0.0
 10
2.878546448631469
 20
0.7642378581650114
 30
0.0
 10
2.874663095641709
 20
0.7675663737934175
 30
0.0
 10
2.874663095641709
 20
0.7675663737934175
 30
0.0
 10
2.459279304053679
 20
1.33682827893012
 30
0.0
 10
2.459419211243888
 20
1.336644270409781
 30
0.0
 10
2.455727288403169
 20
1.340336193250449
 30
0.0
 10
2.450719966472207
 20
1.342410293905333
 30
0.0
 10
2.445498799119428
 20
1.342410293905333
 30
0.0
 10
2.445498799119428
 20
1.342410293905333
 30
0.0
 10
1.008180104017432
 20
1.342410293905333
 30
0.0
 10
1.008180104017432
 20
1.342410293905333
 30
0.0
  0
ENDBLK
  5
63
330
60
100
AcDbEntity
  8
0
100
AcDbBlockEnd
  0
BLOCK
  5
67
330
65
100
AcDbEntity
  8
0
100
AcDbBlockBegin
  2
block 8
 70
     0
 10
0.0
 20
0.0
 30
0.0
  3
block 8
  1

  0
SPLINE
  5
69
330
65
100
AcDbEntity
  8
_U+5207_U+65AD_U+30D1_U+30B9
 62
     1
420
 16711680
370
     9
100
AcDbSpline
210
0.0
220
0.0
230
1.0
 70
    11
 71
     3
 72
    20
 73
    16
 74
     0
 42
0.0000000001
 43
0.0000000001
 12
1.0
 22
0.0
 32
0.0
 13
1.0
 23
0.0
 33
0.0
 40
0.0
 40
0.0
 40
0.0
 40
0.0
 40
1.0
 40
1.0
 40
1.0
 40
2.0
 40
2.0
 40
2.0
 40
3.0
 40
3.0
 40
3.0
 40
4.0
 40
4.0
 40
4.0
 40
5.0
 40
5.0
 40
5.0
 40
5.0
 10
3.938490114604671
 20
2.966544137449596
 30
0.0
 10
3.938490114604671
 20
2.990463677427063
 30
0.0
 10
3.957880732991826
 20
3.009854295814016
 30
0.0
 10
3.981800272969445
 20
3.009854295814016
 30
0.0
 10
4.005719812947063
 20
3.009854295814016
 30
0.0
 10
4.025110431333916
 20
2.990463677427063
 30
0.0
 10
4.025110431333916
 20
2.966544137449596
 30
0.0
 10
4.025110431333916
 20
2.942624597471877
 30
0.0
 10
4.005719812947063
 20
2.923233979084772
 30
0.0
 10
3.981800272969445
 20
2.923233979084772
 30
0.0
 10
3.957880732991826
 20
2.923233979084772
 30
0.0
 10
3.938490114604671
 20
2.942624597471877
 30
0.0
 10
3.938490114604671
 20
2.966544137449596
 30
0.0
 10
3.938490114604671
 20
2.966544137449596
 30
0.0
 10
3.938490114604671
 20
2.966544137449596
 30
0.0
 10
3.938490114604671
 20
2.966544137449596
 30
0.0
  0
ENDBLK
  5
68
330
65
100
AcDbEntity
  8
0
100
AcDbBlockEnd
  0
BLOCK
  5
6C
330
6A
100
AcDbEntity
  8
0
100
AcDbBlockBegin
  2
block 9
 70
     0
 10
0.0
 20
0.0
 30
0.0
  3
block 9
  1

  0
SPLINE
  5
6E
330
6A
100
AcDbEntity
  8
_U+5207_U+65AD_U+30D1_U+30B9
 62
     1
420
 16711680
370
     9
100
AcDbSpline
210
0.0
220
0.0
230
1.0
 70
    11
 71
     3
 72
    20
 73
    16
 74
     0
 42
0.0000000001
 43
0.0000000001
 12
1.0
 22
0.0
 32
0.0
 13
1.0
 23
0.0
 33
0.0
 40
0.0
 40
0.0
 40
0.0
 40
0.0
 40
1.0
 40
1.0
 40
1.0
 40
2.0
 40
2.0
 40
2.0
 40
3.0
 40
3.0
 40
3.0
 40
4.0
 40
4.0
 40
4.0
 40
5.0
 40
5.0
 40
5.0
 40
5.0
 10
1.693886763659836
 20
2.82393001461959
 30
0.0
 10
1.693886763659836
 20
2.847849554597057
 30
0.0
 10
1.713277382046789
 20
2.867240172984161
 30
0.0
 10
1.737196922024357
 20
2.867240172984161
 30
0.0
 10
1.761116462001976
 20
2.867240172984161
 30
0.0
 10
1.780507080389131
 20
2.847849554597057
 30
0.0
 10
1.780507080389131
 20
2.82393001461959
 30
0.0
 10
1.780507080389131
 20
2.800010474642173
 30
0.0
 10
1.761116462001976
 20
2.780619856255069
 30
0.0
 10
1.737196922024357
 20
2.780619856255069
 30
0.0
 10
1.713277382046789
 20
2.780619856255069
 30
0.0
 10
1.693886763659836
 20
2.800010474642173
 30
0.0
 10
1.693886763659836
 20
2.82393001461959
 30
0.0
 10
1.693886763659836
 20
2.82393001461959
 30
0.0
 10
1.693886763659836
 20
2.82393001461959
 30
0.0
 10
1.693886763659836
 20
2.82393001461959
 30
0.0
  0
ENDBLK
  5
6D
330
6A
100
AcDbEntity
  8
0
100
AcDbBlockEnd
  0
BLOCK
  5
71
330
6F
100
AcDbEntity
  8
0
100
AcDbBlockBegin
  2
block 10
 70
     0
 10
0.0
 20
0.0
 30
0.0
  3
block 10
  1

  0
SPLINE
  5
73
330
6F
100
AcDbEntity
  8
_U+5207_U+65AD_U+30D1_U+30B9
 62
     1
420
 16711680
370
     9
100
AcDbSpline
210
0.0
220
0.0
230
1.0
 70
    11
 71
     3
 72
    20
 73
    16
 74
     0
 42
0.0000000001
 43
0.0000000001
 12
1.0
 22
0.0
 32
0.0
 13
1.0
 23
0.0
 33
0.0
 40
0.0
 40
0.0
 40
0.0
 40
0.0
 40
1.0
 40
1.0
 40
1.0
 40
2.0
 40
2.0
 40
2.0
 40
3.0
 40
3.0
 40
3.0
 40
4.0
 40
4.0
 40
4.0
 40
5.0
 40
5.0
 40
5.0
 40
5.0
 10
1.693540487713525
 20
2.075302234068355
 30
0.0
 10
1.693540487713525
 20
2.099221774045771
 30
0.0
 10
1.71293110610068
 20
2.118612392433179
 30
0.0
 10
1.736850646077995
 20
2.118612392433179
 30
0.0
 10
1.760770186055664
 20
2.118612392433179
 30
0.0
 10
1.780160804442769
 20
2.099221774045771
 30
0.0
 10
1.780160804442769
 20
2.075302234068355
 30
0.0
 10
1.780160804442769
 20
2.051382694090737
 30
0.0
 10
1.760770186055664
 20
2.031992075703783
 30
0.0
 10
1.736850646077995
 20
2.031992075703783
 30
0.0
 10
1.71293110610068
 20
2.031992075703783
 30
0.0
 10
1.693540487713525
 20
2.051382694090737
 30
0.0
 10
1.693540487713525
 20
2.075302234068355
 30
0.0
 10
1.693540487713525
 20
2.075302234068355
 30
0.0
 10
1.693540487713525
 20
2.075302234068355
 30
0.0
 10
1.693540487713525
 20
2.075302234068355
 30
0.0
  0
ENDBLK
  5
72
330
6F
100
AcDbEntity
  8
0
100
AcDbBlockEnd
  0
BLOCK
  5
76
330
74
100
AcDbEntity
  8
0
100
AcDbBlockBegin
  2
block 11
 70
     0
 10
0.0
 20
0.0
 30
0.0
  3
block 11
  1

  0
SPLINE
  5
78
330
74
100
AcDbEntity
  8
_U+5207_U+65AD_U+30D1_U+30B9
 62
     1
420
 16711680
370
     9
100
AcDbSpline
210
0.0
220
0.0
230
1.0
 70
    11
 71
     3
 72
    20
 73
    16
 74
     0
 42
0.0000000001
 43
0.0000000001
 12
1.0
 22
0.0
 32
0.0
 13
1.0
 23
0.0
 33
0.0
 40
0.0
 40
0.0
 40
0.0
 40
0.0
 40
1.0
 40
1.0
 40
1.0
 40
2.0
 40
2.0
 40
2.0
 40
3.0
 40
3.0
 40
3.0
 40
4.0
 40
4.0
 40
4.0
 40
5.0
 40
5.0
 40
5.0
 40
5.0
 10
4.479501839479932
 20
1.096395203007483
 30
0.0
 10
4.479501839479932
 20
1.120314742985101
 30
0.0
 10
4.498892457866835
 20
1.139705361372206
 30
0.0
 10
4.522811997844352
 20
1.139705361372206
 30
0.0
 10
4.54673153782197
 20
1.139705361372206
 30
0.0
 10
4.566122156208873
 20
1.120314742985101
 30
0.0
 10
4.566122156208873
 20
1.096395203007483
 30
0.0
 10
4.566122156208873
 20
1.072475663030218
 30
0.0
 10
4.54673153782197
 20
1.053085044642962
 30
0.0
 10
4.522811997844352
 20
1.053085044642962
 30
0.0
 10
4.498892457866835
 20
1.053085044642962
 30
0.0
 10
4.479501839479932
 20
1.072475663030218
 30
0.0
 10
4.479501839479932
 20
1.096395203007483
 30
0.0
 10
4.479501839479932
 20
1.096395203007483
 30
0.0
 10
4.479501839479932
 20
1.096395203007483
 30
0.0
 10
4.479501839479932
 20
1.096395203007483
 30
0.0
  0
ENDBLK
  5
77
330
74
100
AcDbEntity
  8
0
100
AcDbBlockEnd
  0
BLOCK
  5
7B
330
79
100
AcDbEntity
  8
0
100
AcDbBlockBegin
  2
block 12
 70
     0
 10
0.0
 20
0.0
 30
0.0
  3
block 12
  1

  0
SPLINE
  5
7D
330
79
100
AcDbEntity
  8
_U+5207_U+65AD_U+30D1_U+30B9
 62
     1
420
 16711680
370
     9
100
AcDbSpline
210
0.0
220
0.0
230
1.0
 70
    11
 71
     3
 72
    20
 73
    16
 74
     0
 42
0.0000000001
 43
0.0000000001
 12
1.0
 22
0.0
 32
0.0
 13
1.0
 23
0.0
 33
0.0
 40
0.0
 40
0.0
 40
0.0
 40
0.0
 40
1.0
 40
1.0
 40
1.0
 40
2.0
 40
2.0
 40
2.0
 40
3.0
 40
3.0
 40
3.0
 40
4.0
 40
4.0
 40
4.0
 40
5.0
 40
5.0
 40
5.0
 40
5.0
 10
2.648006608752085
 20
1.401690857590185
 30
0.0
 10
2.648006608752085
 20
1.425610397567804
 30
0.0
 10
2.667397227138938
 20
1.445001015954909
 30
0.0
 10
2.691316767116607
 20
1.445001015954909
 30
0.0
 10
2.715236307094225
 20
1.445001015954909
 30
0.0
 10
2.734626925481078
 20
1.425610397567804
 30
0.0
 10
2.734626925481078
 20
1.401690857590185
 30
0.0
 10
2.734626925481078
 20
1.377771317612617
 30
0.0
 10
2.715236307094225
 20
1.358380699225816
 30
0.0
 10
2.691316767116607
 20
1.358380699225816
 30
0.0
 10
2.667397227138938
 20
1.358380699225816
 30
0.0
 10
2.648006608752085
 20
1.377771317612617
 30
0.0
 10
2.648006608752085
 20
1.401690857590185
 30
0.0
 10
2.648006608752085
 20
1.401690857590185
 30
0.0
 10
2.648006608752085
 20
1.401690857590185
 30
0.0
 10
2.648006608752085
 20
1.401690857590185
 30
0.0
  0
ENDBLK
  5
7C
330
79
100
AcDbEntity
  8
0
100
AcDbBlockEnd
  0
BLOCK
  5
80
330
7E
100
AcDbEntity
  8
0
100
AcDbBlockBegin
  2
block 13
 70
     0
 10
0.0
 20
0.0
 30
0.0
  3
block 13
  1

  0
POLYLINE
  5
82
330
7E
100
AcDbEntity
  8
_U+5207_U+65AD_U+30D1_U+30B9
 62
     1
420
 16711680
370
     9
100
AcDb2dPolyline
 66
     1
 10
0.0
 20
0.0
 30
0.0
  0
VERTEX
  5
83
330
82
100
AcDbEntity
  8
_U+5207_U+65AD_U+30D1_U+30B9
 62
     1
420
 16711680
370
     9
100
AcDbVertex
100
AcDb2dVertex
 10
1.089888812550776
 20
3.470899342252626
 30
0.0
  0
VERTEX
  5
84
330
82
100
AcDbEntity
  8
_U+5207_U+65AD_U+30D1_U+30B9
 62
     1
420
 16711680
370
     9
100
AcDbVertex
100
AcDb2dVertex
 10
1.089888812550776
 20
2.92558507557078
 30
0.0
  0
VERTEX
  5
85
330
82
100
AcDbEntity
  8
_U+5207_U+65AD_U+30D1_U+30B9
 62
     1
420
 16711680
370
     9
100
AcDbVertex
100
AcDb2dVertex
 10
1.635203079232636
 20
2.92558507557078
 30
0.0
  0
VERTEX
  5
86
330
82
100
AcDbEntity
  8
_U+5207_U+65AD_U+30D1_U+30B9
 62
     1
420
 16711680
370
     9
100
AcDbVertex
100
AcDb2dVertex
 10
1.635203079232636
 20
3.470899342252626
 30
0.0
  0
VERTEX
  5
87
330
82
100
AcDbEntity
  8
_U+5207_U+65AD_U+30D1_U+30B9
 62
     1
420
 16711680
370
     9
100
AcDbVertex
100
AcDb2dVertex
 10
1.089888812550776
 20
3.470899342252626
 30
0.0
  0
SEQEND
  5
88
330
82
100
AcDbEntity
  8
_U+5207_U+65AD_U+30D1_U+30B9
 62
     1
420
 16711680
370
     9
  0
ENDBLK
  5
81
330
7E
100
AcDbEntity
  8
0
100
AcDbBlockEnd
  0
BLOCK
  5
8B
330
89
100
AcDbEntity
  8
0
100
AcDbBlockBegin
  2
block 14
 70
     0
 10
0.0
 20
0.0
 30
0.0
  3
block 14
  1

  0
POLYLINE
  5
8D
330
89
100
AcDbEntity
  8
_U+5207_U+65AD_U+30D1_U+30B9
 62
     1
420
 16711680
370
     9
100
AcDb2dPolyline
 66
     1
 10
0.0
 20
0.0
 30
0.0
  0
VERTEX
  5
8E
330
8D
100
AcDbEntity
  8
_U+5207_U+65AD_U+30D1_U+30B9
 62
     1
420
 16711680
370
     9
100
AcDbVertex
100
AcDb2dVertex
 10
1.089888812550776
 20
2.72281478868202
 30
0.0
  0
VERTEX
  5
8F
330
8D
100
AcDbEntity
  8
_U+5207_U+65AD_U+30D1_U+30B9
 62
     1
420
 16711680
370
     9
100
AcDbVertex
100
AcDb2dVertex
 10
1.089888812550776
 20
2.177500522000021
 30
0.0
  0
VERTEX
  5
90
330
8D
100
AcDbEntity
  8
_U+5207_U+65AD_U+30D1_U+30B9
 62
     1
420
 16711680
370
     9
100
AcDbVertex
100
AcDb2dVertex
 10
1.635203079232636
 20
2.177500522000021
 30
0.0
  0
VERTEX
  5
91
330
8D
100
AcDbEntity
  8
_U+5207_U+65AD_U+30D1_U+30B9
 62
     1
420
 16711680
370
     9
100
AcDbVertex
100
AcDb2dVertex
 10
1.635203079232636
 20
2.72281478868202
 30
0.0
  0
VERTEX
  5
92
330
8D
100
AcDbEntity
  8
_U+5207_U+65AD_U+30D1_U+30B9
 62
     1
420
 16711680
370
     9
100
AcDbVertex
100
AcDb2dVertex
 10
1.089888812550776
 20
2.72281478868202
 30
0.0
  0
SEQEND
  5
93
330
8D
100
AcDbEntity
  8
_U+5207_U+65AD_U+30D1_U+30B9
 62
     1
420
 16711680
370
     9
  0
ENDBLK
  5
8C
330
89
100
AcDbEntity
  8
0
100
AcDbBlockEnd
  0
BLOCK
  5
96
330
94
100
AcDbEntity
  8
0
100
AcDbBlockBegin
  2
block 15
 70
     0
 10
0.0
 20
0.0
 30
0.0
  3
block 15
  1

  0
POLYLINE
  5
98
330
94
100
AcDbEntity
  8
_U+5207_U+65AD_U+30D1_U+30B9
 62
     1
420
 16711680
370
     9
100
AcDb2dPolyline
 66
     1
 10
0.0
 20
0.0
 30
0.0
  0
VERTEX
  5
99
330
98
100
AcDbEntity
  8
_U+5207_U+65AD_U+30D1_U+30B9
 62
     1
420
 16711680
370
     9
100
AcDbVertex
100
AcDb2dVertex
 10
1.089888812550776
 20
1.974730235111262
 30
0.0
  0
VERTEX
  5
9A
330
98
100
AcDbEntity
  8
_U+5207_U+65AD_U+30D1_U+30B9
 62
     1
420
 16711680
370
     9
100
AcDbVertex
100
AcDb2dVertex
 10
1.089888812550776
 20
1.429415968429465
 30
0.0
  0
VERTEX
  5
9B
330
98
100
AcDbEntity
  8
_U+5207_U+65AD_U+30D1_U+30B9
 62
     1
420
 16711680
370
     9
100
AcDbVertex
100
AcDb2dVertex
 10
1.635203079232636
 20
1.429415968429465
 30
0.0
  0
VERTEX
  5
9C
330
98
100
AcDbEntity
  8
_U+5207_U+65AD_U+30D1_U+30B9
 62
     1
420
 16711680
370
     9
100
AcDbVertex
100
AcDb2dVertex
 10
1.635203079232636
 20
1.974730235111262
 30
0.0
  0
VERTEX
  5
9D
330
98
100
AcDbEntity
  8
_U+5207_U+65AD_U+30D1_U+30B9
 62
     1
420
 16711680
370
     9
100
AcDbVertex
100
AcDb2dVertex
 10
1.089888812550776
 20
1.974730235111262
 30
0.0
  0
SEQEND
  5
9E
330
98
100
AcDbEntity
  8
_U+5207_U+65AD_U+30D1_U+30B9
 62
     1
420
 16711680
370
     9
  0
ENDBLK
  5
97
330
94
100
AcDbEntity
  8
0
100
AcDbBlockEnd
  0
BLOCK
  5
A1
330
9F
100
AcDbEntity
  8
0
100
AcDbBlockBegin
  2
block 16
 70
     0
 10
0.0
 20
0.0
 30
0.0
  3
block 16
  1

  0
POLYLINE
  5
A3
330
9F
100
AcDbEntity
  8
_U+5207_U+65AD_U+30D1_U+30B9
 62
     1
420
 16711680
370
     9
100
AcDb2dPolyline
 66
     1
 10
0.0
 20
0.0
 30
0.0
  0
VERTEX
  5
A4
330
A3
100
AcDbEntity
  8
_U+5207_U+65AD_U+30D1_U+30B9
 62
     1
420
 16711680
370
     9
100
AcDbVertex
100
AcDb2dVertex
 10
1.837973366121736
 20
3.657920480645266
 30
0.0
  0
VERTEX
  5
A5
330
A3
100
AcDbEntity
  8
_U+5207_U+65AD_U+30D1_U+30B9
 62
     1
420
 16711680
370
     9
100
AcDbVertex
100
AcDb2dVertex
 10
1.837973366121736
 20
3.11260621396357
 30
0.0
  0
VERTEX
  5
A6
330
A3
100
AcDbEntity
  8
_U+5207_U+65AD_U+30D1_U+30B9
 62
     1
420
 16711680
370
     9
100
AcDbVertex
100
AcDb2dVertex
 10
2.383287632803482
 20
3.11260621396357
 30
0.0
  0
VERTEX
  5
A7
330
A3
100
AcDbEntity
  8
_U+5207_U+65AD_U+30D1_U+30B9
 62
     1
420
 16711680
370
     9
100
AcDbVertex
100
AcDb2dVertex
 10
2.383287632803482
 20
3.657920480645266
 30
0.0
  0
VERTEX
  5
A8
330
A3
100
AcDbEntity
  8
_U+5207_U+65AD_U+30D1_U+30B9
 62
     1
420
 16711680
370
     9
100
AcDbVertex
100
AcDb2dVertex
 10
1.837973366121736
 20
3.657920480645266
 30
0.0
  0
SEQEND
  5
A9
330
A3
100
AcDbEntity
  8
_U+5207_U+65AD_U+30D1_U+30B9
 62
     1
420
 16711680
370
     9
  0
ENDBLK
  5
A2
330
9F
100
AcDbEntity
  8
0
100
AcDbBlockEnd
  0
BLOCK
  5
AC
330
AA
100
AcDbEntity
  8
0
100
AcDbBlockBegin
  2
block 17
 70
     0
 10
0.0
 20
0.0
 30
0.0
  3
block 17
  1

  0
POLYLINE
  5
AE
330
AA
100
AcDbEntity
  8
_U+5207_U+65AD_U+30D1_U+30B9
 62
     1
420
 16711680
370
     9
100
AcDb2dPolyline
 66
     1
 10
0.0
 20
0.0
 30
0.0
  0
VERTEX
  5
AF
330
AE
100
AcDbEntity
  8
_U+5207_U+65AD_U+30D1_U+30B9
 62
     1
420
 16711680
370
     9
100
AcDbVertex
100
AcDb2dVertex
 10
1.837973366121736
 20
2.909835927074659
 30
0.0
  0
VERTEX
  5
B0
330
AE
100
AcDbEntity
  8
_U+5207_U+65AD_U+30D1_U+30B9
 62
     1
420
 16711680
370
     9
100
AcDbVertex
100
AcDb2dVertex
 10
1.837973366121736
 20
2.364521660392964
 30
0.0
  0
VERTEX
  5
B1
330
AE
100
AcDbEntity
  8
_U+5207_U+65AD_U+30D1_U+30B9
 62
     1
420
 16711680
370
     9
100
AcDbVertex
100
AcDb2dVertex
 10
2.383287632803482
 20
2.364521660392964
 30
0.0
  0
VERTEX
  5
B2
330
AE
100
AcDbEntity
  8
_U+5207_U+65AD_U+30D1_U+30B9
 62
     1
420
 16711680
370
     9
100
AcDbVertex
100
AcDb2dVertex
 10
2.383287632803482
 20
2.909835927074659
 30
0.0
  0
VERTEX
  5
B3
330
AE
100
AcDbEntity
  8
_U+5207_U+65AD_U+30D1_U+30B9
 62
     1
420
 16711680
370
     9
100
AcDbVertex
100
AcDb2dVertex
 10
1.837973366121736
 20
2.909835927074659
 30
0.0
  0
SEQEND
  5
B4
330
AE
100
AcDbEntity
  8
_U+5207_U+65AD_U+30D1_U+30B9
 62
     1
420
 16711680
370
     9
  0
ENDBLK
  5
AD
330
AA
100
AcDbEntity
  8
0
100
AcDbBlockEnd
  0
BLOCK
  5
B7
330
B5
100
AcDbEntity
  8
0
100
AcDbBlockBegin
  2
block 18
 70
     0
 10
0.0
 20
0.0
 30
0.0
  3
block 18
  1

  0
POLYLINE
  5
B9
330
B5
100
AcDbEntity
  8
_U+5207_U+65AD_U+30D1_U+30B9
 62
     1
420
 16711680
370
     9
100
AcDb2dPolyline
 66
     1
 10
0.0
 20
0.0
 30
0.0
  0
VERTEX
  5
BA
330
B9
100
AcDbEntity
  8
_U+5207_U+65AD_U+30D1_U+30B9
 62
     1
420
 16711680
370
     9
100
AcDbVertex
100
AcDb2dVertex
 10
1.837973366121736
 20
2.161751373503749
 30
0.0
  0
VERTEX
  5
BB
330
B9
100
AcDbEntity
  8
_U+5207_U+65AD_U+30D1_U+30B9
 62
     1
420
 16711680
370
     9
100
AcDbVertex
100
AcDb2dVertex
 10
1.837973366121736
 20
1.616437106822104
 30
0.0
  0
VERTEX
  5
BC
330
B9
100
AcDbEntity
  8
_U+5207_U+65AD_U+30D1_U+30B9
 62
     1
420
 16711680
370
     9
100
AcDbVertex
100
AcDb2dVertex
 10
2.383287632803482
 20
1.616437106822104
 30
0.0
  0
VERTEX
  5
BD
330
B9
100
AcDbEntity
  8
_U+5207_U+65AD_U+30D1_U+30B9
 62
     1
420
 16711680
370
     9
100
AcDbVertex
100
AcDb2dVertex
 10
2.383287632803482
 20
2.161751373503749
 30
0.0
  0
VERTEX
  5
BE
330
B9
100
AcDbEntity
  8
_U+5207_U+65AD_U+30D1_U+30B9
 62
     1
420
 16711680
370
     9
100
AcDbVertex
100
AcDb2dVertex
 10
1.837973366121736
 20
2.161751373503749
 30
0.0
  0
SEQEND
  5
BF
330
B9
100
AcDbEntity
  8
_U+5207_U+65AD_U+30D1_U+30B9
 62
     1
420
 16711680
370
     9
  0
ENDBLK
  5
B8
330
B5
100
AcDbEntity
  8
0
100
AcDbBlockEnd
  0
BLOCK
  5
C2
330
C0
100
AcDbEntity
  8
0
100
AcDbBlockBegin
  2
block 19
 70
     0
 10
0.0
 20
0.0
 30
0.0
  3
block 19
  1

  0
POLYLINE
  5
C4
330
C0
100
AcDbEntity
  8
_U+5207_U+65AD_U+30D1_U+30B9
 62
     1
420
 16711680
370
     9
100
AcDb2dPolyline
 66
     1
 10
0.0
 20
0.0
 30
0.0
  0
VERTEX
  5
C5
330
C4
100
AcDbEntity
  8
_U+5207_U+65AD_U+30D1_U+30B9
 62
     1
420
 16711680
370
     9
100
AcDbVertex
100
AcDb2dVertex
 10
2.586057919692292
 20
3.751431049841509
 30
0.0
  0
VERTEX
  5
C6
330
C4
100
AcDbEntity
  8
_U+5207_U+65AD_U+30D1_U+30B9
 62
     1
420
 16711680
370
     9
100
AcDbVertex
100
AcDb2dVertex
 10
2.586057919692292
 20
3.206116783159864
 30
0.0
  0
VERTEX
  5
C7
330
C4
100
AcDbEntity
  8
_U+5207_U+65AD_U+30D1_U+30B9
 62
     1
420
 16711680
370
     9
100
AcDbVertex
100
AcDb2dVertex
 10
3.131372186374089
 20
3.206116783159864
 30
0.0
  0
VERTEX
  5
C8
330
C4
100
AcDbEntity
  8
_U+5207_U+65AD_U+30D1_U+30B9
 62
     1
420
 16711680
370
     9
100
AcDbVertex
100
AcDb2dVertex
 10
3.131372186374089
 20
3.751431049841509
 30
0.0
  0
VERTEX
  5
C9
330
C4
100
AcDbEntity
  8
_U+5207_U+65AD_U+30D1_U+30B9
 62
     1
420
 16711680
370
     9
100
AcDbVertex
100
AcDb2dVertex
 10
2.586057919692292
 20
3.751431049841509
 30
0.0
  0
SEQEND
  5
CA
330
C4
100
AcDbEntity
  8
_U+5207_U+65AD_U+30D1_U+30B9
 62
     1
420
 16711680
370
     9
  0
ENDBLK
  5
C3
330
C0
100
AcDbEntity
  8
0
100
AcDbBlockEnd
  0
BLOCK
  5
CD
330
CB
100
AcDbEntity
  8
0
100
AcDbBlockBegin
  2
block 20
 70
     0
 10
0.0
 20
0.0
 30
0.0
  3
block 20
  1

  0
POLYLINE
  5
CF
330
CB
100
AcDbEntity
  8
_U+5207_U+65AD_U+30D1_U+30B9
 62
     1
420
 16711680
370
     9
100
AcDb2dPolyline
 66
     1
 10
0.0
 20
0.0
 30
0.0
  0
VERTEX
  5
D0
330
CF
100
AcDbEntity
  8
_U+5207_U+65AD_U+30D1_U+30B9
 62
     1
420
 16711680
370
     9
100
AcDbVertex
100
AcDb2dVertex
 10
2.586057919692292
 20
3.003346496271054
 30
0.0
  0
VERTEX
  5
D1
330
CF
100
AcDbEntity
  8
_U+5207_U+65AD_U+30D1_U+30B9
 62
     1
420
 16711680
370
     9
100
AcDbVertex
100
AcDb2dVertex
 10
2.586057919692292
 20
2.458032229589258
 30
0.0
  0
VERTEX
  5
D2
330
CF
100
AcDbEntity
  8
_U+5207_U+65AD_U+30D1_U+30B9
 62
     1
420
 16711680
370
     9
100
AcDbVertex
100
AcDb2dVertex
 10
3.131372186374089
 20
2.458032229589258
 30
0.0
  0
VERTEX
  5
D3
330
CF
100
AcDbEntity
  8
_U+5207_U+65AD_U+30D1_U+30B9
 62
     1
420
 16711680
370
     9
100
AcDbVertex
100
AcDb2dVertex
 10
3.131372186374089
 20
3.003346496271054
 30
0.0
  0
VERTEX
  5
D4
330
CF
100
AcDbEntity
  8
_U+5207_U+65AD_U+30D1_U+30B9
 62
     1
420
 16711680
370
     9
100
AcDbVertex
100
AcDb2dVertex
 10
2.586057919692292
 20
3.003346496271054
 30
0.0
  0
SEQEND
  5
D5
330
CF
100
AcDbEntity
  8
_U+5207_U+65AD_U+30D1_U+30B9
 62
     1
420
 16711680
370
     9
  0
ENDBLK
  5
CE
330
CB
100
AcDbEntity
  8
0
100
AcDbBlockEnd
  0
BLOCK
  5
D8
330
D6
100
AcDbEntity
  8
0
100
AcDbBlockBegin
  2
block 21
 70
     0
 10
0.0
 20
0.0
 30
0.0
  3
block 21
  1

  0
POLYLINE
  5
DA
330
D6
100
AcDbEntity
  8
_U+5207_U+65AD_U+30D1_U+30B9
 62
     1
420
 16711680
370
     9
100
AcDb2dPolyline
 66
     1
 10
0.0
 20
0.0
 30
0.0
  0
VERTEX
  5
DB
330
DA
100
AcDbEntity
  8
_U+5207_U+65AD_U+30D1_U+30B9
 62
     1
420
 16711680
370
     9
100
AcDbVertex
100
AcDb2dVertex
 10
2.586057919692292
 20
2.255261942700447
 30
0.0
  0
VERTEX
  5
DC
330
DA
100
AcDbEntity
  8
_U+5207_U+65AD_U+30D1_U+30B9
 62
     1
420
 16711680
370
     9
100
AcDbVertex
100
AcDb2dVertex
 10
2.586057919692292
 20
1.7099476760185
 30
0.0
  0
VERTEX
  5
DD
330
DA
100
AcDbEntity
  8
_U+5207_U+65AD_U+30D1_U+30B9
 62
     1
420
 16711680
370
     9
100
AcDbVertex
100
AcDb2dVertex
 10
3.131372186374089
 20
1.7099476760185
 30
0.0
  0
VERTEX
  5
DE
330
DA
100
AcDbEntity
  8
_U+5207_U+65AD_U+30D1_U+30B9
 62
     1
420
 16711680
370
     9
100
AcDbVertex
100
AcDb2dVertex
 10
3.131372186374089
 20
2.255261942700447
 30
0.0
  0
VERTEX
  5
DF
330
DA
100
AcDbEntity
  8
_U+5207_U+65AD_U+30D1_U+30B9
 62
     1
420
 16711680
370
     9
100
AcDbVertex
100
AcDb2dVertex
 10
2.586057919692292
 20
2.255261942700447
 30
0.0
  0
SEQEND
  5
E0
330
DA
100
AcDbEntity
  8
_U+5207_U+65AD_U+30D1_U+30B9
 62
     1
420
 16711680
370
     9
  0
ENDBLK
  5
D9
330
D6
100
AcDbEntity
  8
0
100
AcDbBlockEnd
  0
BLOCK
  5
E3
330
E1
100
AcDbEntity
  8
0
100
AcDbBlockBegin
  2
block 22
 70
     0
 10
0.0
 20
0.0
 30
0.0
  3
block 22
  1

  0
POLYLINE
  5
E5
330
E1
100
AcDbEntity
  8
_U+5207_U+65AD_U+30D1_U+30B9
 62
     1
420
 16711680
370
     9
100
AcDb2dPolyline
 66
     1
 10
0.0
 20
0.0
 30
0.0
  0
VERTEX
  5
E6
330
E5
100
AcDbEntity
  8
_U+5207_U+65AD_U+30D1_U+30B9
 62
     1
420
 16711680
370
     9
100
AcDbVertex
100
AcDb2dVertex
 10
3.33414247326295
 20
3.657920480645266
 30
0.0
  0
VERTEX
  5
E7
330
E5
100
AcDbEntity
  8
_U+5207_U+65AD_U+30D1_U+30B9
 62
     1
420
 16711680
370
     9
100
AcDbVertex
100
AcDb2dVertex
 10
3.33414247326295
 20
3.11260621396357
 30
0.0
  0
VERTEX
  5
E8
330
E5
100
AcDbEntity
  8
_U+5207_U+65AD_U+30D1_U+30B9
 62
     1
420
 16711680
370
     9
100
AcDbVertex
100
AcDb2dVertex
 10
3.879456739944796
 20
3.11260621396357
 30
0.0
  0
VERTEX
  5
E9
330
E5
100
AcDbEntity
  8
_U+5207_U+65AD_U+30D1_U+30B9
 62
     1
420
 16711680
370
     9
100
AcDbVertex
100
AcDb2dVertex
 10
3.879456739944796
 20
3.657920480645266
 30
0.0
  0
VERTEX
  5
EA
330
E5
100
AcDbEntity
  8
_U+5207_U+65AD_U+30D1_U+30B9
 62
     1
420
 16711680
370
     9
100
AcDbVertex
100
AcDb2dVertex
 10
3.33414247326295
 20
3.657920480645266
 30
0.0
  0
SEQEND
  5
EB
330
E5
100
AcDbEntity
  8
_U+5207_U+65AD_U+30D1_U+30B9
 62
     1
420
 16711680
370
     9
  0
ENDBLK
  5
E4
330
E1
100
AcDbEntity
  8
0
100
AcDbBlockEnd
  0
BLOCK
  5
EE
330
EC
100
AcDbEntity
  8
0
100
AcDbBlockBegin
  2
block 23
 70
     0
 10
0.0
 20
0.0
 30
0.0
  3
block 23
  1

  0
POLYLINE
  5
F0
330
EC
100
AcDbEntity
  8
_U+5207_U+65AD_U+30D1_U+30B9
 62
     1
420
 16711680
370
     9
100
AcDb2dPolyline
 66
     1
 10
0.0
 20
0.0
 30
0.0
  0
VERTEX
  5
F1
330
F0
100
AcDbEntity
  8
_U+5207_U+65AD_U+30D1_U+30B9
 62
     1
420
 16711680
370
     9
100
AcDbVertex
100
AcDb2dVertex
 10
3.33414247326295
 20
2.909835927074659
 30
0.0
  0
VERTEX
  5
F2
330
F0
100
AcDbEntity
  8
_U+5207_U+65AD_U+30D1_U+30B9
 62
     1
420
 16711680
370
     9
100
AcDbVertex
100
AcDb2dVertex
 10
3.33414247326295
 20
2.364521660392964
 30
0.0
  0
VERTEX
  5
F3
330
F0
100
AcDbEntity
  8
_U+5207_U+65AD_U+30D1_U+30B9
 62
     1
420
 16711680
370
     9
100
AcDbVertex
100
AcDb2dVertex
 10
3.879456739944796
 20
2.364521660392964
 30
0.0
  0
VERTEX
  5
F4
330
F0
100
AcDbEntity
  8
_U+5207_U+65AD_U+30D1_U+30B9
 62
     1
420
 16711680
370
     9
100
AcDbVertex
100
AcDb2dVertex
 10
3.879456739944796
 20
2.909835927074659
 30
0.0
  0
VERTEX
  5
F5
330
F0
100
AcDbEntity
  8
_U+5207_U+65AD_U+30D1_U+30B9
 62
     1
420
 16711680
370
     9
100
AcDbVertex
100
AcDb2dVertex
 10
3.33414247326295
 20
2.909835927074659
 30
0.0
  0
SEQEND
  5
F6
330
F0
100
AcDbEntity
  8
_U+5207_U+65AD_U+30D1_U+30B9
 62
     1
420
 16711680
370
     9
  0
ENDBLK
  5
EF
330
EC
100
AcDbEntity
  8
0
100
AcDbBlockEnd
  0
BLOCK
  5
F9
330
F7
100
AcDbEntity
  8
0
100
AcDbBlockBegin
  2
block 24
 70
     0
 10
0.0
 20
0.0
 30
0.0
  3
block 24
  1

  0
POLYLINE
  5
FB
330
F7
100
AcDbEntity
  8
_U+5207_U+65AD_U+30D1_U+30B9
 62
     1
420
 16711680
370
     9
100
AcDb2dPolyline
 66
     1
 10
0.0
 20
0.0
 30
0.0
  0
VERTEX
  5
FC
330
FB
100
AcDbEntity
  8
_U+5207_U+65AD_U+30D1_U+30B9
 62
     1
420
 16711680
370
     9
100
AcDbVertex
100
AcDb2dVertex
 10
3.33414247326295
 20
2.161751373503749
 30
0.0
  0
VERTEX
  5
FD
330
FB
100
AcDbEntity
  8
_U+5207_U+65AD_U+30D1_U+30B9
 62
     1
420
 16711680
370
     9
100
AcDbVertex
100
AcDb2dVertex
 10
3.33414247326295
 20
1.616437106822104
 30
0.0
  0
VERTEX
  5
FE
330
FB
100
AcDbEntity
  8
_U+5207_U+65AD_U+30D1_U+30B9
 62
     1
420
 16711680
370
     9
100
AcDbVertex
100
AcDb2dVertex
 10
3.879456739944796
 20
1.616437106822104
 30
0.0
  0
VERTEX
  5
FF
330
FB
100
AcDbEntity
  8
_U+5207_U+65AD_U+30D1_U+30B9
 62
     1
420
 16711680
370
     9
100
AcDbVertex
100
AcDb2dVertex
 10
3.879456739944796
 20
2.161751373503749
 30
0.0
  0
VERTEX
  5
100
330
FB
100
AcDbEntity
  8
_U+5207_U+65AD_U+30D1_U+30B9
 62
     1
420
 16711680
370
     9
100
AcDbVertex
100
AcDb2dVertex
 10
3.33414247326295
 20
2.161751373503749
 30
0.0
  0
SEQEND
  5
101
330
FB
100
AcDbEntity
  8
_U+5207_U+65AD_U+30D1_U+30B9
 62
     1
420
 16711680
370
     9
  0
ENDBLK
  5
FA
330
F7
100
AcDbEntity
  8
0
100
AcDbBlockEnd
  0
BLOCK
  5
104
330
102
100
AcDbEntity
  8
0
100
AcDbBlockBegin
  2
block 25
 70
     0
 10
0.0
 20
0.0
 30
0.0
  3
block 25
  1

  0
POLYLINE
  5
106
330
102
100
AcDbEntity
  8
_U+5207_U+65AD_U+30D1_U+30B9
 62
     1
420
 16711680
370
     9
100
AcDb2dPolyline
 66
     1
 10
0.0
 20
0.0
 30
0.0
  0
VERTEX
  5
107
330
106
100
AcDbEntity
  8
_U+5207_U+65AD_U+30D1_U+30B9
 62
     1
420
 16711680
370
     9
100
AcDbVertex
100
AcDb2dVertex
 10
4.082227026833758
 20
3.564409911449022
 30
0.0
  0
VERTEX
  5
108
330
106
100
AcDbEntity
  8
_U+5207_U+65AD_U+30D1_U+30B9
 62
     1
420
 16711680
370
     9
100
AcDbVertex
100
AcDb2dVertex
 10
4.082227026833758
 20
3.019095644767326
 30
0.0
  0
VERTEX
  5
109
330
106
100
AcDbEntity
  8
_U+5207_U+65AD_U+30D1_U+30B9
 62
     1
420
 16711680
370
     9
100
AcDbVertex
100
AcDb2dVertex
 10
4.627541293515656
 20
3.019095644767326
 30
0.0
  0
VERTEX
  5
10A
330
106
100
AcDbEntity
  8
_U+5207_U+65AD_U+30D1_U+30B9
 62
     1
420
 16711680
370
     9
100
AcDbVertex
100
AcDb2dVertex
 10
4.627541293515656
 20
3.564409911449022
 30
0.0
  0
VERTEX
  5
10B
330
106
100
AcDbEntity
  8
_U+5207_U+65AD_U+30D1_U+30B9
 62
     1
420
 16711680
370
     9
100
AcDbVertex
100
AcDb2dVertex
 10
4.082227026833758
 20
3.564409911449022
 30
0.0
  0
SEQEND
  5
10C
330
106
100
AcDbEntity
  8
_U+5207_U+65AD_U+30D1_U+30B9
 62
     1
420
 16711680
370
     9
  0
ENDBLK
  5
105
330
102
100
AcDbEntity
  8
0
100
AcDbBlockEnd
  0
BLOCK
  5
10F
330
10D
100
AcDbEntity
  8
0
100
AcDbBlockBegin
  2
block 26
 70
     0
 10
0.0
 20
0.0
 30
0.0
  3
block 26
  1

  0
POLYLINE
  5
111
330
10D
100
AcDbEntity
  8
_U+5207_U+65AD_U+30D1_U+30B9
 62
     1
420
 16711680
370
     9
100
AcDb2dPolyline
 66
     1
 10
0.0
 20
0.0
 30
0.0
  0
VERTEX
  5
112
330
111
100
AcDbEntity
  8
_U+5207_U+65AD_U+30D1_U+30B9
 62
     1
420
 16711680
370
     9
100
AcDbVertex
100
AcDb2dVertex
 10
4.082227026833758
 20
2.816325357878263
 30
0.0
  0
VERTEX
  5
113
330
111
100
AcDbEntity
  8
_U+5207_U+65AD_U+30D1_U+30B9
 62
     1
420
 16711680
370
     9
100
AcDbVertex
100
AcDb2dVertex
 10
4.082227026833758
 20
2.271011091196316
 30
0.0
  0
VERTEX
  5
114
330
111
100
AcDbEntity
  8
_U+5207_U+65AD_U+30D1_U+30B9
 62
     1
420
 16711680
370
     9
100
AcDbVertex
100
AcDb2dVertex
 10
4.627541293515656
 20
2.271011091196316
 30
0.0
  0
VERTEX
  5
115
330
111
100
AcDbEntity
  8
_U+5207_U+65AD_U+30D1_U+30B9
 62
     1
420
 16711680
370
     9
100
AcDbVertex
100
AcDb2dVertex
 10
4.627541293515656
 20
2.816325357878263
 30
0.0
  0
VERTEX
  5
116
330
111
100
AcDbEntity
  8
_U+5207_U+65AD_U+30D1_U+30B9
 62
     1
420
 16711680
370
     9
100
AcDbVertex
100
AcDb2dVertex
 10
4.082227026833758
 20
2.816325357878263
 30
0.0
  0
SEQEND
  5
117
330
111
100
AcDbEntity
  8
_U+5207_U+65AD_U+30D1_U+30B9
 62
     1
420
 16711680
370
     9
  0
ENDBLK
  5
110
330
10D
100
AcDbEntity
  8
0
100
AcDbBlockEnd
  0
BLOCK
  5
11A
330
118
100
AcDbEntity
  8
0
100
AcDbBlockBegin
  2
block 27
 70
     0
 10
0.0
 20
0.0
 30
0.0
  3
block 27
  1

  0
POLYLINE
  5
11C
330
118
100
AcDbEntity
  8
_U+5207_U+65AD_U+30D1_U+30B9
 62
     1
420
 16711680
370
     9
100
AcDb2dPolyline
 66
     1
 10
0.0
 20
0.0
 30
0.0
  0
VERTEX
  5
11D
330
11C
100
AcDbEntity
  8
_U+5207_U+65AD_U+30D1_U+30B9
 62
     1
420
 16711680
370
     9
100
AcDbVertex
100
AcDb2dVertex
 10
4.082227026833758
 20
2.068240804307505
 30
0.0
  0
VERTEX
  5
11E
330
11C
100
AcDbEntity
  8
_U+5207_U+65AD_U+30D1_U+30B9
 62
     1
420
 16711680
370
     9
100
AcDbVertex
100
AcDb2dVertex
 10
4.082227026833758
 20
1.52292653762586
 30
0.0
  0
VERTEX
  5
11F
330
11C
100
AcDbEntity
  8
_U+5207_U+65AD_U+30D1_U+30B9
 62
     1
420
 16711680
370
     9
100
AcDbVertex
100
AcDb2dVertex
 10
4.627541293515656
 20
1.52292653762586
 30
0.0
  0
VERTEX
  5
120
330
11C
100
AcDbEntity
  8
_U+5207_U+65AD_U+30D1_U+30B9
 62
     1
420
 16711680
370
     9
100
AcDbVertex
100
AcDb2dVertex
 10
4.627541293515656
 20
2.068240804307505
 30
0.0
  0
VERTEX
  5
121
330
11C
100
AcDbEntity
  8
_U+5207_U+65AD_U+30D1_U+30B9
 62
     1
420
 16711680
370
     9
100
AcDbVertex
100
AcDb2dVertex
 10
4.082227026833758
 20
2.068240804307505
 30
0.0
  0
SEQEND
  5
122
330
11C
100
AcDbEntity
  8
_U+5207_U+65AD_U+30D1_U+30B9
 62
     1
420
 16711680
370
     9
  0
ENDBLK
  5
11B
330
118
100
AcDbEntity
  8
0
100
AcDbBlockEnd
  0
BLOCK
  5
125
330
123
100
AcDbEntity
  8
0
100
AcDbBlockBegin
  2
block 28
 70
     0
 10
0.0
 20
0.0
 30
0.0
  3
block 28
  1

  0
POLYLINE
  5
127
330
123
100
AcDbEntity
  8
_U+5207_U+65AD_U+30D1_U+30B9
 62
     1
420
 16711680
370
     9
100
AcDb2dPolyline
 66
     1
 10
0.0
 20
0.0
 30
0.0
  0
VERTEX
  5
128
330
127
100
AcDbEntity
  8
_U+5207_U+65AD_U+30D1_U+30B9
 62
     1
420
 16711680
370
     9
100
AcDbVertex
100
AcDb2dVertex
 10
2.960100196477672
 20
1.389058775407951
 30
0.0
  0
VERTEX
  5
129
330
127
100
AcDbEntity
  8
_U+5207_U+65AD_U+30D1_U+30B9
 62
     1
420
 16711680
370
     9
100
AcDbVertex
100
AcDb2dVertex
 10
2.960100196477672
 20
0.843744508726104
 30
0.0
  0
VERTEX
  5
12A
330
127
100
AcDbEntity
  8
_U+5207_U+65AD_U+30D1_U+30B9
 62
     1
420
 16711680
370
     9
100
AcDbVertex
100
AcDb2dVertex
 10
3.505414463159468
 20
0.843744508726104
 30
0.0
  0
VERTEX
  5
12B
330
127
100
AcDbEntity
  8
_U+5207_U+65AD_U+30D1_U+30B9
 62
     1
420
 16711680
370
     9
100
AcDbVertex
100
AcDb2dVertex
 10
3.505414463159468
 20
1.389058775407951
 30
0.0
  0
VERTEX
  5
12C
330
127
100
AcDbEntity
  8
_U+5207_U+65AD_U+30D1_U+30B9
 62
     1
420
 16711680
370
     9
100
AcDbVertex
100
AcDb2dVertex
 10
2.960100196477672
 20
1.389058775407951
 30
0.0
  0
SEQEND
  5
12D
330
127
100
AcDbEntity
  8
_U+5207_U+65AD_U+30D1_U+30B9
 62
     1
420
 16711680
370
     9
  0
ENDBLK
  5
126
330
123
100
AcDbEntity
  8
0
100
AcDbBlockEnd
  0
BLOCK
  5
130
330
12E
100
AcDbEntity
  8
0
100
AcDbBlockBegin
  2
block 29
 70
     0
 10
0.0
 20
0.0
 30
0.0
  3
block 29
  1

  0
POLYLINE
  5
132
330
12E
100
AcDbEntity
  8
_U+5207_U+65AD_U+30D1_U+30B9
 62
     1
420
 16711680
370
     9
100
AcDb2dPolyline
 66
     1
 10
0.0
 20
0.0
 30
0.0
  0
VERTEX
  5
133
330
132
100
AcDbEntity
  8
_U+5207_U+65AD_U+30D1_U+30B9
 62
     1
420
 16711680
370
     9
100
AcDbVertex
100
AcDb2dVertex
 10
3.866759371978737
 20
1.341832737966645
 30
0.0
  0
VERTEX
  5
134
330
132
100
AcDbEntity
  8
_U+5207_U+65AD_U+30D1_U+30B9
 62
     1
420
 16711680
370
     9
100
AcDbVertex
100
AcDb2dVertex
 10
3.726156880632465
 20
0.8149564822158228
 30
0.0
  0
VERTEX
  5
135
330
132
100
AcDbEntity
  8
_U+5207_U+65AD_U+30D1_U+30B9
 62
     1
420
 16711680
370
     9
100
AcDbVertex
100
AcDb2dVertex
 10
4.253033136383187
 20
0.6743539908694502
 30
0.0
  0
VERTEX
  5
136
330
132
100
AcDbEntity
  8
_U+5207_U+65AD_U+30D1_U+30B9
 62
     1
420
 16711680
370
     9
100
AcDbVertex
100
AcDb2dVertex
 10
4.393635627729408
 20
1.201230246620323
 30
0.0
  0
VERTEX
  5
137
330
132
100
AcDbEntity
  8
_U+5207_U+65AD_U+30D1_U+30B9
 62
     1
420
 16711680
370
     9
100
AcDbVertex
100
AcDb2dVertex
 10
3.866759371978737
 20
1.341832737966645
 30
0.0
  0
SEQEND
  5
138
330
132
100
AcDbEntity
  8
_U+5207_U+65AD_U+30D1_U+30B9
 62
     1
420
 16711680
370
     9
  0
ENDBLK
  5
131
330
12E
100
AcDbEntity
  8
0
100
AcDbBlockEnd
  0
BLOCK
  5
13B
330
139
100
AcDbEntity
  8
0
100
AcDbBlockBegin
  2
block 30
 70
     0
 10
0.0
 20
0.0
 30
0.0
  3
block 30
  1

  0
POLYLINE
  5
13D
330
139
100
AcDbEntity
  8
_U+5207_U+65AD_U+30D1_U+30B9
 62
     1
420
 16711680
370
     9
100
AcDb2dPolyline
 66
     1
 10
0.0
 20
0.0
 30
0.0
  0
VERTEX
  5
13E
330
13D
100
AcDbEntity
  8
_U+5207_U+65AD_U+30D1_U+30B9
 62
     1
420
 16711680
370
     9
100
AcDbVertex
100
AcDb2dVertex
 10
4.835759055577506
 20
1.233106870154693
 30
0.0
  0
VERTEX
  5
13F
330
13D
100
AcDbEntity
  8
_U+5207_U+65AD_U+30D1_U+30B9
 62
     1
420
 16711680
370
     9
100
AcDbVertex
100
AcDb2dVertex
 10
4.563424226845856
 20
0.7606649260955641
 30
0.0
  0
VERTEX
  5
140
330
13D
100
AcDbEntity
  8
_U+5207_U+65AD_U+30D1_U+30B9
 62
     1
420
 16711680
370
     9
100
AcDbVertex
100
AcDb2dVertex
 10
5.035866170905289
 20
0.4883300973640163
 30
0.0
  0
VERTEX
  5
141
330
13D
100
AcDbEntity
  8
_U+5207_U+65AD_U+30D1_U+30B9
 62
     1
420
 16711680
370
     9
100
AcDbVertex
100
AcDb2dVertex
 10
5.308200999636837
 20
0.9607720414234487
 30
0.0
  0
VERTEX
  5
142
330
13D
100
AcDbEntity
  8
_U+5207_U+65AD_U+30D1_U+30B9
 62
     1
420
 16711680
370
     9
100
AcDbVertex
100
AcDb2dVertex
 10
4.835759055577506
 20
1.233106870154693
 30
0.0
  0
SEQEND
  5
143
330
13D
100
AcDbEntity
  8
_U+5207_U+65AD_U+30D1_U+30B9
 62
     1
420
 16711680
370
     9
  0
ENDBLK
  5
13C
330
139
100
AcDbEntity
  8
0
100
AcDbBlockEnd
  0
BLOCK
  5
146
330
144
100
AcDbEntity
  8
0
100
AcDbBlockBegin
  2
block 31
 70
     0
 10
0.0
 20
0.0
 30
0.0
  3
block 31
  1

  0
INSERT
  5
149
330
144
100
AcDbEntity
  8
_U+5207_U+65AD_U+30D1_U+30B9
100
AcDbBlockReference
  2
block 32
 10
0.0
 20
0.0
 30
0.0
  0
INSERT
  5
14E
330
144
100
AcDbEntity
  8
_U+5207_U+65AD_U+30D1_U+30B9
100
AcDbBlockReference
  2
block 33
 10
0.0
 20
0.0
 30
0.0
  0
INSERT
  5
153
330
144
100
AcDbEntity
  8
_U+5207_U+65AD_U+30D1_U+30B9
100
AcDbBlockReference
  2
block 34
 10
0.0
 20
0.0
 30
0.0
  0
ENDBLK
  5
147
330
144
100
AcDbEntity
  8
0
100
AcDbBlockEnd
  0
BLOCK
  5
14A
330
148
100
AcDbEntity
  8
0
100
AcDbBlockBegin
  2
block 32
 70
     0
 10
0.0
 20
0.0
 30
0.0
  3
block 32
  1

  0
SPLINE
  5
14C
330
148
100
AcDbEntity
  8
_U+5207_U+65AD_U+30D1_U+30B9
 62
     1
420
 16711680
370
     9
100
AcDbSpline
210
0.0
220
0.0
230
1.0
 70
    11
 71
     3
 72
    32
 73
    28
 74
     0
 42
0.0000000001
 43
0.0000000001
 12
1.0
 22
0.0
 32
0.0
 13
1.0
 23
0.0
 33
0.0
 40
0.0
 40
0.0
 40
0.0
 40
0.0
 40
1.0
 40
1.0
 40
1.0
 40
2.0
 40
2.0
 40
2.0
 40
3.0
 40
3.0
 40
3.0
 40
4.0
 40
4.0
 40
4.0
 40
5.0
 40
5.0
 40
5.0
 40
6.0
 40
6.0
 40
6.0
 40
7.0
 40
7.0
 40
7.0
 40
8.0
 40
8.0
 40
8.0
 40
9.0
 40
9.0
 40
9.0
 40
9.0
 10
4.836861072597255
 20
3.615014595012629
 30
0.0
 10
4.836861072597255
 20
3.615014595012629
 30
0.0
 10
4.836861036025817
 20
1.750582046478434
 30
0.0
 10
4.836861036025817
 20
1.750582046478434
 30
0.0
 10
4.839217318788845
 20
1.730001301431432
 30
0.0
 10
4.848443955432028
 20
1.719828073336051
 30
0.0
 10
4.862014204463624
 20
1.707992908388633
 30
0.0
 10
4.862014204463624
 20
1.707992908388633
 30
0.0
 10
5.603738214753194
 20
1.280574978795837
 30
0.0
 10
5.603738214753194
 20
1.280574978795837
 30
0.0
 10
5.61967143604228
 20
1.273877464106439
 30
0.0
 10
5.638017272358411
 20
1.281364483604648
 30
0.0
 10
5.64471478704786
 20
1.29729770489391
 30
0.0
 10
5.645701425484074
 20
1.299644893255719
 30
0.0
 10
5.646397932168585
 20
1.302103716682975
 30
0.0
 10
5.646788861964094
 20
1.30461965040705
 30
0.0
 10
5.646788861964094
 20
1.30461965040705
 30
0.0
 10
5.646742851249554
 20
3.614608717540755
 30
0.0
 10
5.646742851249554
 20
3.614608717540755
 30
0.0
 10
5.646742844783199
 20
3.625481235712363
 30
0.0
 10
5.637928922092442
 20
3.634295147919122
 30
0.0
 10
5.627056403920884
 20
3.634295141452715
 30
0.0
 10
5.627056403920884
 20
3.634295141452715
 30
0.0
 10
4.856555067047061
 20
3.634720635497918
 30
0.0
 10
4.856555067047061
 20
3.634720635497918
 30
0.0
 10
4.845679595851
 20
3.634706346476984
 30
0.0
 10
4.836868711555326
 20
3.625890072912954
 30
0.0
 10
4.836861072597255
 20
3.615014595012629
 30
0.0
  0
ENDBLK
  5
14B
330
148
100
AcDbEntity
  8
0
100
AcDbBlockEnd
  0
BLOCK
  5
14F
330
14D
100
AcDbEntity
  8
0
100
AcDbBlockBegin
  2
block 33
 70
     0
 10
0.0
 20
0.0
 30
0.0
  3
block 33
  1

  0
SPLINE
  5
151
330
14D
100
AcDbEntity
  8
_U+5207_U+65AD_U+30D1_U+30B9
 62
     1
420
 16711680
370
     9
100
AcDbSpline
210
0.0
220
0.0
230
1.0
 70
    11
 71
     3
 72
    20
 73
    16
 74
     0
 42
0.0000000001
 43
0.0000000001
 12
1.0
 22
0.0
 32
0.0
 13
1.0
 23
0.0
 33
0.0
 40
0.0
 40
0.0
 40
0.0
 40
0.0
 40
1.0
 40
1.0
 40
1.0
 40
2.0
 40
2.0
 40
2.0
 40
3.0
 40
3.0
 40
3.0
 40
4.0
 40
4.0
 40
4.0
 40
5.0
 40
5.0
 40
5.0
 40
5.0
 10
4.934389209163379
 20
1.765668468041516
 30
0.0
 10
4.934389194937365
 20
1.789588008018806
 30
0.0
 10
4.953779801792026
 20
1.808978637938354
 30
0.0
 10
4.977699341769545
 20
1.808978652164342
 30
0.0
 10
5.00161888174696
 20
1.808978666390304
 30
0.0
 10
5.021009511666559
 20
1.789588059535668
 30
0.0
 10
5.021009525892572
 20
1.765668519558403
 30
0.0
 10
5.021009540118585
 20
1.74174897958081
 30
0.0
 10
5.001618933263848
 20
1.722358349661236
 30
0.0
 10
4.977699393286457
 20
1.722358335435249
 30
0.0
 10
4.953779853308939
 20
1.722358321209261
 30
0.0
 10
4.934389223389391
 20
1.741748928063897
 30
0.0
 10
4.934389209163379
 20
1.765668468041516
 30
0.0
 10
4.934389209163379
 20
1.765668468041516
 30
0.0
 10
4.934389209163379
 20
1.765668468041516
 30
0.0
 10
4.934389209163379
 20
1.765668468041516
 30
0.0
  0
ENDBLK
  5
150
330
14D
100
AcDbEntity
  8
0
100
AcDbBlockEnd
  0
BLOCK
  5
154
330
152
100
AcDbEntity
  8
0
100
AcDbBlockBegin
  2
block 34
 70
     0
 10
0.0
 20
0.0
 30
0.0
  3
block 34
  1

  0
SPLINE
  5
156
330
152
100
AcDbEntity
  8
_U+5207_U+65AD_U+30D1_U+30B9
 62
     1
420
 16711680
370
     9
100
AcDbSpline
210
0.0
220
0.0
230
1.0
 70
    11
 71
     3
 72
    20
 73
    16
 74
     0
 42
0.0000000001
 43
0.0000000001
 12
1.0
 22
0.0
 32
0.0
 13
1.0
 23
0.0
 33
0.0
 40
0.0
 40
0.0
 40
0.0
 40
0.0
 40
1.0
 40
1.0
 40
1.0
 40
2.0
 40
2.0
 40
2.0
 40
3.0
 40
3.0
 40
3.0
 40
4.0
 40
4.0
 40
4.0
 40
5.0
 40
5.0
 40
5.0
 40
5.0
 10
5.50529604119404
 20
1.430999402039965
 30
0.0
 10
5.505296026968002
 20
1.454918942017533
 30
0.0
 10
5.52468663382279
 20
1.474309571936752
 30
0.0
 10
5.54860617380008
 20
1.474309586162766
 30
0.0
 10
5.572525713777647
 20
1.474309600388753
 30
0.0
 10
5.591916343697297
 20
1.45491899353442
 30
0.0
 10
5.591916357923284
 20
1.430999453556852
 30
0.0
 10
5.591916372149348
 20
1.407079913579082
 30
0.0
 10
5.57252576529456
 20
1.387689283659534
 30
0.0
 10
5.548606225316992
 20
1.387689269433546
 30
0.0
 10
5.524686685339677
 20
1.387689255207533
 30
0.0
 10
5.505296055420053
 20
1.407079862062195
 30
0.0
 10
5.50529604119404
 20
1.430999402039965
 30
0.0
 10
5.50529604119404
 20
1.430999402039965
 30
0.0
 10
5.50529604119404
 20
1.430999402039965
 30
0.0
 10
5.50529604119404
 20
1.430999402039965
 30
0.0
  0
ENDBLK
  5
155
330
152
100
AcDbEntity
  8
0
100
AcDbBlockEnd
  0
BLOCK
  5
15D
330
15B
100
AcDbEntity
  8
0
100
AcDbBlockBegin
  2
block 35
 70
     0
 10
0.0
 20
0.0
 30
0.0
  3
block 35
  1

  0
SPLINE
  5
15F
330
15B
100
AcDbEntity
  8
_U+5207_U+65AD_U+30D1_U+30B9
 62
     1
420
 16711680
370
     9
100
AcDbSpline
210
0.0
220
0.0
230
1.0
 70
    11
 71
     3
 72
    20
 73
    16
 74
     0
 42
0.0000000001
 43
0.0000000001
 12
1.0
 22
0.0
 32
0.0
 13
1.0
 23
0.0
 33
0.0
 40
0.0
 40
0.0
 40
0.0
 40
0.0
 40
1.0
 40
1.0
 40
1.0
 40
2.0
 40
2.0
 40
2.0
 40
3.0
 40
3.0
 40
3.0
 40
4.0
 40
4.0
 40
4.0
 40
5.0
 40
5.0
 40
5.0
 40
5.0
 10
3.786161007795929
 20
-2.368866056900186
 30
0.0
 10
3.78616100779699
 20
-2.344946516922568
 30
0.0
 10
3.766770389410794
 20
-2.325555898534453
 30
0.0
 10
3.742850849433176
 20
-2.325555898533366
 30
0.0
 10
3.718931309455709
 20
-2.325555898532305
 30
0.0
 10
3.699540691067694
 20
-2.344946516918677
 30
0.0
 10
3.699540691066634
 20
-2.368866056896296
 30
0.0
 10
3.699540691065572
 20
-2.392785596873864
 30
0.0
 10
3.718931309451818
 20
-2.41217621526155
 30
0.0
 10
3.742850849429285
 20
-2.412176215262611
 30
0.0
 10
3.766770389406904
 20
-2.412176215263697
 30
0.0
 10
3.786161007794867
 20
-2.392785596877755
 30
0.0
 10
3.786161007795929
 20
-2.368866056900186
 30
0.0
 10
3.786161007795929
 20
-2.368866056900186
 30
0.0
 10
3.786161007795929
 20
-2.368866056900186
 30
0.0
 10
3.786161007795929
 20
-2.368866056900186
 30
0.0
  0
ENDBLK
  5
15E
330
15B
100
AcDbEntity
  8
0
100
AcDbBlockEnd
  0
BLOCK
  5
162
330
160
100
AcDbEntity
  8
0
100
AcDbBlockBegin
  2
block 36
 70
     0
 10
0.0
 20
0.0
 30
0.0
  3
block 36
  1

  0
SPLINE
  5
164
330
160
100
AcDbEntity
  8
_U+5207_U+65AD_U+30D1_U+30B9
 62
     1
420
 16711680
370
     9
100
AcDbSpline
210
0.0
220
0.0
230
1.0
 70
    11
 71
     3
 72
    20
 73
    16
 74
     0
 42
0.0000000001
 43
0.0000000001
 12
1.0
 22
0.0
 32
0.0
 13
1.0
 23
0.0
 33
0.0
 40
0.0
 40
0.0
 40
0.0
 40
0.0
 40
1.0
 40
1.0
 40
1.0
 40
2.0
 40
2.0
 40
2.0
 40
3.0
 40
3.0
 40
3.0
 40
4.0
 40
4.0
 40
4.0
 40
5.0
 40
5.0
 40
5.0
 40
5.0
 10
2.495677502013324
 20
-0.804012776982846
 30
0.0
 10
2.495677502014435
 20
-0.7800932370052275
 30
0.0
 10
2.47628688362824
 20
-0.7607026186175415
 30
0.0
 10
2.452367343650621
 20
-0.7607026186164805
 30
0.0
 10
2.428447803673154
 20
-0.7607026186153941
 30
0.0
 10
2.409057185285241
 20
-0.7800932370013368
 30
0.0
 10
2.40905718528413
 20
-0.8040127769789553
 30
0.0
 10
2.409057185283068
 20
-0.8279323169565234
 30
0.0
 10
2.428447803669264
 20
-0.8473229353446388
 30
0.0
 10
2.452367343646731
 20
-0.8473229353457251
 30
0.0
 10
2.476286883624349
 20
-0.8473229353467862
 30
0.0
 10
2.495677502012263
 20
-0.827932316960414
 30
0.0
 10
2.495677502013324
 20
-0.804012776982846
 30
0.0
 10
2.495677502013324
 20
-0.804012776982846
 30
0.0
 10
2.495677502013324
 20
-0.804012776982846
 30
0.0
 10
2.495677502013324
 20
-0.804012776982846
 30
0.0
  0
ENDBLK
  5
163
330
160
100
AcDbEntity
  8
0
100
AcDbBlockEnd
  0
BLOCK
  5
167
330
165
100
AcDbEntity
  8
0
100
AcDbBlockBegin
  2
block 37
 70
     0
 10
0.0
 20
0.0
 30
0.0
  3
block 37
  1

  0
SPLINE
  5
169
330
165
100
AcDbEntity
  8
_U+5207_U+65AD_U+30D1_U+30B9
 62
     1
420
 16711680
370
     9
100
AcDbSpline
210
0.0
220
0.0
230
1.0
 70
    11
 71
     3
 72
    20
 73
    16
 74
     0
 42
0.0000000001
 43
0.0000000001
 12
1.0
 22
0.0
 32
0.0
 13
1.0
 23
0.0
 33
0.0
 40
0.0
 40
0.0
 40
0.0
 40
0.0
 40
1.0
 40
1.0
 40
1.0
 40
2.0
 40
2.0
 40
2.0
 40
3.0
 40
3.0
 40
3.0
 40
4.0
 40
4.0
 40
4.0
 40
5.0
 40
5.0
 40
5.0
 40
5.0
 10
4.740280852951956
 20
-0.9466268999136294
 30
0.0
 10
4.740280852953068
 20
-0.9227073599361625
 30
0.0
 10
4.720890234566771
 20
-0.9033167415480218
 30
0.0
 10
4.696970694589305
 20
-0.9033167415469607
 30
0.0
 10
4.673051154611685
 20
-0.9033167415458744
 30
0.0
 10
4.653660536223772
 20
-0.9227073599322718
 30
0.0
 10
4.653660536222711
 20
-0.9466268999097388
 30
0.0
 10
4.6536605362216
 20
-0.9705464398871552
 30
0.0
 10
4.673051154607795
 20
-0.989937058275119
 30
0.0
 10
4.696970694585413
 20
-0.9899370582762054
 30
0.0
 10
4.720890234562881
 20
-0.9899370582772664
 30
0.0
 10
4.740280852950895
 20
-0.9705464398910458
 30
0.0
 10
4.740280852951956
 20
-0.9466268999136294
 30
0.0
 10
4.740280852951956
 20
-0.9466268999136294
 30
0.0
 10
4.740280852951956
 20
-0.9466268999136294
 30
0.0
 10
4.740280852951956
 20
-0.9466268999136294
 30
0.0
  0
ENDBLK
  5
168
330
165
100
AcDbEntity
  8
0
100
AcDbBlockEnd
  0
BLOCK
  5
16C
330
16A
100
AcDbEntity
  8
0
100
AcDbBlockBegin
  2
block 38
 70
     0
 10
0.0
 20
0.0
 30
0.0
  3
block 38
  1

  0
SPLINE
  5
16E
330
16A
100
AcDbEntity
  8
_U+5207_U+65AD_U+30D1_U+30B9
 62
     1
420
 16711680
370
     9
100
AcDbSpline
210
0.0
220
0.0
230
1.0
 70
    11
 71
     3
 72
    20
 73
    16
 74
     0
 42
0.0000000001
 43
0.0000000001
 12
1.0
 22
0.0
 32
0.0
 13
1.0
 23
0.0
 33
0.0
 40
0.0
 40
0.0
 40
0.0
 40
0.0
 40
1.0
 40
1.0
 40
1.0
 40
2.0
 40
2.0
 40
2.0
 40
3.0
 40
3.0
 40
3.0
 40
4.0
 40
4.0
 40
4.0
 40
5.0
 40
5.0
 40
5.0
 40
5.0
 10
4.740627128864566
 20
-1.695254680464864
 30
0.0
 10
4.740627128865627
 20
-1.671335140487296
 30
0.0
 10
4.721236510479482
 20
-1.651944522099332
 30
0.0
 10
4.697316970501864
 20
-1.651944522098246
 30
0.0
 10
4.673397430524447
 20
-1.651944522097185
 30
0.0
 10
4.654006812136331
 20
-1.671335140483431
 30
0.0
 10
4.654006812135271
 20
-1.695254680460999
 30
0.0
 10
4.65400681213421
 20
-1.719174220438617
 30
0.0
 10
4.673397430520557
 20
-1.738564838826429
 30
0.0
 10
4.697316970497973
 20
-1.738564838827491
 30
0.0
 10
4.721236510475592
 20
-1.738564838828577
 30
0.0
 10
4.740627128863505
 20
-1.719174220442483
 30
0.0
 10
4.740627128864566
 20
-1.695254680464864
 30
0.0
 10
4.740627128864566
 20
-1.695254680464864
 30
0.0
 10
4.740627128864566
 20
-1.695254680464864
 30
0.0
 10
4.740627128864566
 20
-1.695254680464864
 30
0.0
  0
ENDBLK
  5
16D
330
16A
100
AcDbEntity
  8
0
100
AcDbBlockEnd
  0
BLOCK
  5
171
330
16F
100
AcDbEntity
  8
0
100
AcDbBlockBegin
  2
block 39
 70
     0
 10
0.0
 20
0.0
 30
0.0
  3
block 39
  1

  0
SPLINE
  5
173
330
16F
100
AcDbEntity
  8
_U+5207_U+65AD_U+30D1_U+30B9
 62
     1
420
 16711680
370
     9
100
AcDbSpline
210
0.0
220
0.0
230
1.0
 70
    11
 71
     3
 72
    20
 73
    16
 74
     0
 42
0.0000000001
 43
0.0000000001
 12
1.0
 22
0.0
 32
0.0
 13
1.0
 23
0.0
 33
0.0
 40
0.0
 40
0.0
 40
0.0
 40
0.0
 40
1.0
 40
1.0
 40
1.0
 40
2.0
 40
2.0
 40
2.0
 40
3.0
 40
3.0
 40
3.0
 40
4.0
 40
4.0
 40
4.0
 40
5.0
 40
5.0
 40
5.0
 40
5.0
 10
1.954665777054389
 20
-2.674161711400656
 30
0.0
 10
1.95466577705545
 20
-2.650242171423037
 30
0.0
 10
1.935275158669305
 20
-2.630851553034922
 30
0.0
 10
1.911355618691687
 20
-2.630851553033835
 30
0.0
 10
1.887436078714169
 20
-2.630851553032774
 30
0.0
 10
1.868045460326205
 20
-2.650242171419172
 30
0.0
 10
1.868045460325144
 20
-2.67416171139679
 30
0.0
 10
1.868045460324058
 20
-2.698081251374055
 30
0.0
 10
1.887436078710278
 20
-2.717471869762069
 30
0.0
 10
1.911355618687796
 20
-2.717471869763131
 30
0.0
 10
1.935275158665414
 20
-2.717471869764217
 30
0.0
 10
1.954665777053302
 20
-2.69808125137792
 30
0.0
 10
1.954665777054389
 20
-2.674161711400656
 30
0.0
 10
1.954665777054389
 20
-2.674161711400656
 30
0.0
 10
1.954665777054389
 20
-2.674161711400656
 30
0.0
 10
1.954665777054389
 20
-2.674161711400656
 30
0.0
  0
ENDBLK
  5
172
330
16F
100
AcDbEntity
  8
0
100
AcDbBlockEnd
  0
BLOCK
  5
176
330
174
100
AcDbEntity
  8
0
100
AcDbBlockBegin
  2
block 40
 70
     0
 10
0.0
 20
0.0
 30
0.0
  3
block 40
  1

  0
SPLINE
  5
178
330
174
100
AcDbEntity
  8
_U+5207_U+65AD_U+30D1_U+30B9
 62
     1
420
 16711680
370
     9
100
AcDbSpline
210
0.0
220
0.0
230
1.0
 70
    11
 71
     3
 72
   116
 73
   112
 74
     0
 42
0.0000000001
 43
0.0000000001
 12
1.0
 22
0.0
 32
0.0
 13
1.0
 23
0.0
 33
0.0
 40
0.0
 40
0.0
 40
0.0
 40
0.0
 40
1.0
 40
1.0
 40
1.0
 40
2.0
 40
2.0
 40
2.0
 40
3.0
 40
3.0
 40
3.0
 40
4.0
 40
4.0
 40
4.0
 40
5.0
 40
5.0
 40
5.0
 40
6.0
 40
6.0
 40
6.0
 40
7.0
 40
7.0
 40
7.0
 40
8.0
 40
8.0
 40
8.0
 40
9.0
 40
9.0
 40
9.0
 40
10.0
 40
10.0
 40
10.0
 40
11.0
 40
11.0
 40
11.0
 40
12.0
 40
12.0
 40
12.0
 40
13.0
 40
13.0
 40
13.0
 40
14.0
 40
14.0
 40
14.0
 40
15.0
 40
15.0
 40
15.0
 40
16.0
 40
16.0
 40
16.0
 40
17.0
 40
17.0
 40
17.0
 40
18.0
 40
18.0
 40
18.0
 40
19.0
 40
19.0
 40
19.0
 40
20.0
 40
20.0
 40
20.0
 40
21.0
 40
21.0
 40
21.0
 40
22.0
 40
22.0
 40
22.0
 40
23.0
 40
23.0
 40
23.0
 40
24.0
 40
24.0
 40
24.0
 40
25.0
 40
25.0
 40
25.0
 40
26.0
 40
26.0
 40
26.0
 40
27.0
 40
27.0
 40
27.0
 40
28.0
 40
28.0
 40
28.0
 40
29.0
 40
29.0
 40
29.0
 40
30.0
 40
30.0
 40
30.0
 40
31.0
 40
31.0
 40
31.0
 40
32.0
 40
32.0
 40
32.0
 40
33.0
 40
33.0
 40
33.0
 40
34.0
 40
34.0
 40
34.0
 40
35.0
 40
35.0
 40
35.0
 40
36.0
 40
36.0
 40
36.0
 40
37.0
 40
37.0
 40
37.0
 40
37.0
 10
-0.4761062926687221
 20
-2.525315894461654
 30
0.0
 10
-0.4652337744971141
 20
-2.525315894462134
 30
0.0
 10
-0.4564198570480281
 20
-2.516501977013629
 30
0.0
 10
-0.4564198570475229
 20
-2.505629458842122
 30
0.0
 10
-0.4564198570475229
 20
-2.505629458842122
 30
0.0
 10
-0.4564198569498532
 20
-0.3302783228008997
 30
0.0
 10
-0.4564198569498532
 20
-0.3302783228008997
 30
0.0
 10
-0.4564198569493732
 20
-0.3194058046291401
 30
0.0
 10
-0.4652337743977012
 20
-0.3105918871802815
 30
0.0
 10
-0.4761062925693093
 20
-0.3105918871798015
 30
0.0
 10
-0.4761062925693093
 20
-0.3105918871798015
 30
0.0
 10
-1.204713305341102
 20
-0.310591887147085
 30
0.0
 10
-1.204713305341102
 20
-0.310591887147085
 30
0.0
 10
-1.215585823512861
 20
-0.310591887146605
 30
0.0
 10
-1.224399740961088
 20
-0.3017779696972916
 30
0.0
 10
-1.224399740960583
 20
-0.2909054515258352
 30
0.0
 10
-1.224399740960583
 20
-0.2909054515258352
 30
0.0
 10
-1.224399740953964
 20
-0.1432571843737757
 30
0.0
 10
-1.224399740953964
 20
-0.1432571843737757
 30
0.0
 10
-1.224399740953484
 20
-0.1323846662021171
 30
0.0
 10
-1.233213658401787
 20
-0.1235707487528543
 30
0.0
 10
-1.244086176573445
 20
-0.1235707487523743
 30
0.0
 10
-1.244086176573445
 20
-0.1235707487523743
 30
0.0
 10
-1.952797858903573
 20
-0.123570748720542
 30
0.0
 10
-1.952797858903573
 20
-0.123570748720542
 30
0.0
 10
-1.963670377075131
 20
-0.123570748720062
 30
0.0
 10
-1.972484294523484
 20
-0.1147568312712034
 30
0.0
 10
-1.972484294523004
 20
-0.1038843130995954
 30
0.0
 10
-1.972484294523004
 20
-0.1038843130995954
 30
0.0
 10
-1.972484294520806
 20
-0.0546682240488078
 30
0.0
 10
-1.972484294520806
 20
-0.0546682240488078
 30
0.0
 10
-1.972484294520301
 20
-0.0437957058771493
 30
0.0
 10
-1.981298211968528
 20
-0.034981788428316
 30
0.0
 10
-1.992170730139984
 20
-0.0349817884278107
 30
0.0
 10
-1.992170730139984
 20
-0.0349817884278107
 30
0.0
 10
-2.661509541229836
 20
-0.0349817883977721
 30
0.0
 10
-2.661509541229836
 20
-0.0349817883977721
 30
0.0
 10
-2.672382059401343
 20
-0.0349817883972921
 30
0.0
 10
-2.681195976850277
 20
-0.0437957058453422
 30
0.0
 10
-2.681195976850783
 20
-0.0546682240170008
 30
0.0
 10
-2.681195976850783
 20
-0.0546682240170008
 30
0.0
 10
-2.681195976852981
 20
-0.1038843130677883
 30
0.0
 10
-2.681195976852981
 20
-0.1038843130677883
 30
0.0
 10
-2.681195976853461
 20
-0.1147568312393964
 30
0.0
 10
-2.690009894302622
 20
-0.1235707486874465
 30
0.0
 10
-2.70088241247418
 20
-0.1235707486869665
 30
0.0
 10
-2.70088241247418
 20
-0.1235707486869665
 30
0.0
 10
-3.409594094804358
 20
-0.1235707486551594
 30
0.0
 10
-3.409594094804358
 20
-0.1235707486551594
 30
0.0
 10
-3.420466612975916
 20
-0.1235707486546542
 30
0.0
 10
-3.429280530425179
 20
-0.1323846661031338
 30
0.0
 10
-3.429280530425659
 20
-0.1432571842747923
 30
0.0
 10
-3.429280530425659
 20
-0.1432571842747923
 30
0.0
 10
-3.429280530428311
 20
-0.2023164911354848
 30
0.0
 10
-3.429280530428311
 20
-0.2023164911354848
 30
0.0
 10
-3.429280530428791
 20
-0.2131890093072444
 30
0.0
 10
-3.438094447877701
 20
-0.2220029267554461
 30
0.0
 10
-3.448966966049511
 20
-0.2220029267549661
 30
0.0
 10
-3.448966966049511
 20
-0.2220029267549661
 30
0.0
 10
-4.157678648379336
 20
-0.2220029267231338
 30
0.0
 10
-4.157678648379336
 20
-0.2220029267231338
 30
0.0
 10
-4.168551166551197
 20
-0.2220029267226538
 30
0.0
 10
-4.177365084000207
 20
-0.2308168441709565
 30
0.0
 10
-4.177365084000686
 20
-0.2416893623426151
 30
0.0
 10
-4.177365084000686
 20
-0.2416893623426151
 30
0.0
 10
-4.17736508400286
 20
-0.2902954189727451
 30
0.0
 10
-4.17736508400286
 20
-0.2902954189727451
 30
0.0
 10
-4.17736508400286
 20
-0.2902954189727451
 30
0.0
 10
-4.177337701144855
 20
-0.9304828578216933
 30
0.0
 10
-4.177337701144855
 20
-0.9304828578216933
 30
0.0
 10
-4.177337701144855
 20
-0.9304828578216933
 30
0.0
 10
-4.177345734129353
 20
-2.201853940875455
 30
0.0
 10
-4.177345734129353
 20
-2.201853940875455
 30
0.0
 10
-4.180575997218662
 20
-2.216946382915492
 30
0.0
 10
-4.188560205861854
 20
-2.230605488116983
 30
0.0
 10
-4.200125959343874
 20
-2.240825554298201
 30
0.0
 10
-4.200125959343874
 20
-2.240825554298201
 30
0.0
 10
-4.951186952840215
 20
-2.675367984666839
 30
0.0
 10
-4.951186952840215
 20
-2.675367984666839
 30
0.0
 10
-4.971951419564726
 20
-2.690973475438037
 30
0.0
 10
-4.978332827747914
 20
-2.719335289578996
 30
0.0
 10
-4.966253546608186
 20
-2.74233062362138
 30
0.0
 10
-4.966253546608186
 20
-2.74233062362138
 30
0.0
 10
-4.445100608589605
 20
-3.649411368201299
 30
0.0
 10
-4.445100608589605
 20
-3.649411368201299
 30
0.0
 10
-4.444913807184851
 20
-3.649692926744744
 30
0.0
 10
-4.444722859678349
 20
-3.649971712445272
 30
0.0
 10
-4.444527828476439
 20
-3.65024763418872
 30
0.0
 10
-4.433582659885082
 20
-3.665732387252673
 30
0.0
 10
-4.412156975055824
 20
-3.66941244758113
 30
0.0
 10
-4.396672221991644
 20
-3.658467278989494
 30
0.0
 10
-4.396672221991644
 20
-3.658467278989494
 30
0.0
 10
-3.815976583943868
 20
-3.324234037765538
 30
0.0
 10
-3.815976583943868
 20
-3.324234037765538
 30
0.0
 10
-3.812384728772991
 20
-3.322985258472979
 30
0.0
 10
-3.808695691278849
 20
-3.32203586388045
 30
0.0
 10
-3.804947238072474
 20
-3.321395573438243
 30
0.0
 10
-3.804947238072474
 20
-3.321395573438243
 30
0.0
 10
-2.356369789253323
 20
-3.106065745175354
 30
0.0
 10
-2.356369789253323
 20
-3.106065745175354
 30
0.0
 10
-2.351281310356903
 20
-3.10554918999565
 30
0.0
 10
-2.346472637308731
 20
-3.103488330117999
 30
0.0
 10
-2.342589284318819
 20
-3.10015981448977
 30
0.0
 10
-2.342589284318819
 20
-3.10015981448977
 30
0.0
 10
-1.927205492705222
 20
-2.530897909371712
 30
0.0
 10
-1.927345399895431
 20
-2.531081917892051
 30
0.0
 10
-1.923653477054561
 20
-2.527389995051534
 30
0.0
 10
-1.918646155123497
 20
-2.525315894396878
 30
0.0
 10
-1.913424987770718
 20
-2.525315894397105
 30
0.0
 10
-1.913424987770718
 20
-2.525315894397105
 30
0.0
 10
-0.4761062926687221
 20
-2.525315894461654
 30
0.0
 10
-0.4761062926687221
 20
-2.525315894461654
 30
0.0
  0
ENDBLK
  5
177
330
174
100
AcDbEntity
  8
0
100
AcDbBlockEnd
  0
BLOCK
  5
17B
330
179
100
AcDbEntity
  8
0
100
AcDbBlockBegin
  2
block 41
 70
     0
 10
0.0
 20
0.0
 30
0.0
  3
block 41
  1

  0
SPLINE
  5
17D
330
179
100
AcDbEntity
  8
_U+5207_U+65AD_U+30D1_U+30B9
 62
     1
420
 16711680
370
     9
100
AcDbSpline
210
0.0
220
0.0
230
1.0
 70
    11
 71
     3
 72
    20
 73
    16
 74
     0
 42
0.0000000001
 43
0.0000000001
 12
1.0
 22
0.0
 32
0.0
 13
1.0
 23
0.0
 33
0.0
 40
0.0
 40
0.0
 40
0.0
 40
0.0
 40
1.0
 40
1.0
 40
1.0
 40
2.0
 40
2.0
 40
2.0
 40
3.0
 40
3.0
 40
3.0
 40
4.0
 40
4.0
 40
4.0
 40
5.0
 40
5.0
 40
5.0
 40
5.0
 10
-3.40641630318305
 20
-0.9011820507858171
 30
0.0
 10
-3.406416303181964
 20
-0.8772625108083503
 30
0.0
 10
-3.42580692156826
 20
-0.857871892420538
 30
0.0
 10
-3.449726461545879
 20
-0.8578718924194516
 30
0.0
 10
-3.473646001523497
 20
-0.8578718924183906
 30
0.0
 10
-3.493036619911209
 20
-0.8772625108044596
 30
0.0
 10
-3.493036619912295
 20
-0.9011820507819266
 30
0.0
 10
-3.493036619913356
 20
-0.9251015907596462
 30
0.0
 10
-3.473646001527388
 20
-0.9444922091476352
 30
0.0
 10
-3.449726461549769
 20
-0.9444922091486962
 30
0.0
 10
-3.425806921572151
 20
-0.9444922091497826
 30
0.0
 10
-3.406416303184111
 20
-0.9251015907635367
 30
0.0
 10
-3.40641630318305
 20
-0.9011820507858171
 30
0.0
 10
-3.40641630318305
 20
-0.9011820507858171
 30
0.0
 10
-3.40641630318305
 20
-0.9011820507858171
 30
0.0
 10
-3.40641630318305
 20
-0.9011820507858171
 30
0.0
  0
ENDBLK
  5
17C
330
179
100
AcDbEntity
  8
0
100
AcDbBlockEnd
  0
BLOCK
  5
180
330
17E
100
AcDbEntity
  8
0
100
AcDbBlockBegin
  2
block 42
 70
     0
 10
0.0
 20
0.0
 30
0.0
  3
block 42
  1

  0
SPLINE
  5
182
330
17E
100
AcDbEntity
  8
_U+5207_U+65AD_U+30D1_U+30B9
 62
     1
420
 16711680
370
     9
100
AcDbSpline
210
0.0
220
0.0
230
1.0
 70
    11
 71
     3
 72
    20
 73
    16
 74
     0
 42
0.0000000001
 43
0.0000000001
 12
1.0
 22
0.0
 32
0.0
 13
1.0
 23
0.0
 33
0.0
 40
0.0
 40
0.0
 40
0.0
 40
0.0
 40
1.0
 40
1.0
 40
1.0
 40
2.0
 40
2.0
 40
2.0
 40
3.0
 40
3.0
 40
3.0
 40
4.0
 40
4.0
 40
4.0
 40
5.0
 40
5.0
 40
5.0
 40
5.0
 10
-1.16181295224462
 20
-1.043796173716601
 30
0.0
 10
-1.161812952243559
 20
-1.019876633739134
 30
0.0
 10
-1.181203570629628
 20
-1.00048601535117
 30
0.0
 10
-1.205123110607196
 20
-1.000486015350083
 30
0.0
 10
-1.229042650584814
 20
-1.000486015349022
 30
0.0
 10
-1.248433268972854
 20
-1.019876633735243
 30
0.0
 10
-1.248433268973915
 20
-1.04379617371271
 30
0.0
 10
-1.248433268975001
 20
-1.067715713690126
 30
0.0
 10
-1.229042650588705
 20
-1.087106332078115
 30
0.0
 10
-1.205123110611086
 20
-1.087106332079177
 30
0.0
 10
-1.181203570633518
 20
-1.087106332080263
 30
0.0
 10
-1.161812952245681
 20
-1.067715713694017
 30
0.0
 10
-1.16181295224462
 20
-1.043796173716601
 30
0.0
 10
-1.16181295224462
 20
-1.043796173716601
 30
0.0
 10
-1.16181295224462
 20
-1.043796173716601
 30
0.0
 10
-1.16181295224462
 20
-1.043796173716601
 30
0.0
  0
ENDBLK
  5
181
330
17E
100
AcDbEntity
  8
0
100
AcDbBlockEnd
  0
BLOCK
  5
185
330
183
100
AcDbEntity
  8
0
100
AcDbBlockBegin
  2
block 43
 70
     0
 10
0.0
 20
0.0
 30
0.0
  3
block 43
  1

  0
SPLINE
  5
187
330
183
100
AcDbEntity
  8
_U+5207_U+65AD_U+30D1_U+30B9
 62
     1
420
 16711680
370
     9
100
AcDbSpline
210
0.0
220
0.0
230
1.0
 70
    11
 71
     3
 72
    20
 73
    16
 74
     0
 42
0.0000000001
 43
0.0000000001
 12
1.0
 22
0.0
 32
0.0
 13
1.0
 23
0.0
 33
0.0
 40
0.0
 40
0.0
 40
0.0
 40
0.0
 40
1.0
 40
1.0
 40
1.0
 40
2.0
 40
2.0
 40
2.0
 40
3.0
 40
3.0
 40
3.0
 40
4.0
 40
4.0
 40
4.0
 40
5.0
 40
5.0
 40
5.0
 40
5.0
 10
-1.161466676331909
 20
-1.792423954267861
 30
0.0
 10
-1.161466676330848
 20
-1.768504414290444
 30
0.0
 10
-1.180857294717144
 20
-1.749113795902152
 30
0.0
 10
-1.20477683469446
 20
-1.749113795901091
 30
0.0
 10
-1.228696374672129
 20
-1.749113795900004
 30
0.0
 10
-1.248086993060092
 20
-1.768504414286554
 30
0.0
 10
-1.248086993061179
 20
-1.79242395426397
 30
0.0
 10
-1.24808699306224
 20
-1.816343494241588
 30
0.0
 10
-1.228696374676019
 20
-1.835734112629401
 30
0.0
 10
-1.20477683469835
 20
-1.835734112630487
 30
0.0
 10
-1.180857294721035
 20
-1.835734112631548
 30
0.0
 10
-1.161466676332995
 20
-1.816343494245479
 30
0.0
 10
-1.161466676331909
 20
-1.792423954267861
 30
0.0
 10
-1.161466676331909
 20
-1.792423954267861
 30
0.0
 10
-1.161466676331909
 20
-1.792423954267861
 30
0.0
 10
-1.161466676331909
 20
-1.792423954267861
 30
0.0
  0
ENDBLK
  5
186
330
183
100
AcDbEntity
  8
0
100
AcDbBlockEnd
  0
BLOCK
  5
18A
330
188
100
AcDbEntity
  8
0
100
AcDbBlockBegin
  2
block 44
 70
     0
 10
0.0
 20
0.0
 30
0.0
  3
block 44
  1

  0
SPLINE
  5
18C
330
188
100
AcDbEntity
  8
_U+5207_U+65AD_U+30D1_U+30B9
 62
     1
420
 16711680
370
     9
100
AcDbSpline
210
0.0
220
0.0
230
1.0
 70
    11
 71
     3
 72
    20
 73
    16
 74
     0
 42
0.0000000001
 43
0.0000000001
 12
1.0
 22
0.0
 32
0.0
 13
1.0
 23
0.0
 33
0.0
 40
0.0
 40
0.0
 40
0.0
 40
0.0
 40
1.0
 40
1.0
 40
1.0
 40
2.0
 40
2.0
 40
2.0
 40
3.0
 40
3.0
 40
3.0
 40
4.0
 40
4.0
 40
4.0
 40
5.0
 40
5.0
 40
5.0
 40
5.0
 10
-3.947428028142263
 20
-2.771330985203652
 30
0.0
 10
-3.947428028141202
 20
-2.747411445226033
 30
0.0
 10
-3.96681864652722
 20
-2.728020826838045
 30
0.0
 10
-3.990738186504738
 20
-2.728020826836983
 30
0.0
 10
-4.014657726482357
 20
-2.728020826835897
 30
0.0
 10
-4.034048344870143
 20
-2.747411445222143
 30
0.0
 10
-4.034048344871204
 20
-2.771330985199761
 30
0.0
 10
-4.034048344872291
 20
-2.795250525177026
 30
0.0
 10
-4.014657726486247
 20
-2.814641143565142
 30
0.0
 10
-3.990738186508628
 20
-2.814641143566228
 30
0.0
 10
-3.966818646531111
 20
-2.814641143567289
 30
0.0
 10
-3.947428028143349
 20
-2.795250525180917
 30
0.0
 10
-3.947428028142263
 20
-2.771330985203652
 30
0.0
 10
-3.947428028142263
 20
-2.771330985203652
 30
0.0
 10
-3.947428028142263
 20
-2.771330985203652
 30
0.0
 10
-3.947428028142263
 20
-2.771330985203652
 30
0.0
  0
ENDBLK
  5
18B
330
188
100
AcDbEntity
  8
0
100
AcDbBlockEnd
  0
BLOCK
  5
18F
330
18D
100
AcDbEntity
  8
0
100
AcDbBlockBegin
  2
block 45
 70
     0
 10
0.0
 20
0.0
 30
0.0
  3
block 45
  1

  0
SPLINE
  5
191
330
18D
100
AcDbEntity
  8
_U+5207_U+65AD_U+30D1_U+30B9
 62
     1
420
 16711680
370
     9
100
AcDbSpline
210
0.0
220
0.0
230
1.0
 70
    11
 71
     3
 72
    20
 73
    16
 74
     0
 42
0.0000000001
 43
0.0000000001
 12
1.0
 22
0.0
 32
0.0
 13
1.0
 23
0.0
 33
0.0
 40
0.0
 40
0.0
 40
0.0
 40
0.0
 40
1.0
 40
1.0
 40
1.0
 40
2.0
 40
2.0
 40
2.0
 40
3.0
 40
3.0
 40
3.0
 40
4.0
 40
4.0
 40
4.0
 40
5.0
 40
5.0
 40
5.0
 40
5.0
 10
-2.115932797400723
 20
-2.466035330703183
 30
0.0
 10
-2.115932797399637
 20
-2.442115790725564
 30
0.0
 10
-2.13532341578563
 20
-2.422725172337576
 30
0.0
 10
-2.159242955763299
 20
-2.422725172336514
 30
0.0
 10
-2.183162495740917
 20
-2.422725172335428
 30
0.0
 10
-2.202553114128629
 20
-2.442115790721674
 30
0.0
 10
-2.202553114129715
 20
-2.466035330699292
 30
0.0
 10
-2.202553114130776
 20
-2.48995487067686
 30
0.0
 10
-2.183162495744808
 20
-2.509345489064521
 30
0.0
 10
-2.15924295576719
 20
-2.509345489065607
 30
0.0
 10
-2.135323415789521
 20
-2.509345489066668
 30
0.0
 10
-2.115932797401784
 20
-2.489954870680751
 30
0.0
 10
-2.115932797400723
 20
-2.466035330703183
 30
0.0
 10
-2.115932797400723
 20
-2.466035330703183
 30
0.0
 10
-2.115932797400723
 20
-2.466035330703183
 30
0.0
 10
-2.115932797400723
 20
-2.466035330703183
 30
0.0
  0
ENDBLK
  5
190
330
18D
100
AcDbEntity
  8
0
100
AcDbBlockEnd
  0
BLOCK
  5
194
330
192
100
AcDbEntity
  8
0
100
AcDbBlockBegin
  2
block 46
 70
     0
 10
0.0
 20
0.0
 30
0.0
  3
block 46
  1

  0
POLYLINE
  5
196
330
192
100
AcDbEntity
  8
_U+5207_U+65AD_U+30D1_U+30B9
 62
     1
420
 16711680
370
     9
100
AcDb2dPolyline
 66
     1
 10
0.0
 20
0.0
 30
0.0
  0
VERTEX
  5
197
330
196
100
AcDbEntity
  8
_U+5207_U+65AD_U+30D1_U+30B9
 62
     1
420
 16711680
370
     9
100
AcDbVertex
100
AcDb2dVertex
 10
-0.557815001106519
 20
-0.3968268461106719
 30
0.0
  0
VERTEX
  5
198
330
196
100
AcDbEntity
  8
_U+5207_U+65AD_U+30D1_U+30B9
 62
     1
420
 16711680
370
     9
100
AcDbVertex
100
AcDb2dVertex
 10
-0.5578150011309743
 20
-0.9421411127925188
 30
0.0
  0
VERTEX
  5
199
330
196
100
AcDbEntity
  8
_U+5207_U+65AD_U+30D1_U+30B9
 62
     1
420
 16711680
370
     9
100
AcDbVertex
100
AcDb2dVertex
 10
-1.103129267812847
 20
-0.9421411127680382
 30
0.0
  0
VERTEX
  5
19A
330
196
100
AcDbEntity
  8
_U+5207_U+65AD_U+30D1_U+30B9
 62
     1
420
 16711680
370
     9
100
AcDbVertex
100
AcDb2dVertex
 10
-1.103129267788366
 20
-0.3968268460861913
 30
0.0
  0
VERTEX
  5
19B
330
196
100
AcDbEntity
  8
_U+5207_U+65AD_U+30D1_U+30B9
 62
     1
420
 16711680
370
     9
100
AcDbVertex
100
AcDb2dVertex
 10
-0.557815001106519
 20
-0.3968268461106719
 30
0.0
  0
SEQEND
  5
19C
330
196
100
AcDbEntity
  8
_U+5207_U+65AD_U+30D1_U+30B9
 62
     1
420
 16711680
370
     9
  0
ENDBLK
  5
195
330
192
100
AcDbEntity
  8
0
100
AcDbBlockEnd
  0
BLOCK
  5
19F
330
19D
100
AcDbEntity
  8
0
100
AcDbBlockBegin
  2
block 47
 70
     0
 10
0.0
 20
0.0
 30
0.0
  3
block 47
  1

  0
POLYLINE
  5
1A1
330
19D
100
AcDbEntity
  8
_U+5207_U+65AD_U+30D1_U+30B9
 62
     1
420
 16711680
370
     9
100
AcDb2dPolyline
 66
     1
 10
0.0
 20
0.0
 30
0.0
  0
VERTEX
  5
1A2
330
1A1
100
AcDbEntity
  8
_U+5207_U+65AD_U+30D1_U+30B9
 62
     1
420
 16711680
370
     9
100
AcDbVertex
100
AcDb2dVertex
 10
-0.5578150011400945
 20
-1.144911399681279
 30
0.0
  0
VERTEX
  5
1A3
330
1A1
100
AcDbEntity
  8
_U+5207_U+65AD_U+30D1_U+30B9
 62
     1
420
 16711680
370
     9
100
AcDbVertex
100
AcDb2dVertex
 10
-0.557815001164575
 20
-1.690225666363277
 30
0.0
  0
VERTEX
  5
1A4
330
1A1
100
AcDbEntity
  8
_U+5207_U+65AD_U+30D1_U+30B9
 62
     1
420
 16711680
370
     9
100
AcDbVertex
100
AcDb2dVertex
 10
-1.103129267846422
 20
-1.690225666338796
 30
0.0
  0
VERTEX
  5
1A5
330
1A1
100
AcDbEntity
  8
_U+5207_U+65AD_U+30D1_U+30B9
 62
     1
420
 16711680
370
     9
100
AcDbVertex
100
AcDb2dVertex
 10
-1.103129267821967
 20
-1.144911399656798
 30
0.0
  0
VERTEX
  5
1A6
330
1A1
100
AcDbEntity
  8
_U+5207_U+65AD_U+30D1_U+30B9
 62
     1
420
 16711680
370
     9
100
AcDbVertex
100
AcDb2dVertex
 10
-0.5578150011400945
 20
-1.144911399681279
 30
0.0
  0
SEQEND
  5
1A7
330
1A1
100
AcDbEntity
  8
_U+5207_U+65AD_U+30D1_U+30B9
 62
     1
420
 16711680
370
     9
  0
ENDBLK
  5
1A0
330
19D
100
AcDbEntity
  8
0
100
AcDbBlockEnd
  0
BLOCK
  5
1AA
330
1A8
100
AcDbEntity
  8
0
100
AcDbBlockBegin
  2
block 48
 70
     0
 10
0.0
 20
0.0
 30
0.0
  3
block 48
  1

  0
POLYLINE
  5
1AC
330
1A8
100
AcDbEntity
  8
_U+5207_U+65AD_U+30D1_U+30B9
 62
     1
420
 16711680
370
     9
100
AcDb2dPolyline
 66
     1
 10
0.0
 20
0.0
 30
0.0
  0
VERTEX
  5
1AD
330
1AC
100
AcDbEntity
  8
_U+5207_U+65AD_U+30D1_U+30B9
 62
     1
420
 16711680
370
     9
100
AcDbVertex
100
AcDb2dVertex
 10
-0.55781500117367
 20
-1.892995953252037
 30
0.0
  0
VERTEX
  5
1AE
330
1AC
100
AcDbEntity
  8
_U+5207_U+65AD_U+30D1_U+30B9
 62
     1
420
 16711680
370
     9
100
AcDbVertex
100
AcDb2dVertex
 10
-0.5578150011981758
 20
-2.438310219933833
 30
0.0
  0
VERTEX
  5
1AF
330
1AC
100
AcDbEntity
  8
_U+5207_U+65AD_U+30D1_U+30B9
 62
     1
420
 16711680
370
     9
100
AcDbVertex
100
AcDb2dVertex
 10
-1.103129267880023
 20
-2.438310219909352
 30
0.0
  0
VERTEX
  5
1B0
330
1AC
100
AcDbEntity
  8
_U+5207_U+65AD_U+30D1_U+30B9
 62
     1
420
 16711680
370
     9
100
AcDbVertex
100
AcDb2dVertex
 10
-1.103129267855542
 20
-1.892995953227556
 30
0.0
  0
VERTEX
  5
1B1
330
1AC
100
AcDbEntity
  8
_U+5207_U+65AD_U+30D1_U+30B9
 62
     1
420
 16711680
370
     9
100
AcDbVertex
100
AcDb2dVertex
 10
-0.55781500117367
 20
-1.892995953252037
 30
0.0
  0
SEQEND
  5
1B2
330
1AC
100
AcDbEntity
  8
_U+5207_U+65AD_U+30D1_U+30B9
 62
     1
420
 16711680
370
     9
  0
ENDBLK
  5
1AB
330
1A8
100
AcDbEntity
  8
0
100
AcDbBlockEnd
  0
BLOCK
  5
1B5
330
1B3
100
AcDbEntity
  8
0
100
AcDbBlockBegin
  2
block 49
 70
     0
 10
0.0
 20
0.0
 30
0.0
  3
block 49
  1

  0
POLYLINE
  5
1B7
330
1B3
100
AcDbEntity
  8
_U+5207_U+65AD_U+30D1_U+30B9
 62
     1
420
 16711680
370
     9
100
AcDb2dPolyline
 66
     1
 10
0.0
 20
0.0
 30
0.0
  0
VERTEX
  5
1B8
330
1B7
100
AcDbEntity
  8
_U+5207_U+65AD_U+30D1_U+30B9
 62
     1
420
 16711680
370
     9
100
AcDbVertex
100
AcDb2dVertex
 10
-1.305899554669067
 20
-0.2098057076844573
 30
0.0
  0
VERTEX
  5
1B9
330
1B7
100
AcDbEntity
  8
_U+5207_U+65AD_U+30D1_U+30B9
 62
     1
420
 16711680
370
     9
100
AcDbVertex
100
AcDb2dVertex
 10
-1.305899554693547
 20
-0.7551199743661527
 30
0.0
  0
VERTEX
  5
1BA
330
1B7
100
AcDbEntity
  8
_U+5207_U+65AD_U+30D1_U+30B9
 62
     1
420
 16711680
370
     9
100
AcDbVertex
100
AcDb2dVertex
 10
-1.851213821375293
 20
-0.7551199743416721
 30
0.0
  0
VERTEX
  5
1BB
330
1B7
100
AcDbEntity
  8
_U+5207_U+65AD_U+30D1_U+30B9
 62
     1
420
 16711680
370
     9
100
AcDbVertex
100
AcDb2dVertex
 10
-1.851213821350812
 20
-0.2098057076599768
 30
0.0
  0
VERTEX
  5
1BC
330
1B7
100
AcDbEntity
  8
_U+5207_U+65AD_U+30D1_U+30B9
 62
     1
420
 16711680
370
     9
100
AcDbVertex
100
AcDb2dVertex
 10
-1.305899554669067
 20
-0.2098057076844573
 30
0.0
  0
SEQEND
  5
1BD
330
1B7
100
AcDbEntity
  8
_U+5207_U+65AD_U+30D1_U+30B9
 62
     1
420
 16711680
370
     9
  0
ENDBLK
  5
1B6
330
1B3
100
AcDbEntity
  8
0
100
AcDbBlockEnd
  0
BLOCK
  5
1C0
330
1BE
100
AcDbEntity
  8
0
100
AcDbBlockBegin
  2
block 50
 70
     0
 10
0.0
 20
0.0
 30
0.0
  3
block 50
  1

  0
POLYLINE
  5
1C2
330
1BE
100
AcDbEntity
  8
_U+5207_U+65AD_U+30D1_U+30B9
 62
     1
420
 16711680
370
     9
100
AcDb2dPolyline
 66
     1
 10
0.0
 20
0.0
 30
0.0
  0
VERTEX
  5
1C3
330
1C2
100
AcDbEntity
  8
_U+5207_U+65AD_U+30D1_U+30B9
 62
     1
420
 16711680
370
     9
100
AcDbVertex
100
AcDb2dVertex
 10
-1.305899554702667
 20
-0.9578902612550639
 30
0.0
  0
VERTEX
  5
1C4
330
1C2
100
AcDbEntity
  8
_U+5207_U+65AD_U+30D1_U+30B9
 62
     1
420
 16711680
370
     9
100
AcDbVertex
100
AcDb2dVertex
 10
-1.305899554727148
 20
-1.503204527936759
 30
0.0
  0
VERTEX
  5
1C5
330
1C2
100
AcDbEntity
  8
_U+5207_U+65AD_U+30D1_U+30B9
 62
     1
420
 16711680
370
     9
100
AcDbVertex
100
AcDb2dVertex
 10
-1.851213821408894
 20
-1.503204527912279
 30
0.0
  0
VERTEX
  5
1C6
330
1C2
100
AcDbEntity
  8
_U+5207_U+65AD_U+30D1_U+30B9
 62
     1
420
 16711680
370
     9
100
AcDbVertex
100
AcDb2dVertex
 10
-1.851213821384413
 20
-0.9578902612305834
 30
0.0
  0
VERTEX
  5
1C7
330
1C2
100
AcDbEntity
  8
_U+5207_U+65AD_U+30D1_U+30B9
 62
     1
420
 16711680
370
     9
100
AcDbVertex
100
AcDb2dVertex
 10
-1.305899554702667
 20
-0.9578902612550639
 30
0.0
  0
SEQEND
  5
1C8
330
1C2
100
AcDbEntity
  8
_U+5207_U+65AD_U+30D1_U+30B9
 62
     1
420
 16711680
370
     9
  0
ENDBLK
  5
1C1
330
1BE
100
AcDbEntity
  8
0
100
AcDbBlockEnd
  0
BLOCK
  5
1CB
330
1C9
100
AcDbEntity
  8
0
100
AcDbBlockBegin
  2
block 51
 70
     0
 10
0.0
 20
0.0
 30
0.0
  3
block 51
  1

  0
POLYLINE
  5
1CD
330
1C9
100
AcDbEntity
  8
_U+5207_U+65AD_U+30D1_U+30B9
 62
     1
420
 16711680
370
     9
100
AcDb2dPolyline
 66
     1
 10
0.0
 20
0.0
 30
0.0
  0
VERTEX
  5
1CE
330
1CD
100
AcDbEntity
  8
_U+5207_U+65AD_U+30D1_U+30B9
 62
     1
420
 16711680
370
     9
100
AcDbVertex
100
AcDb2dVertex
 10
-1.305899554736243
 20
-1.705974814825974
 30
0.0
  0
VERTEX
  5
1CF
330
1CD
100
AcDbEntity
  8
_U+5207_U+65AD_U+30D1_U+30B9
 62
     1
420
 16711680
370
     9
100
AcDbVertex
100
AcDb2dVertex
 10
-1.305899554760723
 20
-2.251289081507619
 30
0.0
  0
VERTEX
  5
1D0
330
1CD
100
AcDbEntity
  8
_U+5207_U+65AD_U+30D1_U+30B9
 62
     1
420
 16711680
370
     9
100
AcDbVertex
100
AcDb2dVertex
 10
-1.851213821442469
 20
-2.251289081483138
 30
0.0
  0
VERTEX
  5
1D1
330
1CD
100
AcDbEntity
  8
_U+5207_U+65AD_U+30D1_U+30B9
 62
     1
420
 16711680
370
     9
100
AcDbVertex
100
AcDb2dVertex
 10
-1.851213821417989
 20
-1.705974814801493
 30
0.0
  0
VERTEX
  5
1D2
330
1CD
100
AcDbEntity
  8
_U+5207_U+65AD_U+30D1_U+30B9
 62
     1
420
 16711680
370
     9
100
AcDbVertex
100
AcDb2dVertex
 10
-1.305899554736243
 20
-1.705974814825974
 30
0.0
  0
SEQEND
  5
1D3
330
1CD
100
AcDbEntity
  8
_U+5207_U+65AD_U+30D1_U+30B9
 62
     1
420
 16711680
370
     9
  0
ENDBLK
  5
1CC
330
1C9
100
AcDbEntity
  8
0
100
AcDbBlockEnd
  0
BLOCK
  5
1D6
330
1D4
100
AcDbEntity
  8
0
100
AcDbBlockBegin
  2
block 52
 70
     0
 10
0.0
 20
0.0
 30
0.0
  3
block 52
  1

  0
POLYLINE
  5
1D8
330
1D4
100
AcDbEntity
  8
_U+5207_U+65AD_U+30D1_U+30B9
 62
     1
420
 16711680
370
     9
100
AcDb2dPolyline
 66
     1
 10
0.0
 20
0.0
 30
0.0
  0
VERTEX
  5
1D9
330
1D8
100
AcDbEntity
  8
_U+5207_U+65AD_U+30D1_U+30B9
 62
     1
420
 16711680
370
     9
100
AcDbVertex
100
AcDb2dVertex
 10
-2.053984108235429
 20
-0.1162951384546381
 30
0.0
  0
VERTEX
  5
1DA
330
1D8
100
AcDbEntity
  8
_U+5207_U+65AD_U+30D1_U+30B9
 62
     1
420
 16711680
370
     9
100
AcDbVertex
100
AcDb2dVertex
 10
-2.053984108259909
 20
-0.661609405136283
 30
0.0
  0
VERTEX
  5
1DB
330
1D8
100
AcDbEntity
  8
_U+5207_U+65AD_U+30D1_U+30B9
 62
     1
420
 16711680
370
     9
100
AcDbVertex
100
AcDb2dVertex
 10
-2.599298374941706
 20
-0.6616094051118023
 30
0.0
  0
VERTEX
  5
1DC
330
1D8
100
AcDbEntity
  8
_U+5207_U+65AD_U+30D1_U+30B9
 62
     1
420
 16711680
370
     9
100
AcDbVertex
100
AcDb2dVertex
 10
-2.599298374917225
 20
-0.1162951384301575
 30
0.0
  0
VERTEX
  5
1DD
330
1D8
100
AcDbEntity
  8
_U+5207_U+65AD_U+30D1_U+30B9
 62
     1
420
 16711680
370
     9
100
AcDbVertex
100
AcDb2dVertex
 10
-2.053984108235429
 20
-0.1162951384546381
 30
0.0
  0
SEQEND
  5
1DE
330
1D8
100
AcDbEntity
  8
_U+5207_U+65AD_U+30D1_U+30B9
 62
     1
420
 16711680
370
     9
  0
ENDBLK
  5
1D7
330
1D4
100
AcDbEntity
  8
0
100
AcDbBlockEnd
  0
BLOCK
  5
1E1
330
1DF
100
AcDbEntity
  8
0
100
AcDbBlockBegin
  2
block 53
 70
     0
 10
0.0
 20
0.0
 30
0.0
  3
block 53
  1

  0
POLYLINE
  5
1E3
330
1DF
100
AcDbEntity
  8
_U+5207_U+65AD_U+30D1_U+30B9
 62
     1
420
 16711680
370
     9
100
AcDb2dPolyline
 66
     1
 10
0.0
 20
0.0
 30
0.0
  0
VERTEX
  5
1E4
330
1E3
100
AcDbEntity
  8
_U+5207_U+65AD_U+30D1_U+30B9
 62
     1
420
 16711680
370
     9
100
AcDbVertex
100
AcDb2dVertex
 10
-2.05398410826903
 20
-0.8643796920250931
 30
0.0
  0
VERTEX
  5
1E5
330
1E3
100
AcDbEntity
  8
_U+5207_U+65AD_U+30D1_U+30B9
 62
     1
420
 16711680
370
     9
100
AcDbVertex
100
AcDb2dVertex
 10
-2.05398410829351
 20
-1.40969395870689
 30
0.0
  0
VERTEX
  5
1E6
330
1E3
100
AcDbEntity
  8
_U+5207_U+65AD_U+30D1_U+30B9
 62
     1
420
 16711680
370
     9
100
AcDbVertex
100
AcDb2dVertex
 10
-2.599298374975306
 20
-1.409693958682409
 30
0.0
  0
VERTEX
  5
1E7
330
1E3
100
AcDbEntity
  8
_U+5207_U+65AD_U+30D1_U+30B9
 62
     1
420
 16711680
370
     9
100
AcDbVertex
100
AcDb2dVertex
 10
-2.599298374950826
 20
-0.8643796920006126
 30
0.0
  0
VERTEX
  5
1E8
330
1E3
100
AcDbEntity
  8
_U+5207_U+65AD_U+30D1_U+30B9
 62
     1
420
 16711680
370
     9
100
AcDbVertex
100
AcDb2dVertex
 10
-2.05398410826903
 20
-0.8643796920250931
 30
0.0
  0
SEQEND
  5
1E9
330
1E3
100
AcDbEntity
  8
_U+5207_U+65AD_U+30D1_U+30B9
 62
     1
420
 16711680
370
     9
  0
ENDBLK
  5
1E2
330
1DF
100
AcDbEntity
  8
0
100
AcDbBlockEnd
  0
BLOCK
  5
1EC
330
1EA
100
AcDbEntity
  8
0
100
AcDbBlockBegin
  2
block 54
 70
     0
 10
0.0
 20
0.0
 30
0.0
  3
block 54
  1

  0
POLYLINE
  5
1EE
330
1EA
100
AcDbEntity
  8
_U+5207_U+65AD_U+30D1_U+30B9
 62
     1
420
 16711680
370
     9
100
AcDb2dPolyline
 66
     1
 10
0.0
 20
0.0
 30
0.0
  0
VERTEX
  5
1EF
330
1EE
100
AcDbEntity
  8
_U+5207_U+65AD_U+30D1_U+30B9
 62
     1
420
 16711680
370
     9
100
AcDbVertex
100
AcDb2dVertex
 10
-2.053984108302605
 20
-1.6124642455957
 30
0.0
  0
VERTEX
  5
1F0
330
1EE
100
AcDbEntity
  8
_U+5207_U+65AD_U+30D1_U+30B9
 62
     1
420
 16711680
370
     9
100
AcDbVertex
100
AcDb2dVertex
 10
-2.053984108327086
 20
-2.157778512277648
 30
0.0
  0
VERTEX
  5
1F1
330
1EE
100
AcDbEntity
  8
_U+5207_U+65AD_U+30D1_U+30B9
 62
     1
420
 16711680
370
     9
100
AcDbVertex
100
AcDb2dVertex
 10
-2.599298375008882
 20
-2.157778512253167
 30
0.0
  0
VERTEX
  5
1F2
330
1EE
100
AcDbEntity
  8
_U+5207_U+65AD_U+30D1_U+30B9
 62
     1
420
 16711680
370
     9
100
AcDbVertex
100
AcDb2dVertex
 10
-2.599298374984401
 20
-1.612464245571219
 30
0.0
  0
VERTEX
  5
1F3
330
1EE
100
AcDbEntity
  8
_U+5207_U+65AD_U+30D1_U+30B9
 62
     1
420
 16711680
370
     9
100
AcDbVertex
100
AcDb2dVertex
 10
-2.053984108302605
 20
-1.6124642455957
 30
0.0
  0
SEQEND
  5
1F4
330
1EE
100
AcDbEntity
  8
_U+5207_U+65AD_U+30D1_U+30B9
 62
     1
420
 16711680
370
     9
  0
ENDBLK
  5
1ED
330
1EA
100
AcDbEntity
  8
0
100
AcDbBlockEnd
  0
BLOCK
  5
1F7
330
1F5
100
AcDbEntity
  8
0
100
AcDbBlockBegin
  2
block 55
 70
     0
 10
0.0
 20
0.0
 30
0.0
  3
block 55
  1

  0
POLYLINE
  5
1F9
330
1F5
100
AcDbEntity
  8
_U+5207_U+65AD_U+30D1_U+30B9
 62
     1
420
 16711680
370
     9
100
AcDb2dPolyline
 66
     1
 10
0.0
 20
0.0
 30
0.0
  0
VERTEX
  5
1FA
330
1F9
100
AcDbEntity
  8
_U+5207_U+65AD_U+30D1_U+30B9
 62
     1
420
 16711680
370
     9
100
AcDbVertex
100
AcDb2dVertex
 10
-2.80206866181028
 20
-0.209805707617281
 30
0.0
  0
VERTEX
  5
1FB
330
1F9
100
AcDbEntity
  8
_U+5207_U+65AD_U+30D1_U+30B9
 62
     1
420
 16711680
370
     9
100
AcDbVertex
100
AcDb2dVertex
 10
-2.80206866183476
 20
-0.7551199742989764
 30
0.0
  0
VERTEX
  5
1FC
330
1F9
100
AcDbEntity
  8
_U+5207_U+65AD_U+30D1_U+30B9
 62
     1
420
 16711680
370
     9
100
AcDbVertex
100
AcDb2dVertex
 10
-3.347382928516607
 20
-0.7551199742744958
 30
0.0
  0
VERTEX
  5
1FD
330
1F9
100
AcDbEntity
  8
_U+5207_U+65AD_U+30D1_U+30B9
 62
     1
420
 16711680
370
     9
100
AcDbVertex
100
AcDb2dVertex
 10
-3.347382928492127
 20
-0.2098057075928005
 30
0.0
  0
VERTEX
  5
1FE
330
1F9
100
AcDbEntity
  8
_U+5207_U+65AD_U+30D1_U+30B9
 62
     1
420
 16711680
370
     9
100
AcDbVertex
100
AcDb2dVertex
 10
-2.80206866181028
 20
-0.209805707617281
 30
0.0
  0
SEQEND
  5
1FF
330
1F9
100
AcDbEntity
  8
_U+5207_U+65AD_U+30D1_U+30B9
 62
     1
420
 16711680
370
     9
  0
ENDBLK
  5
1F8
330
1F5
100
AcDbEntity
  8
0
100
AcDbBlockEnd
  0
BLOCK
  5
202
330
200
100
AcDbEntity
  8
0
100
AcDbBlockBegin
  2
block 56
 70
     0
 10
0.0
 20
0.0
 30
0.0
  3
block 56
  1

  0
POLYLINE
  5
204
330
200
100
AcDbEntity
  8
_U+5207_U+65AD_U+30D1_U+30B9
 62
     1
420
 16711680
370
     9
100
AcDb2dPolyline
 66
     1
 10
0.0
 20
0.0
 30
0.0
  0
VERTEX
  5
205
330
204
100
AcDbEntity
  8
_U+5207_U+65AD_U+30D1_U+30B9
 62
     1
420
 16711680
370
     9
100
AcDbVertex
100
AcDb2dVertex
 10
-2.80206866184388
 20
-0.9578902611878877
 30
0.0
  0
VERTEX
  5
206
330
204
100
AcDbEntity
  8
_U+5207_U+65AD_U+30D1_U+30B9
 62
     1
420
 16711680
370
     9
100
AcDbVertex
100
AcDb2dVertex
 10
-2.802068661868361
 20
-1.503204527869583
 30
0.0
  0
VERTEX
  5
207
330
204
100
AcDbEntity
  8
_U+5207_U+65AD_U+30D1_U+30B9
 62
     1
420
 16711680
370
     9
100
AcDbVertex
100
AcDb2dVertex
 10
-3.347382928550208
 20
-1.503204527845103
 30
0.0
  0
VERTEX
  5
208
330
204
100
AcDbEntity
  8
_U+5207_U+65AD_U+30D1_U+30B9
 62
     1
420
 16711680
370
     9
100
AcDbVertex
100
AcDb2dVertex
 10
-3.347382928525727
 20
-0.9578902611634071
 30
0.0
  0
VERTEX
  5
209
330
204
100
AcDbEntity
  8
_U+5207_U+65AD_U+30D1_U+30B9
 62
     1
420
 16711680
370
     9
100
AcDbVertex
100
AcDb2dVertex
 10
-2.80206866184388
 20
-0.9578902611878877
 30
0.0
  0
SEQEND
  5
20A
330
204
100
AcDbEntity
  8
_U+5207_U+65AD_U+30D1_U+30B9
 62
     1
420
 16711680
370
     9
  0
ENDBLK
  5
203
330
200
100
AcDbEntity
  8
0
100
AcDbBlockEnd
  0
BLOCK
  5
20D
330
20B
100
AcDbEntity
  8
0
100
AcDbBlockBegin
  2
block 57
 70
     0
 10
0.0
 20
0.0
 30
0.0
  3
block 57
  1

  0
POLYLINE
  5
20F
330
20B
100
AcDbEntity
  8
_U+5207_U+65AD_U+30D1_U+30B9
 62
     1
420
 16711680
370
     9
100
AcDb2dPolyline
 66
     1
 10
0.0
 20
0.0
 30
0.0
  0
VERTEX
  5
210
330
20F
100
AcDbEntity
  8
_U+5207_U+65AD_U+30D1_U+30B9
 62
     1
420
 16711680
370
     9
100
AcDbVertex
100
AcDb2dVertex
 10
-2.802068661877456
 20
-1.705974814758797
 30
0.0
  0
VERTEX
  5
211
330
20F
100
AcDbEntity
  8
_U+5207_U+65AD_U+30D1_U+30B9
 62
     1
420
 16711680
370
     9
100
AcDbVertex
100
AcDb2dVertex
 10
-2.802068661901937
 20
-2.251289081440442
 30
0.0
  0
VERTEX
  5
212
330
20F
100
AcDbEntity
  8
_U+5207_U+65AD_U+30D1_U+30B9
 62
     1
420
 16711680
370
     9
100
AcDbVertex
100
AcDb2dVertex
 10
-3.347382928583784
 20
-2.251289081415962
 30
0.0
  0
VERTEX
  5
213
330
20F
100
AcDbEntity
  8
_U+5207_U+65AD_U+30D1_U+30B9
 62
     1
420
 16711680
370
     9
100
AcDbVertex
100
AcDb2dVertex
 10
-3.347382928559303
 20
-1.705974814734317
 30
0.0
  0
VERTEX
  5
214
330
20F
100
AcDbEntity
  8
_U+5207_U+65AD_U+30D1_U+30B9
 62
     1
420
 16711680
370
     9
100
AcDbVertex
100
AcDb2dVertex
 10
-2.802068661877456
 20
-1.705974814758797
 30
0.0
  0
SEQEND
  5
215
330
20F
100
AcDbEntity
  8
_U+5207_U+65AD_U+30D1_U+30B9
 62
     1
420
 16711680
370
     9
  0
ENDBLK
  5
20E
330
20B
100
AcDbEntity
  8
0
100
AcDbBlockEnd
  0
BLOCK
  5
218
330
216
100
AcDbEntity
  8
0
100
AcDbBlockBegin
  2
block 58
 70
     0
 10
0.0
 20
0.0
 30
0.0
  3
block 58
  1

  0
POLYLINE
  5
21A
330
216
100
AcDbEntity
  8
_U+5207_U+65AD_U+30D1_U+30B9
 62
     1
420
 16711680
370
     9
100
AcDb2dPolyline
 66
     1
 10
0.0
 20
0.0
 30
0.0
  0
VERTEX
  5
21B
330
21A
100
AcDbEntity
  8
_U+5207_U+65AD_U+30D1_U+30B9
 62
     1
420
 16711680
370
     9
100
AcDbVertex
100
AcDb2dVertex
 10
-3.550153215385282
 20
-0.3033162767799493
 30
0.0
  0
VERTEX
  5
21C
330
21A
100
AcDbEntity
  8
_U+5207_U+65AD_U+30D1_U+30B9
 62
     1
420
 16711680
370
     9
100
AcDbVertex
100
AcDb2dVertex
 10
-3.550153215409788
 20
-0.8486305434616446
 30
0.0
  0
VERTEX
  5
21D
330
21A
100
AcDbEntity
  8
_U+5207_U+65AD_U+30D1_U+30B9
 62
     1
420
 16711680
370
     9
100
AcDbVertex
100
AcDb2dVertex
 10
-4.095467482091686
 20
-0.848630543437164
 30
0.0
  0
VERTEX
  5
21E
330
21A
100
AcDbEntity
  8
_U+5207_U+65AD_U+30D1_U+30B9
 62
     1
420
 16711680
370
     9
100
AcDbVertex
100
AcDb2dVertex
 10
-4.09546748206718
 20
-0.3033162767554687
 30
0.0
  0
VERTEX
  5
21F
330
21A
100
AcDbEntity
  8
_U+5207_U+65AD_U+30D1_U+30B9
 62
     1
420
 16711680
370
     9
100
AcDbVertex
100
AcDb2dVertex
 10
-3.550153215385282
 20
-0.3033162767799493
 30
0.0
  0
SEQEND
  5
220
330
21A
100
AcDbEntity
  8
_U+5207_U+65AD_U+30D1_U+30B9
 62
     1
420
 16711680
370
     9
  0
ENDBLK
  5
219
330
216
100
AcDbEntity
  8
0
100
AcDbBlockEnd
  0
BLOCK
  5
223
330
221
100
AcDbEntity
  8
0
100
AcDbBlockBegin
  2
block 59
 70
     0
 10
0.0
 20
0.0
 30
0.0
  3
block 59
  1

  0
POLYLINE
  5
225
330
221
100
AcDbEntity
  8
_U+5207_U+65AD_U+30D1_U+30B9
 62
     1
420
 16711680
370
     9
100
AcDb2dPolyline
 66
     1
 10
0.0
 20
0.0
 30
0.0
  0
VERTEX
  5
226
330
225
100
AcDbEntity
  8
_U+5207_U+65AD_U+30D1_U+30B9
 62
     1
420
 16711680
370
     9
100
AcDbVertex
100
AcDb2dVertex
 10
-3.550153215418883
 20
-1.051400830350707
 30
0.0
  0
VERTEX
  5
227
330
225
100
AcDbEntity
  8
_U+5207_U+65AD_U+30D1_U+30B9
 62
     1
420
 16711680
370
     9
100
AcDbVertex
100
AcDb2dVertex
 10
-3.550153215443363
 20
-1.596715097032655
 30
0.0
  0
VERTEX
  5
228
330
225
100
AcDbEntity
  8
_U+5207_U+65AD_U+30D1_U+30B9
 62
     1
420
 16711680
370
     9
100
AcDbVertex
100
AcDb2dVertex
 10
-4.095467482125261
 20
-1.596715097008175
 30
0.0
  0
VERTEX
  5
229
330
225
100
AcDbEntity
  8
_U+5207_U+65AD_U+30D1_U+30B9
 62
     1
420
 16711680
370
     9
100
AcDbVertex
100
AcDb2dVertex
 10
-4.095467482100781
 20
-1.051400830326227
 30
0.0
  0
VERTEX
  5
22A
330
225
100
AcDbEntity
  8
_U+5207_U+65AD_U+30D1_U+30B9
 62
     1
420
 16711680
370
     9
100
AcDbVertex
100
AcDb2dVertex
 10
-3.550153215418883
 20
-1.051400830350707
 30
0.0
  0
SEQEND
  5
22B
330
225
100
AcDbEntity
  8
_U+5207_U+65AD_U+30D1_U+30B9
 62
     1
420
 16711680
370
     9
  0
ENDBLK
  5
224
330
221
100
AcDbEntity
  8
0
100
AcDbBlockEnd
  0
BLOCK
  5
22E
330
22C
100
AcDbEntity
  8
0
100
AcDbBlockBegin
  2
block 60
 70
     0
 10
0.0
 20
0.0
 30
0.0
  3
block 60
  1

  0
POLYLINE
  5
230
330
22C
100
AcDbEntity
  8
_U+5207_U+65AD_U+30D1_U+30B9
 62
     1
420
 16711680
370
     9
100
AcDb2dPolyline
 66
     1
 10
0.0
 20
0.0
 30
0.0
  0
VERTEX
  5
231
330
230
100
AcDbEntity
  8
_U+5207_U+65AD_U+30D1_U+30B9
 62
     1
420
 16711680
370
     9
100
AcDbVertex
100
AcDb2dVertex
 10
-3.550153215452458
 20
-1.799485383921466
 30
0.0
  0
VERTEX
  5
232
330
230
100
AcDbEntity
  8
_U+5207_U+65AD_U+30D1_U+30B9
 62
     1
420
 16711680
370
     9
100
AcDbVertex
100
AcDb2dVertex
 10
-3.550153215476939
 20
-2.344799650603111
 30
0.0
  0
VERTEX
  5
233
330
230
100
AcDbEntity
  8
_U+5207_U+65AD_U+30D1_U+30B9
 62
     1
420
 16711680
370
     9
100
AcDbVertex
100
AcDb2dVertex
 10
-4.095467482158837
 20
-2.34479965057863
 30
0.0
  0
VERTEX
  5
234
330
230
100
AcDbEntity
  8
_U+5207_U+65AD_U+30D1_U+30B9
 62
     1
420
 16711680
370
     9
100
AcDbVertex
100
AcDb2dVertex
 10
-4.095467482134356
 20
-1.799485383896985
 30
0.0
  0
VERTEX
  5
235
330
230
100
AcDbEntity
  8
_U+5207_U+65AD_U+30D1_U+30B9
 62
     1
420
 16711680
370
     9
100
AcDbVertex
100
AcDb2dVertex
 10
-3.550153215452458
 20
-1.799485383921466
 30
0.0
  0
SEQEND
  5
236
330
230
100
AcDbEntity
  8
_U+5207_U+65AD_U+30D1_U+30B9
 62
     1
420
 16711680
370
     9
  0
ENDBLK
  5
22F
330
22C
100
AcDbEntity
  8
0
100
AcDbBlockEnd
  0
BLOCK
  5
239
330
237
100
AcDbEntity
  8
0
100
AcDbBlockBegin
  2
block 61
 70
     0
 10
0.0
 20
0.0
 30
0.0
  3
block 61
  1

  0
POLYLINE
  5
23B
330
237
100
AcDbEntity
  8
_U+5207_U+65AD_U+30D1_U+30B9
 62
     1
420
 16711680
370
     9
100
AcDb2dPolyline
 66
     1
 10
0.0
 20
0.0
 30
0.0
  0
VERTEX
  5
23C
330
23B
100
AcDbEntity
  8
_U+5207_U+65AD_U+30D1_U+30B9
 62
     1
420
 16711680
370
     9
100
AcDbVertex
100
AcDb2dVertex
 10
-2.428026385126865
 20
-2.478667412871396
 30
0.0
  0
VERTEX
  5
23D
330
23B
100
AcDbEntity
  8
_U+5207_U+65AD_U+30D1_U+30B9
 62
     1
420
 16711680
370
     9
100
AcDbVertex
100
AcDb2dVertex
 10
-2.428026385151346
 20
-3.023981679553243
 30
0.0
  0
VERTEX
  5
23E
330
23B
100
AcDbEntity
  8
_U+5207_U+65AD_U+30D1_U+30B9
 62
     1
420
 16711680
370
     9
100
AcDbVertex
100
AcDb2dVertex
 10
-2.973340651833142
 20
-3.023981679528763
 30
0.0
  0
VERTEX
  5
23F
330
23B
100
AcDbEntity
  8
_U+5207_U+65AD_U+30D1_U+30B9
 62
     1
420
 16711680
370
     9
100
AcDbVertex
100
AcDb2dVertex
 10
-2.973340651808662
 20
-2.478667412846915
 30
0.0
  0
VERTEX
  5
240
330
23B
100
AcDbEntity
  8
_U+5207_U+65AD_U+30D1_U+30B9
 62
     1
420
 16711680
370
     9
100
AcDbVertex
100
AcDb2dVertex
 10
-2.428026385126865
 20
-2.478667412871396
 30
0.0
  0
SEQEND
  5
241
330
23B
100
AcDbEntity
  8
_U+5207_U+65AD_U+30D1_U+30B9
 62
     1
420
 16711680
370
     9
  0
ENDBLK
  5
23A
330
237
100
AcDbEntity
  8
0
100
AcDbBlockEnd
  0
BLOCK
  5
244
330
242
100
AcDbEntity
  8
0
100
AcDbBlockBegin
  2
block 62
 70
     0
 10
0.0
 20
0.0
 30
0.0
  3
block 62
  1

  0
POLYLINE
  5
246
330
242
100
AcDbEntity
  8
_U+5207_U+65AD_U+30D1_U+30B9
 62
     1
420
 16711680
370
     9
100
AcDb2dPolyline
 66
     1
 10
0.0
 20
0.0
 30
0.0
  0
VERTEX
  5
247
330
246
100
AcDbEntity
  8
_U+5207_U+65AD_U+30D1_U+30B9
 62
     1
420
 16711680
370
     9
100
AcDbVertex
100
AcDb2dVertex
 10
-3.334685560630053
 20
-2.525893450272001
 30
0.0
  0
VERTEX
  5
248
330
246
100
AcDbEntity
  8
_U+5207_U+65AD_U+30D1_U+30B9
 62
     1
420
 16711680
370
     9
100
AcDbVertex
100
AcDb2dVertex
 10
-3.194083069307453
 20
-3.05276970602914
 30
0.0
  0
VERTEX
  5
249
330
246
100
AcDbEntity
  8
_U+5207_U+65AD_U+30D1_U+30B9
 62
     1
420
 16711680
370
     9
100
AcDbVertex
100
AcDb2dVertex
 10
-3.720959325064465
 20
-3.193372197351841
 30
0.0
  0
VERTEX
  5
24A
330
246
100
AcDbEntity
  8
_U+5207_U+65AD_U+30D1_U+30B9
 62
     1
420
 16711680
370
     9
100
AcDbVertex
100
AcDb2dVertex
 10
-3.861561816387039
 20
-2.666495941594651
 30
0.0
  0
VERTEX
  5
24B
330
246
100
AcDbEntity
  8
_U+5207_U+65AD_U+30D1_U+30B9
 62
     1
420
 16711680
370
     9
100
AcDbVertex
100
AcDb2dVertex
 10
-3.334685560630053
 20
-2.525893450272001
 30
0.0
  0
SEQEND
  5
24C
330
246
100
AcDbEntity
  8
_U+5207_U+65AD_U+30D1_U+30B9
 62
     1
420
 16711680
370
     9
  0
ENDBLK
  5
245
330
242
100
AcDbEntity
  8
0
100
AcDbBlockEnd
  0
BLOCK
  5
24F
330
24D
100
AcDbEntity
  8
0
100
AcDbBlockBegin
  2
block 63
 70
     0
 10
0.0
 20
0.0
 30
0.0
  3
block 63
  1

  0
POLYLINE
  5
251
330
24D
100
AcDbEntity
  8
_U+5207_U+65AD_U+30D1_U+30B9
 62
     1
420
 16711680
370
     9
100
AcDb2dPolyline
 66
     1
 10
0.0
 20
0.0
 30
0.0
  0
VERTEX
  5
252
330
251
100
AcDbEntity
  8
_U+5207_U+65AD_U+30D1_U+30B9
 62
     1
420
 16711680
370
     9
100
AcDbVertex
100
AcDb2dVertex
 10
-4.303685244233697
 20
-2.63461931804045
 30
0.0
  0
VERTEX
  5
253
330
251
100
AcDbEntity
  8
_U+5207_U+65AD_U+30D1_U+30B9
 62
     1
420
 16711680
370
     9
100
AcDbVertex
100
AcDb2dVertex
 10
-4.03135041552327
 20
-3.107061262111806
 30
0.0
  0
VERTEX
  5
254
330
251
100
AcDbEntity
  8
_U+5207_U+65AD_U+30D1_U+30B9
 62
     1
420
 16711680
370
     9
100
AcDbVertex
100
AcDb2dVertex
 10
-4.50379235959493
 20
-3.379396090822133
 30
0.0
  0
VERTEX
  5
255
330
251
100
AcDbEntity
  8
_U+5207_U+65AD_U+30D1_U+30B9
 62
     1
420
 16711680
370
     9
100
AcDbVertex
100
AcDb2dVertex
 10
-4.776127188305256
 20
-2.906954146750472
 30
0.0
  0
VERTEX
  5
256
330
251
100
AcDbEntity
  8
_U+5207_U+65AD_U+30D1_U+30B9
 62
     1
420
 16711680
370
     9
100
AcDbVertex
100
AcDb2dVertex
 10
-4.303685244233697
 20
-2.63461931804045
 30
0.0
  0
SEQEND
  5
257
330
251
100
AcDbEntity
  8
_U+5207_U+65AD_U+30D1_U+30B9
 62
     1
420
 16711680
370
     9
  0
ENDBLK
  5
250
330
24D
100
AcDbEntity
  8
0
100
AcDbBlockEnd
  0
BLOCK
  5
25A
330
258
100
AcDbEntity
  8
0
100
AcDbBlockBegin
  2
block 64
 70
     0
 10
0.0
 20
0.0
 30
0.0
  3
block 64
  1

  0
INSERT
  5
25D
330
258
100
AcDbEntity
  8
_U+5207_U+65AD_U+30D1_U+30B9
100
AcDbBlockReference
  2
block 65
 10
0.0
 20
0.0
 30
0.0
  0
INSERT
  5
262
330
258
100
AcDbEntity
  8
_U+5207_U+65AD_U+30D1_U+30B9
100
AcDbBlockReference
  2
block 66
 10
0.0
 20
0.0
 30
0.0
  0
INSERT
  5
267
330
258
100
AcDbEntity
  8
_U+5207_U+65AD_U+30D1_U+30B9
100
AcDbBlockReference
  2
block 67
 10
0.0
 20
0.0
 30
0.0
  0
ENDBLK
  5
25B
330
258
100
AcDbEntity
  8
0
100
AcDbBlockEnd
  0
BLOCK
  5
25E
330
25C
100
AcDbEntity
  8
0
100
AcDbBlockBegin
  2
block 65
 70
     0
 10
0.0
 20
0.0
 30
0.0
  3
block 65
  1

  0
SPLINE
  5
260
330
25C
100
AcDbEntity
  8
_U+5207_U+65AD_U+30D1_U+30B9
 62
     1
420
 16711680
370
     9
100
AcDbSpline
210
0.0
220
0.0
230
1.0
 70
    11
 71
     3
 72
    32
 73
    28
 74
     0
 42
0.0000000001
 43
0.0000000001
 12
1.0
 22
0.0
 32
0.0
 13
1.0
 23
0.0
 33
0.0
 40
0.0
 40
0.0
 40
0.0
 40
0.0
 40
1.0
 40
1.0
 40
1.0
 40
2.0
 40
2.0
 40
2.0
 40
3.0
 40
3.0
 40
3.0
 40
4.0
 40
4.0
 40
4.0
 40
5.0
 40
5.0
 40
5.0
 40
6.0
 40
6.0
 40
6.0
 40
7.0
 40
7.0
 40
7.0
 40
8.0
 40
8.0
 40
8.0
 40
9.0
 40
9.0
 40
9.0
 40
9.0
 10
-4.304787261146531
 20
-0.2527115931824634
 30
0.0
 10
-4.304787261146531
 20
-0.2527115931824634
 30
0.0
 10
-4.30478722465879
 20
-2.117144141716659
 30
0.0
 10
-4.30478722465879
 20
-2.117144141716659
 30
0.0
 10
-4.307143507422729
 20
-2.137724886763534
 30
0.0
 10
-4.316370144066367
 20
-2.147898114858511
 30
0.0
 10
-4.329940393098519
 20
-2.159733279805323
 30
0.0
 10
-4.329940393098519
 20
-2.159733279805323
 30
0.0
 10
-5.071664403407263
 20
-2.587151209364821
 30
0.0
 10
-5.071664403407263
 20
-2.587151209364821
 30
0.0
 10
-5.087597624696652
 20
-2.593848724053512
 30
0.0
 10
-5.105943461012455
 20
-2.586361704554469
 30
0.0
 10
-5.112640975701171
 20
-2.570428483264903
 30
0.0
 10
-5.113627614137284
 20
-2.568081294903044
 30
0.0
 10
-5.114324120821695
 20
-2.565622471475763
 30
0.0
 10
-5.114715050617077
 20
-2.563106537751663
 30
0.0
 10
-5.114715050617077
 20
-2.563106537751663
 30
0.0
 10
-5.114669039798829
 20
-0.2531174706179576
 30
0.0
 10
-5.114669039798829
 20
-0.2531174706179576
 30
0.0
 10
-5.114669033331993
 20
-0.2422449524463496
 30
0.0
 10
-5.105855110640833
 20
-0.2334310402399953
 30
0.0
 10
-5.094982592469275
 20
-0.2334310467068816
 30
0.0
 10
-5.094982592469275
 20
-0.2334310467068816
 30
0.0
 10
-4.324481255595426
 20
-0.2330055526962901
 30
0.0
 10
-4.324481255595426
 20
-0.2330055526962901
 30
0.0
 10
-4.313605784399392
 20
-0.2330198417177043
 30
0.0
 10
-4.304794900104095
 20
-0.2418361152821389
 30
0.0
 10
-4.304787261146531
 20
-0.2527115931824634
 30
0.0
  0
ENDBLK
  5
25F
330
25C
100
AcDbEntity
  8
0
100
AcDbBlockEnd
  0
BLOCK
  5
263
330
261
100
AcDbEntity
  8
0
100
AcDbBlockBegin
  2
block 66
 70
     0
 10
0.0
 20
0.0
 30
0.0
  3
block 66
  1

  0
SPLINE
  5
265
330
261
100
AcDbEntity
  8
_U+5207_U+65AD_U+30D1_U+30B9
 62
     1
420
 16711680
370
     9
100
AcDbSpline
210
0.0
220
0.0
230
1.0
 70
    11
 71
     3
 72
    20
 73
    16
 74
     0
 42
0.0000000001
 43
0.0000000001
 12
1.0
 22
0.0
 32
0.0
 13
1.0
 23
0.0
 33
0.0
 40
0.0
 40
0.0
 40
0.0
 40
0.0
 40
1.0
 40
1.0
 40
1.0
 40
2.0
 40
2.0
 40
2.0
 40
3.0
 40
3.0
 40
3.0
 40
4.0
 40
4.0
 40
4.0
 40
5.0
 40
5.0
 40
5.0
 40
5.0
 10
-4.40231539779567
 20
-2.102057720149181
 30
0.0
 10
-4.402315383568596
 20
-2.078138180171891
 30
0.0
 10
-4.421705990422374
 20
-2.058747550251483
 30
0.0
 10
-4.445625530399891
 20
-2.05874753602441
 30
0.0
 10
-4.469545070377308
 20
-2.058747521797386
 30
0.0
 10
-4.48893570029779
 20
-2.078138128651138
 30
0.0
 10
-4.488935714524865
 20
-2.102057668628403
 30
0.0
 10
-4.488935728751963
 20
-2.125977208605996
 30
0.0
 10
-4.469545121898086
 20
-2.145367838526454
 30
0.0
 10
-4.445625581920694
 20
-2.145367852753503
 30
0.0
 10
-4.421706041943176
 20
-2.145367866980576
 30
0.0
 10
-4.402315412022769
 20
-2.125977260126799
 30
0.0
 10
-4.40231539779567
 20
-2.102057720149181
 30
0.0
 10
-4.40231539779567
 20
-2.102057720149181
 30
0.0
 10
-4.40231539779567
 20
-2.102057720149181
 30
0.0
 10
-4.40231539779567
 20
-2.102057720149181
 30
0.0
  0
ENDBLK
  5
264
330
261
100
AcDbEntity
  8
0
100
AcDbBlockEnd
  0
BLOCK
  5
268
330
266
100
AcDbEntity
  8
0
100
AcDbBlockBegin
  2
block 67
 70
     0
 10
0.0
 20
0.0
 30
0.0
  3
block 67
  1

  0
SPLINE
  5
26A
330
266
100
AcDbEntity
  8
_U+5207_U+65AD_U+30D1_U+30B9
 62
     1
420
 16711680
370
     9
100
AcDbSpline
210
0.0
220
0.0
230
1.0
 70
    11
 71
     3
 72
    20
 73
    16
 74
     0
 42
0.0000000001
 43
0.0000000001
 12
1.0
 22
0.0
 32
0.0
 13
1.0
 23
0.0
 33
0.0
 40
0.0
 40
0.0
 40
0.0
 40
0.0
 40
1.0
 40
1.0
 40
1.0
 40
2.0
 40
2.0
 40
2.0
 40
3.0
 40
3.0
 40
3.0
 40
4.0
 40
4.0
 40
4.0
 40
5.0
 40
5.0
 40
5.0
 40
5.0
 10
-4.973222229841364
 20
-2.436726786125114
 30
0.0
 10
-4.973222215614239
 20
-2.412807246147546
 30
0.0
 10
-4.992612822468169
 20
-2.393416616227442
 30
0.0
 10
-5.016532362445458
 20
-2.393416602000368
 30
0.0
 10
-5.040451902423026
 20
-2.393416587773294
 30
0.0
 10
-5.059842532343534
 20
-2.412807194626768
 30
0.0
 10
-5.059842546570608
 20
-2.436726734604336
 30
0.0
 10
-5.059842560797733
 20
-2.460646274582106
 30
0.0
 10
-5.04045195394383
 20
-2.480036904502513
 30
0.0
 10
-5.016532413966261
 20
-2.480036918729588
 30
0.0
 10
-4.992612873988946
 20
-2.480036932956662
 30
0.0
 10
-4.973222244068438
 20
-2.460646326102884
 30
0.0
 10
-4.973222229841364
 20
-2.436726786125114
 30
0.0
 10
-4.973222229841364
 20
-2.436726786125114
 30
0.0
 10
-4.973222229841364
 20
-2.436726786125114
 30
0.0
 10
-4.973222229841364
 20
-2.436726786125114
 30
0.0
  0
ENDBLK
  5
269
330
266
100
AcDbEntity
  8
0
100
AcDbBlockEnd
  0
ENDSEC
  0
SECTION
  2
ENTITIES
  0
SPLINE
  5
41
330
1F
100
AcDbEntity
  8
_U+5F6B_U+523B_U+30D1_U+30B9
 62
     7
420
 16777215
370
     9
100
AcDbSpline
210
0.0
220
0.0
230
1.0
 70
    11
 71
     3
 72
   107
 73
   103
 74
     0
 42
0.0000000001
 43
0.0000000001
 12
1.0
 22
0.0
 32
0.0
 13
1.0
 23
0.0
 33
0.0
 40
0.0
 40
0.0
 40
0.0
 40
0.0
 40
1.0
 40
1.0
 40
1.0
 40
2.0
 40
2.0
 40
2.0
 40
3.0
 40
3.0
 40
3.0
 40
4.0
 40
4.0
 40
4.0
 40
5.0
 40
5.0
 40
5.0
 40
6.0
 40
6.0
 40
6.0
 40
7.0
 40
7.0
 40
7.0
 40
8.0
 40
8.0
 40
8.0
 40
9.0
 40
9.0
 40
9.0
 40
10.0
 40
10.0
 40
10.0
 40
11.0
 40
11.0
 40
11.0
 40
12.0
 40
12.0
 40
12.0
 40
13.0
 40
13.0
 40
13.0
 40
14.0
 40
14.0
 40
14.0
 40
15.0
 40
15.0
 40
15.0
 40
16.0
 40
16.0
 40
16.0
 40
17.0
 40
17.0
 40
17.0
 40
18.0
 40
18.0
 40
18.0
 40
19.0
 40
19.0
 40
19.0
 40
20.0
 40
20.0
 40
20.0
 40
21.0
 40
21.0
 40
21.0
 40
22.0
 40
22.0
 40
22.0
 40
23.0
 40
23.0
 40
23.0
 40
24.0
 40
24.0
 40
24.0
 40
25.0
 40
25.0
 40
25.0
 40
26.0
 40
26.0
 40
26.0
 40
27.0
 40
27.0
 40
27.0
 40
28.0
 40
28.0
 40
28.0
 40
29.0
 40
29.0
 40
29.0
 40
30.0
 40
30.0
 40
30.0
 40
31.0
 40
31.0
 40
31.0
 40
32.0
 40
32.0
 40
32.0
 40
33.0
 40
33.0
 40
33.0
 40
34.0
 40
34.0
 40
34.0
 40
34.0
 10
-4.199756677486107
 20
1.713966614662594
 30
0.0
 10
-4.19919166535591
 20
1.68961022952711
 30
0.0
 10
-4.221954888687214
 20
1.61448973789369
 30
0.0
 10
-4.278990290248834
 20
1.61448973789369
 30
0.0
 10
-4.295279252993964
 20
1.61448973789369
 30
0.0
 10
-4.310846473475635
 20
1.62232389360252
 30
0.0
 10
-4.319620487549906
 20
1.635529974627262
 30
0.0
 10
-4.328250284352912
 20
1.648545135380825
 30
0.0
 10
-4.331580564015566
 20
1.664544670217487
 30
0.0
 10
-4.331580564015566
 20
1.682702087688767
 30
0.0
 10
-4.331450478005018
 20
1.722234129189751
 30
0.0
 10
-4.315581029583162
 20
1.774100048524082
 30
0.0
 10
-4.282451936457808
 20
1.832891611228433
 30
0.0
 10
-4.250175977690938
 20
1.889711508856964
 30
0.0
 10
-4.232322064565665
 20
1.939260956822358
 30
0.0
 10
-4.232611492878328
 20
1.976349314329582
 30
0.0
 10
-4.232611492878328
 20
1.995869007554019
 30
0.0
 10
-4.237085876964758
 20
2.011730880686198
 30
0.0
 10
-4.246294817158741
 20
2.025401405339102
 30
0.0
 10
-4.255663099654801
 20
2.03901054402306
 30
0.0
 10
-4.270360467897123
 20
2.050979763079845
 30
0.0
 10
-4.292818824675566
 20
2.060696247688535
 30
0.0
 10
-4.309252266803911
 20
2.06774701394809
 30
0.0
 10
-4.325093503801832
 20
2.070917925759987
 30
0.0
 10
-4.340066194644818
 20
2.070917925759987
 30
0.0
 10
-4.372486345134247
 20
2.070917925759987
 30
0.0
 10
-4.403443419830069
 20
2.056372324529977
 30
0.0
 10
-4.430969149476115
 20
2.030526219478336
 30
0.0
 10
-4.458640638145994
 20
2.004659739509306
 30
0.0
 10
-4.482402754859688
 20
1.967698855843663
 30
0.0
 10
-4.498981407134377
 20
1.925570057252243
 30
0.0
 10
-4.512071507860583
 20
1.892583849764959
 30
0.0
 10
-4.531676880224495
 20
1.823580796447863
 30
0.0
 10
-4.531676880224495
 20
1.752552267375879
 30
0.0
 10
-4.531676880224495
 20
1.723825984909404
 30
0.0
 10
-4.528201128303522
 20
1.694954465852864
 30
0.0
 10
-4.520716742008731
 20
1.667717903302673
 30
0.0
 10
-4.593172560160547
 20
1.769641076234166
 30
0.0
 10
-4.556307543093125
 20
1.90697611668131
 30
0.0
 10
-4.525899023863517
 20
1.970515296337529
 30
0.0
 10
-4.537425480293968
 20
1.975134917014126
 30
0.0
 10
-4.549255450783423
 20
1.977509900966071
 30
0.0
 10
-4.561331507852716
 20
1.977509900966071
 30
0.0
 10
-4.562056143162559
 20
1.977509900966071
 30
0.0
 10
-4.562794603306896
 20
1.977509900966071
 30
0.0
 10
-4.563358309352692
 20
1.977435976586573
 30
0.0
 10
-4.599645514662357
 20
1.97663247343702
 30
0.0
 10
-4.633657241821084
 20
1.954456988105221
 30
0.0
 10
-4.659591394797846
 20
1.91534837918074
 30
0.0
 10
-4.685380293350906
 20
1.876308731514933
 30
0.0
 10
-4.701799342106597
 20
1.821272195223577
 30
0.0
 10
-4.701655150383999
 20
1.760199914226127
 30
0.0
 10
-4.701655150383999
 20
1.757608120256565
 30
0.0
 10
-4.701655150383999
 20
1.755087899714403
 30
0.0
 10
-4.701655150383999
 20
1.75249610574479
 30
0.0
 10
-4.700800709941088
 20
1.70833399489172
 30
0.0
 10
-4.691272823926018
 20
1.667570054543653
 30
0.0
 10
-4.676142096865369
 20
1.633573460130947
 30
0.0
 10
-4.712022310408643
 20
1.674985509522306
 30
0.0
 10
-4.750625741724144
 20
1.747455403443711
 30
0.0
 10
-4.73204719760166
 20
1.851817036031156
 30
0.0
 10
-4.736797180853614
 20
1.852975271715624
 30
0.0
 10
-4.741402957035032
 20
1.853554389557783
 30
0.0
 10
-4.746021271627127
 20
1.853554389557783
 30
0.0
 10
-4.746021271627127
 20
1.853554389557783
 30
0.0
 10
-4.746324805651764
 20
1.853554389557783
 30
0.0
 10
-4.746324805651764
 20
1.853554389557783
 30
0.0
 10
-4.749192183438973
 20
1.853554389557783
 30
0.0
 10
-4.751928169131197
 20
1.853401316461031
 30
0.0
 10
-4.754810697497874
 20
1.852903959504955
 30
0.0
 10
-4.775546094122332
 20
1.849934445914363
 30
0.0
 10
-4.793849039079229
 20
1.836416994358286
 30
0.0
 10
-4.80812532569698
 20
1.813213654003776
 30
0.0
 10
-4.822068821998528
 20
1.790170895167244
 30
0.0
 10
-4.830728161858675
 20
1.758113313719251
 30
0.0
 10
-4.830728161858675
 20
1.722450939207344
 30
0.0
 10
-4.830728161858675
 20
1.711706304924797
 30
0.0
 10
-4.83000353333605
 20
1.700701759837885
 30
0.0
 10
-4.828411690489739
 20
1.68946476202834
 30
0.0
 10
-4.822663338578359
 20
1.649139374528179
 30
0.0
 10
-4.806807747710384
 20
1.613982193478983
 30
0.0
 10
-4.786636304379739
 20
1.589786456730078
 30
0.0
 10
-4.766495190146012
 20
1.565432683763447
 30
0.0
 10
-4.742705123225215
 20
1.552762124215279
 30
0.0
 10
-4.720376564796626
 20
1.552762124215279
 30
0.0
 10
-4.688825221678977
 20
1.552762124215279
 30
0.0
 10
-4.662023846465293
 20
1.571049919054682
 30
0.0
 10
-4.646341934256484
 20
1.58408252474856
 30
0.0
 10
-4.620408861493893
 20
1.551764510062614
 30
0.0
 10
-4.588437985077158
 20
1.533880034561359
 30
0.0
 10
-4.555438996938228
 20
1.533880034561359
 30
0.0
 10
-4.521439790356617
 20
1.533880034561359
 30
0.0
 10
-4.486428107114458
 20
1.553833347821031
 30
0.0
 10
-4.462231042116981
 20
1.572049829987842
 30
0.0
 10
-4.445522325995853
 20
1.55750945309564
 30
0.0
 10
-4.425206704911526
 20
1.54498671545169
 30
0.0
 10
-4.400142398275104
 20
1.535183506835993
 30
0.0
 10
-4.378959299635994
 20
1.526900580512372
 30
0.0
 10
-4.359106554878508
 20
1.523296048665316
 30
0.0
 10
-4.340515226476441
 20
1.523296048665316
 30
0.0
 10
-4.162167044769451
 20
1.523296048665316
 30
0.0
 10
-4.177863045177244
 20
1.690334614289668
 30
0.0
 10
-4.199756677486107
 20
1.713966614662594
 30
0.0
  0
HATCH
  5
42
330
1F
100
AcDbEntity
  8
_U+5F6B_U+523B_U+30D1_U+30B9
 62
     7
420
 16777215
100
AcDbHatch
 10
0.0
 20
0.0
 30
0.0
210
0.0
220
0.0
230
1.0
  2
SOLID
 70
     1
 71
     0
 91
        1
 92
        1
 93
        1
 72
     4
 94
        3
 73
     0
 74
     1
 95
      107
 96
      103
 40
0.0
 40
0.0
 40
0.0
 40
0.0
 40
1.0
 40
1.0
 40
1.0
 40
2.0
 40
2.0
 40
2.0
 40
3.0
 40
3.0
 40
3.0
 40
4.0
 40
4.0
 40
4.0
 40
5.0
 40
5.0
 40
5.0
 40
6.0
 40
6.0
 40
6.0
 40
7.0
 40
7.0
 40
7.0
 40
8.0
 40
8.0
 40
8.0
 40
9.0
 40
9.0
 40
9.0
 40
10.0
 40
10.0
 40
10.0
 40
11.0
 40
11.0
 40
11.0
 40
12.0
 40
12.0
 40
12.0
 40
13.0
 40
13.0
 40
13.0
 40
14.0
 40
14.0
 40
14.0
 40
15.0
 40
15.0
 40
15.0
 40
16.0
 40
16.0
 40
16.0
 40
17.0
 40
17.0
 40
17.0
 40
18.0
 40
18.0
 40
18.0
 40
19.0
 40
19.0
 40
19.0
 40
20.0
 40
20.0
 40
20.0
 40
21.0
 40
21.0
 40
21.0
 40
22.0
 40
22.0
 40
22.0
 40
23.0
 40
23.0
 40
23.0
 40
24.0
 40
24.0
 40
24.0
 40
25.0
 40
25.0
 40
25.0
 40
26.0
 40
26.0
 40
26.0
 40
27.0
 40
27.0
 40
27.0
 40
28.0
 40
28.0
 40
28.0
 40
29.0
 40
29.0
 40
29.0
 40
30.0
 40
30.0
 40
30.0
 40
31.0
 40
31.0
 40
31.0
 40
32.0
 40
32.0
 40
32.0
 40
33.0
 40
33.0
 40
33.0
 40
34.0
 40
34.0
 40
34.0
 40
34.0
 10
-4.199756677486107
 20
1.713966614662594
 10
-4.19919166535591
 20
1.68961022952711
 10
-4.221954888687214
 20
1.61448973789369
 10
-4.278990290248834
 20
1.61448973789369
 10
-4.295279252993964
 20
1.61448973789369
 10
-4.310846473475635
 20
1.62232389360252
 10
-4.319620487549906
 20
1.635529974627262
 10
-4.328250284352912
 20
1.648545135380825
 10
-4.331580564015566
 20
1.664544670217487
 10
-4.331580564015566
 20
1.682702087688767
 10
-4.331450478005018
 20
1.722234129189751
 10
-4.315581029583162
 20
1.774100048524082
 10
-4.282451936457808
 20
1.832891611228433
 10
-4.250175977690938
 20
1.889711508856964
 10
-4.232322064565665
 20
1.939260956822358
 10
-4.232611492878328
 20
1.976349314329582
 10
-4.232611492878328
 20
1.995869007554019
 10
-4.237085876964758
 20
2.011730880686198
 10
-4.246294817158741
 20
2.025401405339102
 10
-4.255663099654801
 20
2.03901054402306
 10
-4.270360467897123
 20
2.050979763079845
 10
-4.292818824675566
 20
2.060696247688535
 10
-4.309252266803911
 20
2.06774701394809
 10
-4.325093503801832
 20
2.070917925759987
 10
-4.340066194644818
 20
2.070917925759987
 10
-4.372486345134247
 20
2.070917925759987
 10
-4.403443419830069
 20
2.056372324529977
 10
-4.430969149476115
 20
2.030526219478336
 10
-4.458640638145994
 20
2.004659739509306
 10
-4.482402754859688
 20
1.967698855843663
 10
-4.498981407134377
 20
1.925570057252243
 10
-4.512071507860583
 20
1.892583849764959
 10
-4.531676880224495
 20
1.823580796447863
 10
-4.531676880224495
 20
1.752552267375879
 10
-4.531676880224495
 20
1.723825984909404
 10
-4.528201128303522
 20
1.694954465852864
 10
-4.520716742008731
 20
1.667717903302673
 10
-4.593172560160547
 20
1.769641076234166
 10
-4.556307543093125
 20
1.90697611668131
 10
-4.525899023863517
 20
1.970515296337529
 10
-4.537425480293968
 20
1.975134917014126
 10
-4.549255450783423
 20
1.977509900966071
 10
-4.561331507852716
 20
1.977509900966071
 10
-4.562056143162559
 20
1.977509900966071
 10
-4.562794603306896
 20
1.977509900966071
 10
-4.563358309352692
 20
1.977435976586573
 10
-4.599645514662357
 20
1.97663247343702
 10
-4.633657241821084
 20
1.954456988105221
 10
-4.659591394797846
 20
1.91534837918074
 10
-4.685380293350906
 20
1.876308731514933
 10
-4.701799342106597
 20
1.821272195223577
 10
-4.701655150383999
 20
1.760199914226127
 10
-4.701655150383999
 20
1.757608120256565
 10
-4.701655150383999
 20
1.755087899714403
 10
-4.701655150383999
 20
1.75249610574479
 10
-4.700800709941088
 20
1.70833399489172
 10
-4.691272823926018
 20
1.667570054543653
 10
-4.676142096865369
 20
1.633573460130947
 10
-4.712022310408643
 20
1.674985509522306
 10
-4.750625741724144
 20
1.747455403443711
 10
-4.73204719760166
 20
1.851817036031156
 10
-4.736797180853614
 20
1.852975271715624
 10
-4.741402957035032
 20
1.853554389557783
 10
-4.746021271627127
 20
1.853554389557783
 10
-4.746021271627127
 20
1.853554389557783
 10
-4.746324805651764
 20
1.853554389557783
 10
-4.746324805651764
 20
1.853554389557783
 10
-4.749192183438973
 20
1.853554389557783
 10
-4.751928169131197
 20
1.853401316461031
 10
-4.754810697497874
 20
1.852903959504955
 10
-4.775546094122332
 20
1.849934445914363
 10
-4.793849039079229
 20
1.836416994358286
 10
-4.80812532569698
 20
1.813213654003776
 10
-4.822068821998528
 20
1.790170895167244
 10
-4.830728161858675
 20
1.758113313719251
 10
-4.830728161858675
 20
1.722450939207344
 10
-4.830728161858675
 20
1.711706304924797
 10
-4.83000353333605
 20
1.700701759837885
 10
-4.828411690489739
 20
1.68946476202834
 10
-4.822663338578359
 20
1.649139374528179
 10
-4.806807747710384
 20
1.613982193478983
 10
-4.786636304379739
 20
1.589786456730078
 10
-4.766495190146012
 20
1.565432683763447
 10
-4.742705123225215
 20
1.552762124215279
 10
-4.720376564796626
 20
1.552762124215279
 10
-4.688825221678977
 20
1.552762124215279
 10
-4.662023846465293
 20
1.571049919054682
 10
-4.646341934256484
 20
1.58408252474856
 10
-4.620408861493893
 20
1.551764510062614
 10
-4.588437985077158
 20
1.533880034561359
 10
-4.555438996938228
 20
1.533880034561359
 10
-4.521439790356617
 20
1.533880034561359
 10
-4.486428107114458
 20
1.553833347821031
 10
-4.462231042116981
 20
1.572049829987842
 10
-4.445522325995853
 20
1.55750945309564
 10
-4.425206704911526
 20
1.54498671545169
 10
-4.400142398275104
 20
1.535183506835993
 10
-4.378959299635994
 20
1.526900580512372
 10
-4.359106554878508
 20
1.523296048665316
 10
-4.340515226476441
 20
1.523296048665316
 10
-4.162167044769451
 20
1.523296048665316
 10
-4.177863045177244
 20
1.690334614289668
 10
-4.199756677486107
 20
1.713966614662594
 97
        0
 97
        0
 75
     2
 76
     1
 98
        0
  0
SPLINE
  5
43
330
1F
100
AcDbEntity
  8
_U+5F6B_U+523B_U+30D1_U+30B9
 62
     7
420
 16777215
370
     9
100
AcDbSpline
210
0.0
220
0.0
230
1.0
 70
    11
 71
     3
 72
   107
 73
   103
 74
     0
 42
0.0000000001
 43
0.0000000001
 12
1.0
 22
0.0
 32
0.0
 13
1.0
 23
0.0
 33
0.0
 40
0.0
 40
0.0
 40
0.0
 40
0.0
 40
1.0
 40
1.0
 40
1.0
 40
2.0
 40
2.0
 40
2.0
 40
3.0
 40
3.0
 40
3.0
 40
4.0
 40
4.0
 40
4.0
 40
5.0
 40
5.0
 40
5.0
 40
6.0
 40
6.0
 40
6.0
 40
7.0
 40
7.0
 40
7.0
 40
8.0
 40
8.0
 40
8.0
 40
9.0
 40
9.0
 40
9.0
 40
10.0
 40
10.0
 40
10.0
 40
11.0
 40
11.0
 40
11.0
 40
12.0
 40
12.0
 40
12.0
 40
13.0
 40
13.0
 40
13.0
 40
14.0
 40
14.0
 40
14.0
 40
15.0
 40
15.0
 40
15.0
 40
16.0
 40
16.0
 40
16.0
 40
17.0
 40
17.0
 40
17.0
 40
18.0
 40
18.0
 40
18.0
 40
19.0
 40
19.0
 40
19.0
 40
20.0
 40
20.0
 40
20.0
 40
21.0
 40
21.0
 40
21.0
 40
22.0
 40
22.0
 40
22.0
 40
23.0
 40
23.0
 40
23.0
 40
24.0
 40
24.0
 40
24.0
 40
25.0
 40
25.0
 40
25.0
 40
26.0
 40
26.0
 40
26.0
 40
27.0
 40
27.0
 40
27.0
 40
28.0
 40
28.0
 40
28.0
 40
29.0
 40
29.0
 40
29.0
 40
30.0
 40
30.0
 40
30.0
 40
31.0
 40
31.0
 40
31.0
 40
32.0
 40
32.0
 40
32.0
 40
33.0
 40
33.0
 40
33.0
 40
34.0
 40
34.0
 40
34.0
 40
34.0
 10
5.330006185977203
 20
-2.141887908574467
 30
0.0
 10
5.330571198107387
 20
-2.166244293709951
 30
0.0
 10
5.307807974776097
 20
-2.241364785343371
 30
0.0
 10
5.250772573214463
 20
-2.241364785343371
 30
0.0
 10
5.234483610469346
 20
-2.241364785343371
 30
0.0
 10
5.218916389987649
 20
-2.233530629634541
 30
0.0
 10
5.210142375913392
 20
-2.220324548609799
 30
0.0
 10
5.201512579110386
 20
-2.207309387856236
 30
0.0
 10
5.198182299447732
 20
-2.191309853019574
 30
0.0
 10
5.198182299447732
 20
-2.173152435548293
 30
0.0
 10
5.198312385458292
 20
-2.13362039404731
 30
0.0
 10
5.214181833880148
 20
-2.081754474712978
 30
0.0
 10
5.247310927005501
 20
-2.022962912008627
 30
0.0
 10
5.279586885772359
 20
-1.966143014380097
 30
0.0
 10
5.297440798897646
 20
-1.916593566414702
 30
0.0
 10
5.29715137058497
 20
-1.879505208907479
 30
0.0
 10
5.29715137058497
 20
-1.859985515683042
 30
0.0
 10
5.292676986498539
 20
-1.844123642550863
 30
0.0
 10
5.283468046304557
 20
-1.830453117897958
 30
0.0
 10
5.274099763808509
 20
-1.816843979214001
 30
0.0
 10
5.259402395566162
 20
-1.804874760157215
 30
0.0
 10
5.236944038787745
 20
-1.795158275548526
 30
0.0
 10
5.220510596659399
 20
-1.788107509288971
 30
0.0
 10
5.204669359661466
 20
-1.784936597477074
 30
0.0
 10
5.189696668818467
 20
-1.784936597477074
 30
0.0
 10
5.15727651832905
 20
-1.784936597477074
 30
0.0
 10
5.126319443633242
 20
-1.799482198707084
 30
0.0
 10
5.098793713987182
 20
-1.825328303758725
 30
0.0
 10
5.071122225317291
 20
-1.851194783727755
 30
0.0
 10
5.047360108603597
 20
-1.888155667393398
 30
0.0
 10
5.030781456328921
 20
-1.930284465984818
 30
0.0
 10
5.017691355602715
 20
-1.963270673472102
 30
0.0
 10
4.998085983238803
 20
-2.032273726789198
 30
0.0
 10
4.998085983238803
 20
-2.103302255861182
 30
0.0
 10
4.998085983238803
 20
-2.132028538327657
 30
0.0
 10
5.001561735159763
 20
-2.160900057384197
 30
0.0
 10
5.009046121454554
 20
-2.188136619934387
 30
0.0
 10
4.936590303302737
 20
-2.086213447002895
 30
0.0
 10
4.973455320370173
 20
-1.948878406555751
 30
0.0
 10
5.003863839599792
 20
-1.885339226899532
 30
0.0
 10
4.992337383169343
 20
-1.880719606222935
 30
0.0
 10
4.980507412679875
 20
-1.87834462227099
 30
0.0
 10
4.968431355610593
 20
-1.87834462227099
 30
0.0
 10
4.967706720300738
 20
-1.87834462227099
 30
0.0
 10
4.966968260156388
 20
-1.87834462227099
 30
0.0
 10
4.966404554110593
 20
-1.878418546650487
 30
0.0
 10
4.930117348800953
 20
-1.879222049800041
 30
0.0
 10
4.896105621642215
 20
-1.90139753513184
 30
0.0
 10
4.870171468665451
 20
-1.940506144056321
 30
0.0
 10
4.844382570112379
 20
-1.979545791722128
 30
0.0
 10
4.827963521356701
 20
-2.034582328013483
 30
0.0
 10
4.828107713079286
 20
-2.095654609010934
 30
0.0
 10
4.828107713079286
 20
-2.098246402980496
 30
0.0
 10
4.828107713079286
 20
-2.100766623522658
 30
0.0
 10
4.828107713079286
 20
-2.103358417492271
 30
0.0
 10
4.828962153522196
 20
-2.14752052834534
 30
0.0
 10
4.838490039537292
 20
-2.188284468693408
 30
0.0
 10
4.853620766597942
 20
-2.222281063106114
 30
0.0
 10
4.817740553054642
 20
-2.180869013714755
 30
0.0
 10
4.779137121739141
 20
-2.10839911979335
 30
0.0
 10
4.797715665861637
 20
-2.004037487205904
 30
0.0
 10
4.792965682609671
 20
-2.002879251521436
 30
0.0
 10
4.788359906428266
 20
-2.002300133679278
 30
0.0
 10
4.783741591836184
 20
-2.002300133679278
 30
0.0
 10
4.783741591836184
 20
-2.002300133679278
 30
0.0
 10
4.783438057811534
 20
-2.002300133679278
 30
0.0
 10
4.783438057811534
 20
-2.002300133679278
 30
0.0
 10
4.780570680024336
 20
-2.002300133679278
 30
0.0
 10
4.777834694332088
 20
-2.002453206776029
 30
0.0
 10
4.774952165965411
 20
-2.002950563732106
 30
0.0
 10
4.754216769340979
 20
-2.005920077322697
 30
0.0
 10
4.735913824384069
 20
-2.019437528878774
 30
0.0
 10
4.72163753776633
 20
-2.042640869233284
 30
0.0
 10
4.70769404146477
 20
-2.065683628069817
 30
0.0
 10
4.699034701604634
 20
-2.09774120951781
 30
0.0
 10
4.699034701604634
 20
-2.133403584029717
 30
0.0
 10
4.699034701604634
 20
-2.144148218312264
 30
0.0
 10
4.699759330127259
 20
-2.155152763399176
 30
0.0
 10
4.70135117297357
 20
-2.166389761208721
 30
0.0
 10
4.707099524884951
 20
-2.206715148708882
 30
0.0
 10
4.722955115752913
 20
-2.241872329758078
 30
0.0
 10
4.743126559083572
 20
-2.266068066506982
 30
0.0
 10
4.763267673317285
 20
-2.290421839473614
 30
0.0
 10
4.787057740238096
 20
-2.303092399021782
 30
0.0
 10
4.809386298666671
 20
-2.303092399021782
 30
0.0
 10
4.84093764178432
 20
-2.303092399021782
 30
0.0
 10
4.867739016998004
 20
-2.284804604182379
 30
0.0
 10
4.8834209292068
 20
-2.271771998488501
 30
0.0
 10
4.909354001969405
 20
-2.304090013174446
 30
0.0
 10
4.941324878386139
 20
-2.321974488675702
 30
0.0
 10
4.974323866525083
 20
-2.321974488675702
 30
0.0
 10
5.008323073106667
 20
-2.321974488675702
 30
0.0
 10
5.043334756348839
 20
-2.30202117541603
 30
0.0
 10
5.067531821346316
 20
-2.283804693249218
 30
0.0
 10
5.084240537467445
 20
-2.298345070141421
 30
0.0
 10
5.104556158551784
 20
-2.310867807785371
 30
0.0
 10
5.129620465188205
 20
-2.320671016401068
 30
0.0
 10
5.15080356382729
 20
-2.328953942724688
 30
0.0
 10
5.17065630858479
 20
-2.332558474571745
 30
0.0
 10
5.189247636986844
 20
-2.332558474571745
 30
0.0
 10
5.367595818693846
 20
-2.332558474571745
 30
0.0
 10
5.351899818286054
 20
-2.165519908947393
 30
0.0
 10
5.330006185977203
 20
-2.141887908574467
 30
0.0
  0
HATCH
  5
44
330
1F
100
AcDbEntity
  8
_U+5F6B_U+523B_U+30D1_U+30B9
 62
     7
420
 16777215
100
AcDbHatch
 10
0.0
 20
0.0
 30
0.0
210
0.0
220
0.0
230
1.0
  2
SOLID
 70
     1
 71
     0
 91
        1
 92
        1
 93
        1
 72
     4
 94
        3
 73
     0
 74
     1
 95
      107
 96
      103
 40
0.0
 40
0.0
 40
0.0
 40
0.0
 40
1.0
 40
1.0
 40
1.0
 40
2.0
 40
2.0
 40
2.0
 40
3.0
 40
3.0
 40
3.0
 40
4.0
 40
4.0
 40
4.0
 40
5.0
 40
5.0
 40
5.0
 40
6.0
 40
6.0
 40
6.0
 40
7.0
 40
7.0
 40
7.0
 40
8.0
 40
8.0
 40
8.0
 40
9.0
 40
9.0
 40
9.0
 40
10.0
 40
10.0
 40
10.0
 40
11.0
 40
11.0
 40
11.0
 40
12.0
 40
12.0
 40
12.0
 40
13.0
 40
13.0
 40
13.0
 40
14.0
 40
14.0
 40
14.0
 40
15.0
 40
15.0
 40
15.0
 40
16.0
 40
16.0
 40
16.0
 40
17.0
 40
17.0
 40
17.0
 40
18.0
 40
18.0
 40
18.0
 40
19.0
 40
19.0
 40
19.0
 40
20.0
 40
20.0
 40
20.0
 40
21.0
 40
21.0
 40
21.0
 40
22.0
 40
22.0
 40
22.0
 40
23.0
 40
23.0
 40
23.0
 40
24.0
 40
24.0
 40
24.0
 40
25.0
 40
25.0
 40
25.0
 40
26.0
 40
26.0
 40
26.0
 40
27.0
 40
27.0
 40
27.0
 40
28.0
 40
28.0
 40
28.0
 40
29.0
 40
29.0
 40
29.0
 40
30.0
 40
30.0
 40
30.0
 40
31.0
 40
31.0
 40
31.0
 40
32.0
 40
32.0
 40
32.0
 40
33.0
 40
33.0
 40
33.0
 40
34.0
 40
34.0
 40
34.0
 40
34.0
 10
5.330006185977203
 20
-2.141887908574467
 10
5.330571198107387
 20
-2.166244293709951
 10
5.307807974776097
 20
-2.241364785343371
 10
5.250772573214463
 20
-2.241364785343371
 10
5.234483610469346
 20
-2.241364785343371
 10
5.218916389987649
 20
-2.233530629634541
 10
5.210142375913392
 20
-2.220324548609799
 10
5.201512579110386
 20
-2.207309387856236
 10
5.198182299447732
 20
-2.191309853019574
 10
5.198182299447732
 20
-2.173152435548293
 10
5.198312385458292
 20
-2.13362039404731
 10
5.214181833880148
 20
-2.081754474712978
 10
5.247310927005501
 20
-2.022962912008627
 10
5.279586885772359
 20
-1.966143014380097
 10
5.297440798897646
 20
-1.916593566414702
 10
5.29715137058497
 20
-1.879505208907479
 10
5.29715137058497
 20
-1.859985515683042
 10
5.292676986498539
 20
-1.844123642550863
 10
5.283468046304557
 20
-1.830453117897958
 10
5.274099763808509
 20
-1.816843979214001
 10
5.259402395566162
 20
-1.804874760157215
 10
5.236944038787745
 20
-1.795158275548526
 10
5.220510596659399
 20
-1.788107509288971
 10
5.204669359661466
 20
-1.784936597477074
 10
5.189696668818467
 20
-1.784936597477074
 10
5.15727651832905
 20
-1.784936597477074
 10
5.126319443633242
 20
-1.799482198707084
 10
5.098793713987182
 20
-1.825328303758725
 10
5.071122225317291
 20
-1.851194783727755
 10
5.047360108603597
 20
-1.888155667393398
 10
5.030781456328921
 20
-1.930284465984818
 10
5.017691355602715
 20
-1.963270673472102
 10
4.998085983238803
 20
-2.032273726789198
 10
4.998085983238803
 20
-2.103302255861182
 10
4.998085983238803
 20
-2.132028538327657
 10
5.001561735159763
 20
-2.160900057384197
 10
5.009046121454554
 20
-2.188136619934387
 10
4.936590303302737
 20
-2.086213447002895
 10
4.973455320370173
 20
-1.948878406555751
 10
5.003863839599792
 20
-1.885339226899532
 10
4.992337383169343
 20
-1.880719606222935
 10
4.980507412679875
 20
-1.87834462227099
 10
4.968431355610593
 20
-1.87834462227099
 10
4.967706720300738
 20
-1.87834462227099
 10
4.966968260156388
 20
-1.87834462227099
 10
4.966404554110593
 20
-1.878418546650487
 10
4.930117348800953
 20
-1.879222049800041
 10
4.896105621642215
 20
-1.90139753513184
 10
4.870171468665451
 20
-1.940506144056321
 10
4.844382570112379
 20
-1.979545791722128
 10
4.827963521356701
 20
-2.034582328013483
 10
4.828107713079286
 20
-2.095654609010934
 10
4.828107713079286
 20
-2.098246402980496
 10
4.828107713079286
 20
-2.100766623522658
 10
4.828107713079286
 20
-2.103358417492271
 10
4.828962153522196
 20
-2.14752052834534
 10
4.838490039537292
 20
-2.188284468693408
 10
4.853620766597942
 20
-2.222281063106114
 10
4.817740553054642
 20
-2.180869013714755
 10
4.779137121739141
 20
-2.10839911979335
 10
4.797715665861637
 20
-2.004037487205904
 10
4.792965682609671
 20
-2.002879251521436
 10
4.788359906428266
 20
-2.002300133679278
 10
4.783741591836184
 20
-2.002300133679278
 10
4.783741591836184
 20
-2.002300133679278
 10
4.783438057811534
 20
-2.002300133679278
 10
4.783438057811534
 20
-2.002300133679278
 10
4.780570680024336
 20
-2.002300133679278
 10
4.777834694332088
 20
-2.002453206776029
 10
4.774952165965411
 20
-2.002950563732106
 10
4.754216769340979
 20
-2.005920077322697
 10
4.735913824384069
 20
-2.019437528878774
 10
4.72163753776633
 20
-2.042640869233284
 10
4.70769404146477
 20
-2.065683628069817
 10
4.699034701604634
 20
-2.09774120951781
 10
4.699034701604634
 20
-2.133403584029717
 10
4.699034701604634
 20
-2.144148218312264
 10
4.699759330127259
 20
-2.155152763399176
 10
4.70135117297357
 20
-2.166389761208721
 10
4.707099524884951
 20
-2.206715148708882
 10
4.722955115752913
 20
-2.241872329758078
 10
4.743126559083572
 20
-2.266068066506982
 10
4.763267673317285
 20
-2.290421839473614
 10
4.787057740238096
 20
-2.303092399021782
 10
4.809386298666671
 20
-2.303092399021782
 10
4.84093764178432
 20
-2.303092399021782
 10
4.867739016998004
 20
-2.284804604182379
 10
4.8834209292068
 20
-2.271771998488501
 10
4.909354001969405
 20
-2.304090013174446
 10
4.941324878386139
 20
-2.321974488675702
 10
4.974323866525083
 20
-2.321974488675702
 10
5.008323073106667
 20
-2.321974488675702
 10
5.043334756348839
 20
-2.30202117541603
 10
5.067531821346316
 20
-2.283804693249218
 10
5.084240537467445
 20
-2.298345070141421
 10
5.104556158551784
 20
-2.310867807785371
 10
5.129620465188205
 20
-2.320671016401068
 10
5.15080356382729
 20
-2.328953942724688
 10
5.17065630858479
 20
-2.332558474571745
 10
5.189247636986844
 20
-2.332558474571745
 10
5.367595818693846
 20
-2.332558474571745
 10
5.351899818286054
 20
-2.165519908947393
 10
5.330006185977203
 20
-2.141887908574467
 97
        0
 97
        0
 75
     2
 76
     1
 98
        0
  0
SPLINE
  5
46
330
1F
100
AcDbEntity
  8
_U+5207_U+65AD_U+30D1_U+30B9
 62
     1
420
 16711680
370
     9
100
AcDbSpline
210
0.0
220
0.0
230
1.0
 70
    11
 71
     3
 72
   116
 73
   112
 74
     0
 42
0.0000000001
 43
0.0000000001
 12
1.0
 22
0.0
 32
0.0
 13
1.0
 23
0.0
 33
0.0
 40
0.0
 40
0.0
 40
0.0
 40
0.0
 40
1.0
 40
1.0
 40
1.0
 40
2.0
 40
2.0
 40
2.0
 40
3.0
 40
3.0
 40
3.0
 40
4.0
 40
4.0
 40
4.0
 40
5.0
 40
5.0
 40
5.0
 40
6.0
 40
6.0
 40
6.0
 40
7.0
 40
7.0
 40
7.0
 40
8.0
 40
8.0
 40
8.0
 40
9.0
 40
9.0
 40
9.0
 40
10.0
 40
10.0
 40
10.0
 40
11.0
 40
11.0
 40
11.0
 40
12.0
 40
12.0
 40
12.0
 40
13.0
 40
13.0
 40
13.0
 40
14.0
 40
14.0
 40
14.0
 40
15.0
 40
15.0
 40
15.0
 40
16.0
 40
16.0
 40
16.0
 40
17.0
 40
17.0
 40
17.0
 40
18.0
 40
18.0
 40
18.0
 40
19.0
 40
19.0
 40
19.0
 40
20.0
 40
20.0
 40
20.0
 40
21.0
 40
21.0
 40
21.0
 40
22.0
 40
22.0
 40
22.0
 40
23.0
 40
23.0
 40
23.0
 40
24.0
 40
24.0
 40
24.0
 40
25.0
 40
25.0
 40
25.0
 40
26.0
 40
26.0
 40
26.0
 40
27.0
 40
27.0
 40
27.0
 40
28.0
 40
28.0
 40
28.0
 40
29.0
 40
29.0
 40
29.0
 40
30.0
 40
30.0
 40
30.0
 40
31.0
 40
31.0
 40
31.0
 40
32.0
 40
32.0
 40
32.0
 40
33.0
 40
33.0
 40
33.0
 40
34.0
 40
34.0
 40
34.0
 40
35.0
 40
35.0
 40
35.0
 40
36.0
 40
36.0
 40
36.0
 40
37.0
 40
37.0
 40
37.0
 40
37.0
 10
-3.456595006072714
 20
1.439632516127606
 30
0.0
 10
-3.45137383871991
 20
1.439632516127606
 30
0.0
 10
-3.446366516788923
 20
1.437558415472722
 30
0.0
 10
-3.442674593948102
 20
1.433866492631953
 30
0.0
 10
-3.442814501138451
 20
1.434050501152241
 30
0.0
 10
-3.027430709550521
 20
0.8647885960155387
 30
0.0
 10
-3.027430709550521
 20
0.8647885960155387
 30
0.0
 10
-3.02354735656066
 20
0.8614600803871831
 30
0.0
 10
-3.018738683512614
 20
0.8593992205094056
 30
0.0
 10
-3.013650204616258
 20
0.8588826653294745
 30
0.0
 10
-3.013650204616258
 20
0.8588826653294745
 30
0.0
 10
-1.565072755806644
 20
0.6435528370014051
 30
0.0
 10
-1.565072755806644
 20
0.6435528370014051
 30
0.0
 10
-1.561324302600345
 20
0.6429125465591722
 30
0.0
 10
-1.557635265106152
 20
0.6419631519663905
 30
0.0
 10
-1.554043409935376
 20
0.6407143726737559
 30
0.0
 10
-1.554043409935376
 20
0.6407143726737559
 30
0.0
 10
-0.9733477719025055
 20
0.3064811314234753
 30
0.0
 10
-0.9733477719025055
 20
0.3064811314234753
 30
0.0
 10
-0.957863018839008
 20
0.295535962831309
 30
0.0
 10
-0.9364373340094971
 20
0.2992160231589069
 30
0.0
 10
-0.9254921654174318
 20
0.3147007762222023
 30
0.0
 10
-0.9252971342156241
 20
0.3149766979657013
 30
0.0
 10
-0.9251061867091468
 20
0.315255483666331
 30
0.0
 10
-0.9249193853043935
 20
0.3155370422095984
 30
0.0
 10
-0.9249193853043935
 20
0.3155370422095984
 30
0.0
 10
-0.4037664472450868
 20
1.222617786766275
 30
0.0
 10
-0.4037664472450868
 20
1.222617786766275
 30
0.0
 10
-0.3870091097413832
 20
1.24995622947381
 30
0.0
 10
-0.3773394525387124
 20
1.281044522197438
 30
0.0
 10
-0.3756339791874678
 20
1.31306467476654
 30
0.0
 10
-0.3756339791874678
 20
1.31306467476654
 30
0.0
 10
-0.3756361434892218
 20
3.634355272167138
 30
0.0
 10
-0.3756361434892218
 20
3.634355272167138
 30
0.0
 10
-0.3756361434892218
 20
3.645227790338797
 30
0.0
 10
-0.3844500609379287
 20
3.654041707787554
 30
0.0
 10
-0.3953225791094357
 20
3.654041707787554
 30
0.0
 10
-0.3953225791094357
 20
3.654041707787554
 30
0.0
 10
-1.172936786110515
 20
3.654041707787554
 30
0.0
 10
-1.172936786110515
 20
3.654041707787554
 30
0.0
 10
-1.183432892012156
 20
3.655626704802823
 30
0.0
 10
-1.191536145371022
 20
3.664097006374656
 30
0.0
 10
-1.192654909740213
 20
3.67465299145033
 30
0.0
 10
-1.192654909740213
 20
3.67465299145033
 30
0.0
 10
-1.192654909740213
 20
3.72325904808046
 30
0.0
 10
-1.192654909740213
 20
3.72325904808046
 30
0.0
 10
-1.192654909740213
 20
3.734131566251967
 30
0.0
 10
-1.20146882718892
 20
3.742945483700825
 30
0.0
 10
-1.212341345360477
 20
3.742945483700825
 30
0.0
 10
-1.212341345360477
 20
3.742945483700825
 30
0.0
 10
-1.921053027690606
 20
3.742945483700825
 30
0.0
 10
-1.921053027690606
 20
3.742945483700825
 30
0.0
 10
-1.931925545862214
 20
3.742945483700825
 30
0.0
 10
-1.940739463310971
 20
3.751759401149279
 30
0.0
 10
-1.940739463310832
 20
3.76263191932109
 30
0.0
 10
-1.940739463310832
 20
3.76263191932109
 30
0.0
 10
-1.940739463310832
 20
3.821691226181883
 30
0.0
 10
-1.940739463310832
 20
3.821691226181883
 30
0.0
 10
-1.940739463310832
 20
3.83256374435339
 30
0.0
 10
-1.949553380759527
 20
3.841377661802249
 30
0.0
 10
-1.960425898931185
 20
3.841377661802249
 30
0.0
 10
-1.960425898931185
 20
3.841377661802249
 30
0.0
 10
-2.669137581261364
 20
3.841377661802249
 30
0.0
 10
-2.669137581261364
 20
3.841377661802249
 30
0.0
 10
-2.680010099432984
 20
3.841377661802249
 30
0.0
 10
-2.688824016881578
 20
3.850191579250703
 30
0.0
 10
-2.688824016881578
 20
3.861064097422362
 30
0.0
 10
-2.688824016881578
 20
3.861064097422362
 30
0.0
 10
-2.688824016881578
 20
3.91028018647325
 30
0.0
 10
-2.688824016881578
 20
3.91028018647325
 30
0.0
 10
-2.688824016881578
 20
3.921152704644757
 30
0.0
 10
-2.697637934330297
 20
3.929966622093363
 30
0.0
 10
-2.708510452501943
 20
3.929966622093363
 30
0.0
 10
-2.708510452501943
 20
3.929966622093363
 30
0.0
 10
-3.377849263591543
 20
3.929966622093363
 30
0.0
 10
-3.377849263591543
 20
3.929966622093363
 30
0.0
 10
-3.388721781763151
 20
3.929966622093363
 30
0.0
 10
-3.397535699211807
 20
3.921152704644757
 30
0.0
 10
-3.397535699211807
 20
3.91028018647325
 30
0.0
 10
-3.397535699211807
 20
3.91028018647325
 30
0.0
 10
-3.397535699211807
 20
3.861064097422362
 30
0.0
 10
-3.397535699211807
 20
3.861064097422362
 30
0.0
 10
-3.397535699211807
 20
3.850191579250703
 30
0.0
 10
-3.406349616660464
 20
3.841377661802249
 30
0.0
 10
-3.417222134832122
 20
3.841377661802249
 30
0.0
 10
-3.417222134832122
 20
3.841377661802249
 30
0.0
 10
-4.1259338171622
 20
3.841377661802249
 30
0.0
 10
-4.1259338171622
 20
3.841377661802249
 30
0.0
 10
-4.136806335333909
 20
3.841377661802249
 30
0.0
 10
-4.145620252782566
 20
3.83256374435339
 30
0.0
 10
-4.145620252782566
 20
3.821691226181883
 30
0.0
 10
-4.145620252782566
 20
3.821691226181883
 30
0.0
 10
-4.145620252782566
 20
3.674042959029824
 30
0.0
 10
-4.145620252782566
 20
3.674042959029824
 30
0.0
 10
-4.145620252782566
 20
3.663170440858064
 30
0.0
 10
-4.154434170231235
 20
3.654356523409458
 30
0.0
 10
-4.165306688402741
 20
3.654356523409458
 30
0.0
 10
-4.165306688402741
 20
3.654356523409458
 30
0.0
 10
-4.893723342932654
 20
3.654356523409458
 30
0.0
 10
-4.893723342932654
 20
3.654356523409458
 30
0.0
 10
-4.904595861104263
 20
3.654356523409458
 30
0.0
 10
-4.913409778552932
 20
3.645542605960701
 30
0.0
 10
-4.913409778552932
 20
3.634670087789093
 30
0.0
 10
-4.913409778552932
 20
3.634670087789093
 30
0.0
 10
-4.913409778552932
 20
1.45931895174787
 30
0.0
 10
-4.913409778552932
 20
1.45931895174787
 30
0.0
 10
-4.913409778552932
 20
1.448446433576515
 30
0.0
 10
-4.904595861104263
 20
1.439632516127606
 30
0.0
 10
-4.893723342932654
 20
1.439632516127606
 30
0.0
 10
-4.893723342932654
 20
1.439632516127606
 30
0.0
 10
-3.456595006072714
 20
1.439632516127606
 30
0.0
 10
-3.456595006072714
 20
1.439632516127606
 30
0.0
  0
INSERT
  5
48
330
1F
100
AcDbEntity
  8
_U+5207_U+65AD_U+30D1_U+30B9
100
AcDbBlockReference
  2
block 2
 10
0.0
 20
0.0
 30
0.0
  0
INSERT
  5
4D
330
1F
100
AcDbEntity
  8
_U+5207_U+65AD_U+30D1_U+30B9
100
AcDbBlockReference
  2
block 3
 10
0.0
 20
0.0
 30
0.0
  0
INSERT
  5
52
330
1F
100
AcDbEntity
  8
_U+5207_U+65AD_U+30D1_U+30B9
100
AcDbBlockReference
  2
block 4
 10
0.0
 20
0.0
 30
0.0
  0
INSERT
  5
57
330
1F
100
AcDbEntity
  8
_U+5207_U+65AD_U+30D1_U+30B9
100
AcDbBlockReference
  2
block 5
 10
0.0
 20
0.0
 30
0.0
  0
INSERT
  5
5C
330
1F
100
AcDbEntity
  8
_U+5207_U+65AD_U+30D1_U+30B9
100
AcDbBlockReference
  2
block 6
 10
0.0
 20
0.0
 30
0.0
  0
INSERT
  5
61
330
1F
100
AcDbEntity
  8
_U+5207_U+65AD_U+30D1_U+30B9
100
AcDbBlockReference
  2
block 7
 10
0.0
 20
0.0
 30
0.0
  0
INSERT
  5
66
330
1F
100
AcDbEntity
  8
_U+5207_U+65AD_U+30D1_U+30B9
100
AcDbBlockReference
  2
block 8
 10
0.0
 20
0.0
 30
0.0
  0
INSERT
  5
6B
330
1F
100
AcDbEntity
  8
_U+5207_U+65AD_U+30D1_U+30B9
100
AcDbBlockReference
  2
block 9
 10
0.0
 20
0.0
 30
0.0
  0
INSERT
  5
70
330
1F
100
AcDbEntity
  8
_U+5207_U+65AD_U+30D1_U+30B9
100
AcDbBlockReference
  2
block 10
 10
0.0
 20
0.0
 30
0.0
  0
INSERT
  5
75
330
1F
100
AcDbEntity
  8
_U+5207_U+65AD_U+30D1_U+30B9
100
AcDbBlockReference
  2
block 11
 10
0.0
 20
0.0
 30
0.0
  0
INSERT
  5
7A
330
1F
100
AcDbEntity
  8
_U+5207_U+65AD_U+30D1_U+30B9
100
AcDbBlockReference
  2
block 12
 10
0.0
 20
0.0
 30
0.0
  0
INSERT
  5
7F
330
1F
100
AcDbEntity
  8
_U+5207_U+65AD_U+30D1_U+30B9
100
AcDbBlockReference
  2
block 13
 10
0.0
 20
0.0
 30
0.0
  0
INSERT
  5
8A
330
1F
100
AcDbEntity
  8
_U+5207_U+65AD_U+30D1_U+30B9
100
AcDbBlockReference
  2
block 14
 10
0.0
 20
0.0
 30
0.0
  0
INSERT
  5
95
330
1F
100
AcDbEntity
  8
_U+5207_U+65AD_U+30D1_U+30B9
100
AcDbBlockReference
  2
block 15
 10
0.0
 20
0.0
 30
0.0
  0
INSERT
  5
A0
330
1F
100
AcDbEntity
  8
_U+5207_U+65AD_U+30D1_U+30B9
100
AcDbBlockReference
  2
block 16
 10
0.0
 20
0.0
 30
0.0
  0
INSERT
  5
AB
330
1F
100
AcDbEntity
  8
_U+5207_U+65AD_U+30D1_U+30B9
100
AcDbBlockReference
  2
block 17
 10
0.0
 20
0.0
 30
0.0
  0
INSERT
  5
B6
330
1F
100
AcDbEntity
  8
_U+5207_U+65AD_U+30D1_U+30B9
100
AcDbBlockReference
  2
block 18
 10
0.0
 20
0.0
 30
0.0
  0
INSERT
  5
C1
330
1F
100
AcDbEntity
  8
_U+5207_U+65AD_U+30D1_U+30B9
100
AcDbBlockReference
  2
block 19
 10
0.0
 20
0.0
 30
0.0
  0
INSERT
  5
CC
330
1F
100
AcDbEntity
  8
_U+5207_U+65AD_U+30D1_U+30B9
100
AcDbBlockReference
  2
block 20
 10
0.0
 20
0.0
 30
0.0
  0
INSERT
  5
D7
330
1F
100
AcDbEntity
  8
_U+5207_U+65AD_U+30D1_U+30B9
100
AcDbBlockReference
  2
block 21
 10
0.0
 20
0.0
 30
0.0
  0
INSERT
  5
E2
330
1F
100
AcDbEntity
  8
_U+5207_U+65AD_U+30D1_U+30B9
100
AcDbBlockReference
  2
block 22
 10
0.0
 20
0.0
 30
0.0
  0
INSERT
  5
ED
330
1F
100
AcDbEntity
  8
_U+5207_U+65AD_U+30D1_U+30B9
100
AcDbBlockReference
  2
block 23
 10
0.0
 20
0.0
 30
0.0
  0
INSERT
  5
F8
330
1F
100
AcDbEntity
  8
_U+5207_U+65AD_U+30D1_U+30B9
100
AcDbBlockReference
  2
block 24
 10
0.0
 20
0.0
 30
0.0
  0
INSERT
  5
103
330
1F
100
AcDbEntity
  8
_U+5207_U+65AD_U+30D1_U+30B9
100
AcDbBlockReference
  2
block 25
 10
0.0
 20
0.0
 30
0.0
  0
INSERT
  5
10E
330
1F
100
AcDbEntity
  8
_U+5207_U+65AD_U+30D1_U+30B9
100
AcDbBlockReference
  2
block 26
 10
0.0
 20
0.0
 30
0.0
  0
INSERT
  5
119
330
1F
100
AcDbEntity
  8
_U+5207_U+65AD_U+30D1_U+30B9
100
AcDbBlockReference
  2
block 27
 10
0.0
 20
0.0
 30
0.0
  0
INSERT
  5
124
330
1F
100
AcDbEntity
  8
_U+5207_U+65AD_U+30D1_U+30B9
100
AcDbBlockReference
  2
block 28
 10
0.0
 20
0.0
 30
0.0
  0
INSERT
  5
12F
330
1F
100
AcDbEntity
  8
_U+5207_U+65AD_U+30D1_U+30B9
100
AcDbBlockReference
  2
block 29
 10
0.0
 20
0.0
 30
0.0
  0
INSERT
  5
13A
330
1F
100
AcDbEntity
  8
_U+5207_U+65AD_U+30D1_U+30B9
100
AcDbBlockReference
  2
block 30
 10
0.0
 20
0.0
 30
0.0
  0
INSERT
  5
145
330
1F
100
AcDbEntity
  8
_U+5207_U+65AD_U+30D1_U+30B9
100
AcDbBlockReference
  2
block 31
 10
0.0
 20
0.0
 30
0.0
  0
POLYLINE
  5
157
330
1F
100
AcDbEntity
  8
_U+5207_U+65AD_U+30D1_U+30B9
 62
     1
420
 16711680
370
     9
100
AcDb2dPolyline
 66
     1
 10
0.0
 20
0.0
 30
0.0
  0
VERTEX
  5
158
330
157
100
AcDbEntity
  8
_U+5207_U+65AD_U+30D1_U+30B9
 62
     1
420
 16711680
370
     9
100
AcDbVertex
100
AcDb2dVertex
 10
1.837973366121736
 20
2.161751373503749
 30
0.0
  0
VERTEX
  5
26E
330
157
100
AcDbEntity
  8
0
100
AcDbVertex
100
AcDb2dVertex
 10
1.837973366121736
 20
2.161751373503749
 30
0.0
  0
SEQEND
  5
159
330
157
100
AcDbEntity
  8
_U+5207_U+65AD_U+30D1_U+30B9
 62
     1
420
 16711680
370
     9
  0
SPLINE
  5
15A
330
1F
100
AcDbEntity
  8
_U+5207_U+65AD_U+30D1_U+30B9
 62
     1
420
 16711680
370
     9
100
AcDbSpline
210
0.0
220
0.0
230
1.0
 70
    11
 71
     3
 72
   116
 73
   112
 74
     0
 42
0.0000000001
 43
0.0000000001
 12
1.0
 22
0.0
 32
0.0
 13
1.0
 23
0.0
 33
0.0
 40
0.0
 40
0.0
 40
0.0
 40
0.0
 40
1.0
 40
1.0
 40
1.0
 40
2.0
 40
2.0
 40
2.0
 40
3.0
 40
3.0
 40
3.0
 40
4.0
 40
4.0
 40
4.0
 40
5.0
 40
5.0
 40
5.0
 40
6.0
 40
6.0
 40
6.0
 40
7.0
 40
7.0
 40
7.0
 40
8.0
 40
8.0
 40
8.0
 40
9.0
 40
9.0
 40
9.0
 40
10.0
 40
10.0
 40
10.0
 40
11.0
 40
11.0
 40
11.0
 40
12.0
 40
12.0
 40
12.0
 40
13.0
 40
13.0
 40
13.0
 40
14.0
 40
14.0
 40
14.0
 40
15.0
 40
15.0
 40
15.0
 40
16.0
 40
16.0
 40
16.0
 40
17.0
 40
17.0
 40
17.0
 40
18.0
 40
18.0
 40
18.0
 40
19.0
 40
19.0
 40
19.0
 40
20.0
 40
20.0
 40
20.0
 40
21.0
 40
21.0
 40
21.0
 40
22.0
 40
22.0
 40
22.0
 40
23.0
 40
23.0
 40
23.0
 40
24.0
 40
24.0
 40
24.0
 40
25.0
 40
25.0
 40
25.0
 40
26.0
 40
26.0
 40
26.0
 40
27.0
 40
27.0
 40
27.0
 40
28.0
 40
28.0
 40
28.0
 40
29.0
 40
29.0
 40
29.0
 40
30.0
 40
30.0
 40
30.0
 40
31.0
 40
31.0
 40
31.0
 40
32.0
 40
32.0
 40
32.0
 40
33.0
 40
33.0
 40
33.0
 40
34.0
 40
34.0
 40
34.0
 40
35.0
 40
35.0
 40
35.0
 40
36.0
 40
36.0
 40
36.0
 40
37.0
 40
37.0
 40
37.0
 40
37.0
 10
3.988668817425757
 20
-2.428093672439824
 30
0.0
 10
3.983447650072978
 20
-2.428093672439597
 30
0.0
 10
3.978440328141915
 20
-2.430167773094253
 30
0.0
 10
3.974748405300892
 20
-2.433859695934845
 30
0.0
 10
3.974888312491253
 20
-2.433675687414582
 30
0.0
 10
3.559504520877756
 20
-3.002937592532615
 30
0.0
 10
3.559504520877756
 20
-3.002937592532615
 30
0.0
 10
3.555621167887744
 20
-3.006266108160819
 30
0.0
 10
3.550812494839647
 20
-3.008326968038368
 30
0.0
 10
3.545724015943253
 20
-3.008843523218073
 30
0.0
 10
3.545724015943253
 20
-3.008843523218073
 30
0.0
 10
2.097146567123976
 20
-3.224173351481113
 30
0.0
 10
2.097146567123976
 20
-3.224173351481113
 30
0.0
 10
2.093398113917627
 20
-3.224813641923169
 30
0.0
 10
2.089709076423383
 20
-3.225763036515774
 30
0.0
 10
2.086117221252556
 20
-3.227011815808257
 30
0.0
 10
2.086117221252556
 20
-3.227011815808257
 30
0.0
 10
1.505421583204704
 20
-3.561245057032465
 30
0.0
 10
1.505421583204704
 20
-3.561245057032465
 30
0.0
 10
1.489936830140727
 20
-3.572190225623949
 30
0.0
 10
1.468511145311368
 20
-3.568510165295391
 30
0.0
 10
1.45756597672001
 20
-3.553025412231591
 30
0.0
 10
1.457370945518202
 20
-3.552749490488092
 30
0.0
 10
1.457179998011725
 20
-3.552470704787437
 30
0.0
 10
1.456993196606997
 20
-3.552189146244169
 30
0.0
 10
1.456993196606997
 20
-3.552189146244169
 30
0.0
 10
0.9358402585884151
 20
-2.645108401664098
 30
0.0
 10
0.9358402585884151
 20
-2.645108401664098
 30
0.0
 10
0.9190829210859495
 20
-2.617769958955806
 30
0.0
 10
0.9094132638846429
 20
-2.586681666231748
 30
0.0
 10
0.9077077905348636
 20
-2.554661513662571
 30
0.0
 10
0.9077077905348636
 20
-2.554661513662571
 30
0.0
 10
0.9077099549408305
 20
-0.2333709162619723
 30
0.0
 10
0.9077099549408305
 20
-0.2333709162619723
 30
0.0
 10
0.9077099549413106
 20
-0.2224983980903137
 30
0.0
 10
0.9165238723904218
 20
-0.2136844806419604
 30
0.0
 10
0.9273963905619287
 20
-0.2136844806424405
 30
0.0
 10
0.9273963905619287
 20
-0.2136844806424405
 30
0.0
 10
1.705010597563008
 20
-0.213684480677355
 30
0.0
 10
1.705010597563008
 20
-0.213684480677355
 30
0.0
 10
1.715506703464699
 20
-0.2120994836625414
 30
0.0
 10
1.72360995682397
 20
-0.2036291820910871
 30
0.0
 10
1.724728721193616
 20
-0.1930731970154637
 30
0.0
 10
1.724728721193616
 20
-0.1930731970154637
 30
0.0
 10
1.724728721195813
 20
-0.1444671403853337
 30
0.0
 10
1.724728721195813
 20
-0.1444671403853337
 30
0.0
 10
1.724728721196293
 20
-0.1335946222138268
 30
0.0
 10
1.733542638645405
 20
-0.1247807047653472
 30
0.0
 10
1.744415156816962
 20
-0.1247807047658524
 30
0.0
 10
1.744415156816962
 20
-0.1247807047658524
 30
0.0
 10
2.45312683914709
 20
-0.1247807047976595
 30
0.0
 10
2.45312683914709
 20
-0.1247807047976595
 30
0.0
 10
2.463999357318698
 20
-0.1247807047981647
 30
0.0
 10
2.47281327476786
 20
-0.1159667873500894
 30
0.0
 10
2.472813274768214
 20
-0.1050942691782792
 30
0.0
 10
2.472813274768214
 20
-0.1050942691782792
 30
0.0
 10
2.472813274770841
 20
-0.0460349623174857
 30
0.0
 10
2.472813274770841
 20
-0.0460349623174857
 30
0.0
 10
2.472813274771346
 20
-0.0351624441459788
 30
0.0
 10
2.481627192220407
 20
-0.0263485266975244
 30
0.0
 10
2.492499710392066
 20
-0.0263485266980044
 30
0.0
 10
2.492499710392066
 20
-0.0263485266980044
 30
0.0
 10
3.201211392722244
 20
-0.0263485267298367
 30
0.0
 10
3.201211392722244
 20
-0.0263485267298367
 30
0.0
 10
3.212083910893903
 20
-0.0263485267303167
 30
0.0
 10
3.220897828342863
 20
-0.0175346092822666
 30
0.0
 10
3.220897828343368
 20
-0.006662091110608
 30
0.0
 10
3.220897828343368
 20
-0.006662091110608
 30
0.0
 10
3.220897828345541
 20
0.0425539979402806
 30
0.0
 10
3.220897828345541
 20
0.0425539979402806
 30
0.0
 10
3.220897828346046
 20
0.0534265161117876
 30
0.0
 10
3.229711745795157
 20
0.0622404335600145
 30
0.0
 10
3.240584263966816
 20
0.0622404335595093
 30
0.0
 10
3.240584263966816
 20
0.0622404335595093
 30
0.0
 10
3.909923075056415
 20
0.0622404335294707
 30
0.0
 10
3.909923075056415
 20
0.0622404335294707
 30
0.0
 10
3.920795593228023
 20
0.0622404335289907
 30
0.0
 10
3.929609510676275
 20
0.0534265160799805
 30
0.0
 10
3.92960951067577
 20
0.0425539979084735
 30
0.0
 10
3.92960951067577
 20
0.0425539979084735
 30
0.0
 10
3.929609510673597
 20
-0.0066620911424151
 30
0.0
 10
3.929609510673597
 20
-0.0066620911424151
 30
0.0
 10
3.929609510673092
 20
-0.0175346093140737
 30
0.0
 10
3.938423428121344
 20
-0.0263485267629322
 30
0.0
 10
3.949295946293002
 20
-0.0263485267634122
 30
0.0
 10
3.949295946293002
 20
-0.0263485267634122
 30
0.0
 10
4.65800762862308
 20
-0.0263485267952445
 30
0.0
 10
4.65800762862308
 20
-0.0263485267952445
 30
0.0
 10
4.668880146794789
 20
-0.0263485267957246
 30
0.0
 10
4.677694064243042
 20
-0.0351624442449874
 30
0.0
 10
4.677694064242587
 20
-0.0460349624164943
 30
0.0
 10
4.677694064242587
 20
-0.0460349624164943
 30
0.0
 10
4.677694064235967
 20
-0.1936832295685538
 30
0.0
 10
4.677694064235967
 20
-0.1936832295685538
 30
0.0
 10
4.677694064235462
 20
-0.2045557477403135
 30
0.0
 10
4.686507981683715
 20
-0.2133696651892983
 30
0.0
 10
4.697380499855222
 20
-0.2133696651898036
 30
0.0
 10
4.697380499855222
 20
-0.2133696651898036
 30
0.0
 10
5.425797154385135
 20
-0.2133696652224949
 30
0.0
 10
5.425797154385135
 20
-0.2133696652224949
 30
0.0
 10
5.436669672556743
 20
-0.2133696652229749
 30
0.0
 10
5.445483590005046
 20
-0.2221835826721366
 30
0.0
 10
5.445483590004541
 20
-0.2330561008437447
 30
0.0
 10
5.445483590004541
 20
-0.2330561008437447
 30
0.0
 10
5.445483589906871
 20
-2.408407236884967
 30
0.0
 10
5.445483589906871
 20
-2.408407236884967
 30
0.0
 10
5.445483589906366
 20
-2.419279755056323
 30
0.0
 10
5.436669672457305
 20
-2.428093672504827
 30
0.0
 10
5.425797154285697
 20
-2.428093672504347
 30
0.0
 10
5.425797154285697
 20
-2.428093672504347
 30
0.0
 10
3.988668817425757
 20
-2.428093672439824
 30
0.0
 10
3.988668817425757
 20
-2.428093672439824
 30
0.0
  0
INSERT
  5
15C
330
1F
100
AcDbEntity
  8
_U+5207_U+65AD_U+30D1_U+30B9
100
AcDbBlockReference
  2
block 35
 10
0.0
 20
0.0
 30
0.0
  0
INSERT
  5
161
330
1F
100
AcDbEntity
  8
_U+5207_U+65AD_U+30D1_U+30B9
100
AcDbBlockReference
  2
block 36
 10
0.0
 20
0.0
 30
0.0
  0
INSERT
  5
166
330
1F
100
AcDbEntity
  8
_U+5207_U+65AD_U+30D1_U+30B9
100
AcDbBlockReference
  2
block 37
 10
0.0
 20
0.0
 30
0.0
  0
INSERT
  5
16B
330
1F
100
AcDbEntity
  8
_U+5207_U+65AD_U+30D1_U+30B9
100
AcDbBlockReference
  2
block 38
 10
0.0
 20
0.0
 30
0.0
  0
INSERT
  5
170
330
1F
100
AcDbEntity
  8
_U+5207_U+65AD_U+30D1_U+30B9
100
AcDbBlockReference
  2
block 39
 10
0.0
 20
0.0
 30
0.0
  0
INSERT
  5
175
330
1F
100
AcDbEntity
  8
_U+5207_U+65AD_U+30D1_U+30B9
100
AcDbBlockReference
  2
block 40
 10
0.0
 20
0.0
 30
0.0
  0
INSERT
  5
17A
330
1F
100
AcDbEntity
  8
_U+5207_U+65AD_U+30D1_U+30B9
100
AcDbBlockReference
  2
block 41
 10
0.0
 20
0.0
 30
0.0
  0
INSERT
  5
17F
330
1F
100
AcDbEntity
  8
_U+5207_U+65AD_U+30D1_U+30B9
100
AcDbBlockReference
  2
block 42
 10
0.0
 20
0.0
 30
0.0
  0
INSERT
  5
184
330
1F
100
AcDbEntity
  8
_U+5207_U+65AD_U+30D1_U+30B9
100
AcDbBlockReference
  2
block 43
 10
0.0
 20
0.0
 30
0.0
  0
INSERT
  5
189
330
1F
100
AcDbEntity
  8
_U+5207_U+65AD_U+30D1_U+30B9
100
AcDbBlockReference
  2
block 44
 10
0.0
 20
0.0
 30
0.0
  0
INSERT
  5
18E
330
1F
100
AcDbEntity
  8
_U+5207_U+65AD_U+30D1_U+30B9
100
AcDbBlockReference
  2
block 45
 10
0.0
 20
0.0
 30
0.0
  0
INSERT
  5
193
330
1F
100
AcDbEntity
  8
_U+5207_U+65AD_U+30D1_U+30B9
100
AcDbBlockReference
  2
block 46
 10
0.0
 20
0.0
 30
0.0
  0
INSERT
  5
19E
330
1F
100
AcDbEntity
  8
_U+5207_U+65AD_U+30D1_U+30B9
100
AcDbBlockReference
  2
block 47
 10
0.0
 20
0.0
 30
0.0
  0
INSERT
  5
1A9
330
1F
100
AcDbEntity
  8
_U+5207_U+65AD_U+30D1_U+30B9
100
AcDbBlockReference
  2
block 48
 10
0.0
 20
0.0
 30
0.0
  0
INSERT
  5
1B4
330
1F
100
AcDbEntity
  8
_U+5207_U+65AD_U+30D1_U+30B9
100
AcDbBlockReference
  2
block 49
 10
0.0
 20
0.0
 30
0.0
  0
INSERT
  5
1BF
330
1F
100
AcDbEntity
  8
_U+5207_U+65AD_U+30D1_U+30B9
100
AcDbBlockReference
  2
block 50
 10
0.0
 20
0.0
 30
0.0
  0
INSERT
  5
1CA
330
1F
100
AcDbEntity
  8
_U+5207_U+65AD_U+30D1_U+30B9
100
AcDbBlockReference
  2
block 51
 10
0.0
 20
0.0
 30
0.0
  0
INSERT
  5
1D5
330
1F
100
AcDbEntity
  8
_U+5207_U+65AD_U+30D1_U+30B9
100
AcDbBlockReference
  2
block 52
 10
0.0
 20
0.0
 30
0.0
  0
INSERT
  5
1E0
330
1F
100
AcDbEntity
  8
_U+5207_U+65AD_U+30D1_U+30B9
100
AcDbBlockReference
  2
block 53
 10
0.0
 20
0.0
 30
0.0
  0
INSERT
  5
1EB
330
1F
100
AcDbEntity
  8
_U+5207_U+65AD_U+30D1_U+30B9
100
AcDbBlockReference
  2
block 54
 10
0.0
 20
0.0
 30
0.0
  0
INSERT
  5
1F6
330
1F
100
AcDbEntity
  8
_U+5207_U+65AD_U+30D1_U+30B9
100
AcDbBlockReference
  2
block 55
 10
0.0
 20
0.0
 30
0.0
  0
INSERT
  5
201
330
1F
100
AcDbEntity
  8
_U+5207_U+65AD_U+30D1_U+30B9
100
AcDbBlockReference
  2
block 56
 10
0.0
 20
0.0
 30
0.0
  0
INSERT
  5
20C
330
1F
100
AcDbEntity
  8
_U+5207_U+65AD_U+30D1_U+30B9
100
AcDbBlockReference
  2
block 57
 10
0.0
 20
0.0
 30
0.0
  0
INSERT
  5
217
330
1F
100
AcDbEntity
  8
_U+5207_U+65AD_U+30D1_U+30B9
100
AcDbBlockReference
  2
block 58
 10
0.0
 20
0.0
 30
0.0
  0
INSERT
  5
222
330
1F
100
AcDbEntity
  8
_U+5207_U+65AD_U+30D1_U+30B9
100
AcDbBlockReference
  2
block 59
 10
0.0
 20
0.0
 30
0.0
  0
INSERT
  5
22D
330
1F
100
AcDbEntity
  8
_U+5207_U+65AD_U+30D1_U+30B9
100
AcDbBlockReference
  2
block 60
 10
0.0
 20
0.0
 30
0.0
  0
INSERT
  5
238
330
1F
100
AcDbEntity
  8
_U+5207_U+65AD_U+30D1_U+30B9
100
AcDbBlockReference
  2
block 61
 10
0.0
 20
0.0
 30
0.0
  0
INSERT
  5
243
330
1F
100
AcDbEntity
  8
_U+5207_U+65AD_U+30D1_U+30B9
100
AcDbBlockReference
  2
block 62
 10
0.0
 20
0.0
 30
0.0
  0
INSERT
  5
24E
330
1F
100
AcDbEntity
  8
_U+5207_U+65AD_U+30D1_U+30B9
100
AcDbBlockReference
  2
block 63
 10
0.0
 20
0.0
 30
0.0
  0
INSERT
  5
259
330
1F
100
AcDbEntity
  8
_U+5207_U+65AD_U+30D1_U+30B9
100
AcDbBlockReference
  2
block 64
 10
0.0
 20
0.0
 30
0.0
  0
POLYLINE
  5
26B
330
1F
100
AcDbEntity
  8
_U+5207_U+65AD_U+30D1_U+30B9
 62
     1
420
 16711680
370
     9
100
AcDb2dPolyline
 66
     1
 10
0.0
 20
0.0
 30
0.0
  0
VERTEX
  5
26C
330
26B
100
AcDbEntity
  8
_U+5207_U+65AD_U+30D1_U+30B9
 62
     1
420
 16711680
370
     9
100
AcDbVertex
100
AcDb2dVertex
 10
-1.305899554736243
 20
-1.705974814825974
 30
0.0
  0
VERTEX
  5
26F
330
26B
100
AcDbEntity
  8
0
100
AcDbVertex
100
AcDb2dVertex
 10
-1.305899554736243
 20
-1.705974814825974
 30
0.0
  0
SEQEND
  5
26D
330
26B
100
AcDbEntity
  8
_U+5207_U+65AD_U+30D1_U+30B9
 62
     1
420
 16711680
370
     9
  0
ENDSEC
  0
SECTION
  2
OBJECTS
  0
DICTIONARY
  5
C
330
0
100
AcDbDictionary
281
     1
  3
ACAD_GROUP
350
D
  3
ACAD_LAYOUT
350
1A
  3
ACAD_MATERIAL
350
3B
  3
ACAD_MLEADERSTYLE
350
271
  3
ACAD_MLINESTYLE
350
17
  3
ACAD_PLOTSETTINGS
350
19
  3
ACAD_PLOTSTYLENAME
350
E
  3
ACAD_TABLESTYLE
350
270
  3
ACAD_VISUALSTYLE
350
2A
  0
SUN
  5
3F
330
29
100
AcDbSun
 90
        1
290
     0
 63
     7
421
 16777215
 40
1.0
291
     1
 91
  2455826
 92
 54000000
292
     0
 70
     2
 71
   256
280
     1
  0
DICTIONARY
  5
D
102
{ACAD_REACTORS
330
C
102
}
330
C
100
AcDbDictionary
281
     1
  0
DICTIONARY
  5
1A
102
{ACAD_REACTORS
330
C
102
}
330
C
100
AcDbDictionary
281
     1
  3
Layout1
350
1E
  3
Layout2
350
26
  3
Model
350
22
  0
DICTIONARY
  5
3B
102
{ACAD_REACTORS
330
C
102
}
330
C
100
AcDbDictionary
281
     1
  3
ByBlock
350
3D
  3
ByLayer
350
3C
  3
Global
350
3E
  0
DICTIONARY
  5
271
102
{ACAD_REACTORS
330
C
102
}
330
C
100
AcDbDictionary
281
     1
  0
DICTIONARY
  5
17
102
{ACAD_REACTORS
330
C
102
}
330
C
100
AcDbDictionary
281
     1
  3
Standard
350
18
  0
DICTIONARY
  5
19
102
{ACAD_REACTORS
330
C
102
}
330
C
100
AcDbDictionary
281
     1
  0
ACDBDICTIONARYWDFLT
  5
E
102
{ACAD_REACTORS
330
C
102
}
330
C
100
AcDbDictionary
281
     1
  3
Normal
350
F
100
AcDbDictionaryWithDefault
340
F
  0
DICTIONARY
  5
270
102
{ACAD_REACTORS
330
C
102
}
330
C
100
AcDbDictionary
281
     1
  0
DICTIONARY
  5
2A
102
{ACAD_REACTORS
330
C
102
}
330
C
100
AcDbDictionary
281
     1
  3
2dWireframe
350
2F
  3
3D Hidden
350
31
  3
3dWireframe
350
30
  3
Basic
350
32
  3
Brighten
350
36
  3
ColorChange
350
3A
  3
Conceptual
350
34
  3
Dim
350
35
  3
Facepattern
350
39
  3
Flat
350
2B
  3
FlatWithEdges
350
2C
  3
Gouraud
350
2D
  3
GouraudWithEdges
350
2E
  3
Linepattern
350
38
  3
Realistic
350
33
  3
Thicken
350
37
  0
LAYOUT
  5
1E
102
{ACAD_REACTORS
330
1A
102
}
330
1A
100
AcDbPlotSettings
  1

  2
none_device
  4

  6

 40
0.0
 41
0.0
 42
0.0
 43
0.0
 44
0.0
 45
0.0
 46
0.0
 47
0.0
 48
0.0
 49
0.0
140
0.0
141
0.0
142
1.0
143
1.0
 70
   688
 72
     0
 73
     0
 74
     5
  7

 75
    16
 76
     0
 77
     2
 78
   300
147
1.0
148
0.0
149
0.0
100
AcDbLayout
  1
Layout1
 70
     1
 71
     1
 10
0.0
 20
0.0
 11
12.0
 21
9.0
 12
0.0
 22
0.0
 32
0.0
 14
1.000000000000000E+20
 24
1.000000000000000E+20
 34
1.000000000000000E+20
 15
-1.000000000000000E+20
 25
-1.000000000000000E+20
 35
-1.000000000000000E+20
146
0.0
 13
0.0
 23
0.0
 33
0.0
 16
1.0
 26
0.0
 36
0.0
 17
0.0
 27
1.0
 37
0.0
 76
     0
330
1B
  0
LAYOUT
  5
26
102
{ACAD_REACTORS
330
1A
102
}
330
1A
100
AcDbPlotSettings
  1

  2
none_device
  4

  6

 40
0.0
 41
0.0
 42
0.0
 43
0.0
 44
0.0
 45
0.0
 46
0.0
 47
0.0
 48
0.0
 49
0.0
140
0.0
141
0.0
142
1.0
143
1.0
 70
   688
 72
     0
 73
     0
 74
     5
  7

 75
    16
 76
     0
 77
     2
 78
   300
147
1.0
148
0.0
149
0.0
100
AcDbLayout
  1
Layout2
 70
     1
 71
     2
 10
0.0
 20
0.0
 11
0.0
 21
0.0
 12
0.0
 22
0.0
 32
0.0
 14
0.0
 24
0.0
 34
0.0
 15
0.0
 25
0.0
 35
0.0
146
0.0
 13
0.0
 23
0.0
 33
0.0
 16
1.0
 26
0.0
 36
0.0
 17
0.0
 27
1.0
 37
0.0
 76
     0
330
23
  0
LAYOUT
  5
22
102
{ACAD_REACTORS
330
1A
102
}
330
1A
100
AcDbPlotSettings
  1

  2
none_device
  4

  6

 40
0.0
 41
0.0
 42
0.0
 43
0.0
 44
0.0
 45
0.0
 46
0.0
 47
0.0
 48
0.0
 49
0.0
140
0.0
141
0.0
142
1.0
143
1.0
 70
  1712
 72
     0
 73
     0
 74
     0
  7

 75
     0
 76
     0
 77
     2
 78
   300
147
1.0
148
0.0
149
0.0
100
AcDbLayout
  1
Model
 70
     1
 71
     0
 10
0.0
 20
0.0
 11
12.0
 21
9.0
 12
0.0
 22
0.0
 32
0.0
 14
1.000000000000000E+20
 24
1.000000000000000E+20
 34
1.000000000000000E+20
 15
-1.000000000000000E+20
 25
-1.000000000000000E+20
 35
-1.000000000000000E+20
146
0.0
 13
0.0
 23
0.0
 33
0.0
 16
1.0
 26
0.0
 36
0.0
 17
0.0
 27
1.0
 37
0.0
 76
     0
330
1F
331
29
  0
MATERIAL
  5
3D
102
{ACAD_REACTORS
330
3B
102
}
330
3B
100
AcDbMaterial
  1
ByBlock
 72
     1
 94
      127
  0
MATERIAL
  5
3C
102
{ACAD_REACTORS
330
3B
102
}
330
3B
100
AcDbMaterial
  1
ByLayer
 72
     1
 94
      127
  0
MATERIAL
  5
3E
102
{ACAD_REACTORS
330
3B
102
}
330
3B
100
AcDbMaterial
  1
Global
 72
     1
 94
      127
  0
MLINESTYLE
  5
18
102
{ACAD_REACTORS
330
17
102
}
330
17
100
AcDbMlineStyle
  2
Standard
 70
     0
  3

 62
   256
 51
90.0
 52
90.0
 71
     2
 49
0.5
 62
   256
  6
BYLAYER
 49
-0.5
 62
   256
  6
BYLAYER
  0
ACDBPLACEHOLDER
  5
F
102
{ACAD_REACTORS
330
E
102
}
330
E
  0
VISUALSTYLE
  5
2F
102
{ACAD_REACTORS
330
2A
102
}
330
2A
100
AcDbVisualStyle
  2
2dWireframe
 70
     4
177
     2
291
     0
 71
     0
176
     1
 72
     2
176
     1
 73
     0
176
     1
 90
        0
176
     1
 40
-0.6
176
     1
 41
-30.0
176
     1
 62
     5
 63
     7
421
 16777215
176
     1
 74
     1
176
     1
 91
        4
176
     1
 64
     7
176
     1
 65
   257
176
     1
 75
     1
176
     1
175
     1
176
     1
 42
1.0
176
     1
 92
        0
176
     1
 66
   257
176
     1
 43
1.0
176
     1
 76
     1
176
     1
 77
     6
176
     1
 78
     2
176
     1
 67
     7
176
     1
 79
     5
176
     1
170
     0
176
     1
171
     0
176
     1
290
     0
176
     1
 93
        1
176
     1
 44
0.0
176
     1
173
     0
176
     1
  0
VISUALSTYLE
  5
31
102
{ACAD_REACTORS
330
2A
102
}
330
2A
100
AcDbVisualStyle
  2
3D Hidden
 70
     6
177
     2
291
     0
 71
     1
176
     1
 72
     2
176
     1
 73
     2
176
     1
 90
        0
176
     1
 40
-0.6
176
     1
 41
-30.0
176
     1
 62
     5
 63
     7
421
 16777215
176
     1
 74
     2
176
     1
 91
        2
176
     1
 64
     7
176
     1
 65
   257
176
     1
 75
     2
176
     1
175
     1
176
     1
 42
40.0
176
     1
 92
        0
176
     1
 66
   257
176
     1
 43
1.0
176
     1
 76
     1
176
     1
 77
     6
176
     1
 78
     2
176
     1
 67
     7
176
     1
 79
     3
176
     1
170
     0
176
     1
171
     0
176
     1
290
     0
176
     1
 93
        1
176
     1
 44
0.0
176
     1
173
     0
176
     1
  0
VISUALSTYLE
  5
30
102
{ACAD_REACTORS
330
2A
102
}
330
2A
100
AcDbVisualStyle
  2
3dWireframe
 70
     5
177
     2
291
     0
 71
     0
176
     1
 72
     2
176
     1
 73
     0
176
     1
 90
        0
176
     1
 40
-0.6
176
     1
 41
-30.0
176
     1
 62
     5
 63
     7
421
 16777215
176
     1
 74
     1
176
     1
 91
        4
176
     1
 64
     7
176
     1
 65
   257
176
     1
 75
     1
176
     1
175
     1
176
     1
 42
1.0
176
     1
 92
        0
176
     1
 66
   257
176
     1
 43
1.0
176
     1
 76
     1
176
     1
 77
     6
176
     1
 78
     2
176
     1
 67
     7
176
     1
 79
     5
176
     1
170
     0
176
     1
171
     0
176
     1
290
     0
176
     1
 93
        1
176
     1
 44
0.0
176
     1
173
     0
176
     1
  0
VISUALSTYLE
  5
32
102
{ACAD_REACTORS
330
2A
102
}
330
2A
100
AcDbVisualStyle
  2
Basic
 70
     7
177
     2
291
     1
 71
     1
176
     1
 72
     0
176
     1
 73
     1
176
     1
 90
        0
176
     1
 40
-0.6
176
     1
 41
-30.0
176
     1
 62
     5
 63
     7
421
 16777215
176
     1
 74
     0
176
     1
 91
        4
176
     1
 64
     7
176
     1
 65
   257
176
     1
 75
     1
176
     1
175
     1
176
     1
 42
1.0
176
     1
 92
        8
176
     1
 66
     7
176
     1
 43
1.0
176
     1
 76
     1
176
     1
 77
     6
176
     1
 78
     2
176
     1
 67
     7
176
     1
 79
     5
176
     1
170
     0
176
     1
171
     0
176
     1
290
     0
176
     1
 93
        1
176
     1
 44
0.0
176
     1
173
     0
176
     1
  0
VISUALSTYLE
  5
36
102
{ACAD_REACTORS
330
2A
102
}
330
2A
100
AcDbVisualStyle
  2
Brighten
 70
    12
177
     2
291
     1
 71
     2
176
     1
 72
     2
176
     1
 73
     0
176
     1
 90
        0
176
     1
 40
-0.6
176
     1
 41
-30.0
176
     1
 62
     5
 63
     7
421
 16777215
176
     1
 74
     1
176
     1
 91
        4
176
     1
 64
     7
176
     1
 65
   257
176
     1
 75
     1
176
     1
175
     1
176
     1
 42
1.0
176
     1
 92
        8
176
     1
 66
     7
176
     1
 43
1.0
176
     1
 76
     1
176
     1
 77
     6
176
     1
 78
     2
176
     1
 67
     7
176
     1
 79
     5
176
     1
170
     0
176
     1
171
     0
176
     1
290
     0
176
     1
 93
        1
176
     1
 44
50.0
176
     1
173
     0
176
     1
  0
VISUALSTYLE
  5
3A
102
{ACAD_REACTORS
330
2A
102
}
330
2A
100
AcDbVisualStyle
  2
ColorChange
 70
    16
177
     2
291
     1
 71
     2
176
     1
 72
     2
176
     1
 73
     3
176
     1
 90
        0
176
     1
 40
-0.6
176
     1
 41
-30.0
176
     1
 62
     5
 63
     8
421
  8421504
176
     1
 74
     1
176
     1
 91
        4
176
     1
 64
     7
176
     1
 65
   257
176
     1
 75
     1
176
     1
175
     1
176
     1
 42
1.0
176
     1
 92
        8
176
     1
 66
     8
424
  8421504
176
     1
 43
1.0
176
     1
 76
     1
176
     1
 77
     6
176
     1
 78
     2
176
     1
 67
     7
176
     1
 79
     5
176
     1
170
     0
176
     1
171
     0
176
     1
290
     0
176
     1
 93
        1
176
     1
 44
0.0
176
     1
173
     0
176
     1
  0
VISUALSTYLE
  5
34
102
{ACAD_REACTORS
330
2A
102
}
330
2A
100
AcDbVisualStyle
  2
Conceptual
 70
     9
177
     2
291
     0
 71
     3
176
     1
 72
     2
176
     1
 73
     0
176
     1
 90
        0
176
     1
 40
-0.6
176
     1
 41
-30.0
176
     1
 62
     5
 63
     7
421
 16777215
176
     1
 74
     2
176
     1
 91
        2
176
     1
 64
     7
176
     1
 65
   257
176
     1
 75
     1
176
     1
175
     1
176
     1
 42
40.0
176
     1
 92
        8
176
     1
 66
     7
176
     1
 43
1.0
176
     1
 76
     1
176
     1
 77
     6
176
     1
 78
     2
176
     1
 67
     7
176
     1
 79
     3
176
     1
170
     0
176
     1
171
     0
176
     1
290
     0
176
     1
 93
        1
176
     1
 44
0.0
176
     1
173
     0
176
     1
  0
VISUALSTYLE
  5
35
102
{ACAD_REACTORS
330
2A
102
}
330
2A
100
AcDbVisualStyle
  2
Dim
 70
    11
177
     2
291
     1
 71
     2
176
     1
 72
     2
176
     1
 73
     0
176
     1
 90
        0
176
     1
 40
-0.6
176
     1
 41
-30.0
176
     1
 62
     5
 63
     7
421
 16777215
176
     1
 74
     1
176
     1
 91
        4
176
     1
 64
     7
176
     1
 65
   257
176
     1
 75
     1
176
     1
175
     1
176
     1
 42
1.0
176
     1
 92
        8
176
     1
 66
     7
176
     1
 43
1.0
176
     1
 76
     1
176
     1
 77
     6
176
     1
 78
     2
176
     1
 67
     7
176
     1
 79
     5
176
     1
170
     0
176
     1
171
     0
176
     1
290
     0
176
     1
 93
        1
176
     1
 44
-50.0
176
     1
173
     0
176
     1
  0
VISUALSTYLE
  5
39
102
{ACAD_REACTORS
330
2A
102
}
330
2A
100
AcDbVisualStyle
  2
Facepattern
 70
    15
177
     2
291
     1
 71
     2
176
     1
 72
     2
176
     1
 73
     0
176
     1
 90
        0
176
     1
 40
-0.6
176
     1
 41
-30.0
176
     1
 62
     5
 63
     7
421
 16777215
176
     1
 74
     1
176
     1
 91
        4
176
     1
 64
     7
176
     1
 65
   257
176
     1
 75
     1
176
     1
175
     1
176
     1
 42
1.0
176
     1
 92
        8
176
     1
 66
     7
176
     1
 43
1.0
176
     1
 76
     1
176
     1
 77
     6
176
     1
 78
     2
176
     1
 67
     7
176
     1
 79
     5
176
     1
170
     0
176
     1
171
     0
176
     1
290
     0
176
     1
 93
        1
176
     1
 44
0.0
176
     1
173
     0
176
     1
  0
VISUALSTYLE
  5
2B
102
{ACAD_REACTORS
330
2A
102
}
330
2A
100
AcDbVisualStyle
  2
Flat
 70
     0
177
     2
291
     1
 71
     2
176
     1
 72
     1
176
     1
 73
     1
176
     1
 90
        2
176
     1
 40
-0.6
176
     1
 41
30.0
176
     1
 62
     5
 63
     7
421
 16777215
176
     1
 74
     0
176
     1
 91
        4
176
     1
 64
     7
176
     1
 65
   257
176
     1
 75
     1
176
     1
175
     1
176
     1
 42
1.0
176
     1
 92
        8
176
     1
 66
     7
176
     1
 43
1.0
176
     1
 76
     1
176
     1
 77
     6
176
     1
 78
     2
176
     1
 67
     7
176
     1
 79
     5
176
     1
170
     0
176
     1
171
     0
176
     1
290
     0
176
     1
 93
       13
176
     1
 44
0.0
176
     1
173
     0
176
     1
  0
VISUALSTYLE
  5
2C
102
{ACAD_REACTORS
330
2A
102
}
330
2A
100
AcDbVisualStyle
  2
FlatWithEdges
 70
     1
177
     2
291
     1
 71
     2
176
     1
 72
     1
176
     1
 73
     1
176
     1
 90
        2
176
     1
 40
-0.6
176
     1
 41
30.0
176
     1
 62
     5
 63
     7
421
 16777215
176
     1
 74
     1
176
     1
 91
        4
176
     1
 64
     7
176
     1
 65
   257
176
     1
 75
     1
176
     1
175
     1
176
     1
 42
1.0
176
     1
 92
        0
176
     1
 66
   257
176
     1
 43
1.0
176
     1
 76
     1
176
     1
 77
     6
176
     1
 78
     2
176
     1
 67
     7
176
     1
 79
     5
176
     1
170
     0
176
     1
171
     0
176
     1
290
     0
176
     1
 93
       13
176
     1
 44
0.0
176
     1
173
     0
176
     1
  0
VISUALSTYLE
  5
2D
102
{ACAD_REACTORS
330
2A
102
}
330
2A
100
AcDbVisualStyle
  2
Gouraud
 70
     2
177
     2
291
     1
 71
     2
176
     1
 72
     2
176
     1
 73
     1
176
     1
 90
        2
176
     1
 40
-0.6
176
     1
 41
30.0
176
     1
 62
     5
 63
     7
421
 16777215
176
     1
 74
     0
176
     1
 91
        4
176
     1
 64
     7
176
     1
 65
   257
176
     1
 75
     1
176
     1
175
     1
176
     1
 42
1.0
176
     1
 92
        0
176
     1
 66
     7
176
     1
 43
1.0
176
     1
 76
     1
176
     1
 77
     6
176
     1
 78
     2
176
     1
 67
     7
176
     1
 79
     5
176
     1
170
     0
176
     1
171
     0
176
     1
290
     0
176
     1
 93
       13
176
     1
 44
0.0
176
     1
173
     0
176
     1
  0
VISUALSTYLE
  5
2E
102
{ACAD_REACTORS
330
2A
102
}
330
2A
100
AcDbVisualStyle
  2
GouraudWithEdges
 70
     3
177
     2
291
     1
 71
     2
176
     1
 72
     2
176
     1
 73
     1
176
     1
 90
        2
176
     1
 40
-0.6
176
     1
 41
30.0
176
     1
 62
     5
 63
     7
421
 16777215
176
     1
 74
     1
176
     1
 91
        4
176
     1
 64
     7
176
     1
 65
   257
176
     1
 75
     1
176
     1
175
     1
176
     1
 42
1.0
176
     1
 92
        0
176
     1
 66
   257
176
     1
 43
1.0
176
     1
 76
     1
176
     1
 77
     6
176
     1
 78
     2
176
     1
 67
     7
176
     1
 79
     5
176
     1
170
     0
176
     1
171
     0
176
     1
290
     0
176
     1
 93
       13
176
     1
 44
0.0
176
     1
173
     0
176
     1
  0
VISUALSTYLE
  5
38
102
{ACAD_REACTORS
330
2A
102
}
330
2A
100
AcDbVisualStyle
  2
Linepattern
 70
    14
177
     2
291
     1
 71
     2
176
     1
 72
     2
176
     1
 73
     0
176
     1
 90
        0
176
     1
 40
-0.6
176
     1
 41
-30.0
176
     1
 62
     5
 63
     7
421
 16777215
176
     1
 74
     1
176
     1
 91
        4
176
     1
 64
     7
176
     1
 65
   257
176
     1
 75
     7
176
     1
175
     7
176
     1
 42
1.0
176
     1
 92
        8
176
     1
 66
     7
176
     1
 43
1.0
176
     1
 76
     1
176
     1
 77
     6
176
     1
 78
     2
176
     1
 67
     7
176
     1
 79
     5
176
     1
170
     0
176
     1
171
     0
176
     1
290
     0
176
     1
 93
        1
176
     1
 44
0.0
176
     1
173
     0
176
     1
  0
VISUALSTYLE
  5
33
102
{ACAD_REACTORS
330
2A
102
}
330
2A
100
AcDbVisualStyle
  2
Realistic
 70
     8
177
     2
291
     0
 71
     2
176
     1
 72
     2
176
     1
 73
     0
176
     1
 90
        0
176
     1
 40
-0.6
176
     1
 41
-30.0
176
     1
 62
     5
 63
     7
421
 16777215
176
     1
 74
     1
176
     1
 91
        0
176
     1
 64
     7
176
     1
 65
   257
176
     1
 75
     1
176
     1
175
     1
176
     1
 42
1.0
176
     1
 92
        8
176
     1
 66
     8
424
  7895160
176
     1
 43
1.0
176
     1
 76
     1
176
     1
 77
     6
176
     1
 78
     2
176
     1
 67
     7
176
     1
 79
     5
176
     1
170
     0
176
     1
171
     0
176
     1
290
     0
176
     1
 93
       13
176
     1
 44
0.0
176
     1
173
     0
176
     1
  0
VISUALSTYLE
  5
37
102
{ACAD_REACTORS
330
2A
102
}
330
2A
100
AcDbVisualStyle
  2
Thicken
 70
    13
177
     2
291
     1
 71
     2
176
     1
 72
     2
176
     1
 73
     0
176
     1
 90
        0
176
     1
 40
-0.6
176
     1
 41
-30.0
176
     1
 62
     5
 63
     7
421
 16777215
176
     1
 74
     1
176
     1
 91
        4
176
     1
 64
     7
176
     1
 65
   257
176
     1
 75
     1
176
     1
175
     1
176
     1
 42
1.0
176
     1
 92
       12
176
     1
 66
     7
176
     1
 43
1.0
176
     1
 76
     1
176
     1
 77
     6
176
     1
 78
     2
176
     1
 67
     7
176
     1
 79
     5
176
     1
170
     0
176
     1
171
     0
176
     1
290
     0
176
     1
 93
        1
176
     1
 44
0.0
176
     1
173
     0
176
     1
  0
ENDSEC
  0
EOF
