  0
SECTION
  2
HEADER
  9
$ACADVER
  1
AC1024
  9
$ACADMAINTVER
 70
     6
  9
$DWGCODEPAGE
  3
UNDEFINED
  9
$INSBASE
 10
0.0
 20
0.0
 30
0.0
  9
$EXTMIN
 10
1.000000000000000E+20
 20
1.000000000000000E+20
 30
1.000000000000000E+20
  9
$EXTMAX
 10
-1.000000000000000E+20
 20
-1.000000000000000E+20
 30
-1.000000000000000E+20
  9
$LIMMIN
 10
0.0
 20
0.0
  9
$LIMMAX
 10
12.0
 20
9.0
  9
$ORTHOMODE
 70
     0
  9
$REGENMODE
 70
     1
  9
$FILLMODE
 70
     1
  9
$QTEXTMODE
 70
     0
  9
$MIRRTEXT
 70
     1
  9
$LTSCALE
 40
1.0
  9
$ATTMODE
 70
     1
  9
$TEXTSIZE
 40
0.2
  9
$TRACEWID
 40
0.05
  9
$TEXTSTYLE
  7
Standard
  9
$CLAYER
  8
0
  9
$CELTYPE
  6
ByLayer
  9
$CECOLOR
 62
   256
  9
$CELTSCALE
 40
1.0
  9
$DISPSILH
 70
     0
  9
$DIMSCALE
 40
1.0
  9
$DIMASZ
 40
0.18
  9
$DIMEXO
 40
0.0625
  9
$DIMDLI
 40
0.38
  9
$DIMRND
 40
0.0
  9
$DIMDLE
 40
0.0
  9
$DIMEXE
 40
0.18
  9
$DIMTP
 40
0.0
  9
$DIMTM
 40
0.0
  9
$DIMTXT
 40
0.18
  9
$DIMCEN
 40
0.09
  9
$DIMTSZ
 40
0.0
  9
$DIMTOL
 70
     0
  9
$DIMLIM
 70
     0
  9
$DIMTIH
 70
     1
  9
$DIMTOH
 70
     1
  9
$DIMSE1
 70
     0
  9
$DIMSE2
 70
     0
  9
$DIMTAD
 70
     0
  9
$DIMZIN
 70
     0
  9
$DIMBLK
  1

  9
$DIMASO
 70
     1
  9
$DIMSHO
 70
     1
  9
$DIMPOST
  1

  9
$DIMAPOST
  1

  9
$DIMALT
 70
     0
  9
$DIMALTD
 70
     2
  9
$DIMALTF
 40
25.4
  9
$DIMLFAC
 40
1.0
  9
$DIMTOFL
 70
     0
  9
$DIMTVP
 40
0.0
  9
$DIMTIX
 70
     0
  9
$DIMSOXD
 70
     0
  9
$DIMSAH
 70
     0
  9
$DIMBLK1
  1

  9
$DIMBLK2
  1

  9
$DIMSTYLE
  2
Standard
  9
$DIMCLRD
 70
     0
  9
$DIMCLRE
 70
     0
  9
$DIMCLRT
 70
     0
  9
$DIMTFAC
 40
1.0
  9
$DIMGAP
 40
0.09
  9
$DIMJUST
 70
     0
  9
$DIMSD1
 70
     0
  9
$DIMSD2
 70
     0
  9
$DIMTOLJ
 70
     1
  9
$DIMTZIN
 70
     0
  9
$DIMALTZ
 70
     0
  9
$DIMALTTZ
 70
     0
  9
$DIMUPT
 70
     0
  9
$DIMDEC
 70
     4
  9
$DIMTDEC
 70
     4
  9
$DIMALTU
 70
     2
  9
$DIMALTTD
 70
     2
  9
$DIMTXSTY
  7
Standard
  9
$DIMAUNIT
 70
     0
  9
$DIMADEC
 70
     0
  9
$DIMALTRND
 40
0.0
  9
$DIMAZIN
 70
     0
  9
$DIMDSEP
 70
    46
  9
$DIMATFIT
 70
     3
  9
$DIMFRAC
 70
     0
  9
$DIMLDRBLK
  1

  9
$DIMLUNIT
 70
     2
  9
$DIMLWD
 70
    -2
  9
$DIMLWE
 70
    -2
  9
$DIMTMOVE
 70
     0
  9
$DIMFXL
 40
1.0
  9
$DIMFXLON
 70
     0
  9
$DIMJOGANG
 40
0.7853981633974483
  9
$DIMTFILL
 70
     0
  9
$DIMTFILLCLR
 70
     0
  9
$DIMARCSYM
 70
     0
  9
$DIMLTYPE
  6

  9
$DIMLTEX1
  6

  9
$DIMLTEX2
  6

  9
$DIMTXTDIRECTION
 70
     0
  9
$LUNITS
 70
     2
  9
$LUPREC
 70
     4
  9
$SKETCHINC
 40
0.1
  9
$FILLETRAD
 40
0.5
  9
$AUNITS
 70
     0
  9
$AUPREC
 70
     0
  9
$MENU
  1
.
  9
$ELEVATION
 40
0.0
  9
$PELEVATION
 40
0.0
  9
$THICKNESS
 40
0.0
  9
$LIMCHECK
 70
     0
  9
$CHAMFERA
 40
0.5
  9
$CHAMFERB
 40
0.5
  9
$CHAMFERC
 40
1.0
  9
$CHAMFERD
 40
0.0
  9
$SKPOLY
 70
     0
  9
$TDCREATE
 40
2458988.870555544
  9
$TDUCREATE
 40
2458989.203888889
  9
$TDUPDATE
 40
2458988.870555544
  9
$TDUUPDATE
 40
2458989.203888889
  9
$TDINDWG
 40
0.0000000116
  9
$TDUSRTIMER
 40
0.0000000116
  9
$USRTIMER
 70
     1
  9
$ANGBASE
 50
0.0
  9
$ANGDIR
 70
     0
  9
$PDMODE
 70
     0
  9
$PDSIZE
 40
0.0
  9
$PLINEWID
 40
0.0
  9
$SPLFRAME
 70
     0
  9
$SPLINETYPE
 70
     6
  9
$SPLINESEGS
 70
     8
  9
$HANDSEED
  5
3E9
  9
$SURFTAB1
 70
     6
  9
$SURFTAB2
 70
     6
  9
$SURFTYPE
 70
     6
  9
$SURFU
 70
     6
  9
$SURFV
 70
     6
  9
$UCSBASE
  2

  9
$UCSNAME
  2

  9
$UCSORG
 10
0.0
 20
0.0
 30
0.0
  9
$UCSXDIR
 10
1.0
 20
0.0
 30
0.0
  9
$UCSYDIR
 10
0.0
 20
1.0
 30
0.0
  9
$UCSORTHOREF
  2

  9
$UCSORTHOVIEW
 70
     0
  9
$UCSORGTOP
 10
0.0
 20
0.0
 30
0.0
  9
$UCSORGBOTTOM
 10
0.0
 20
0.0
 30
0.0
  9
$UCSORGLEFT
 10
0.0
 20
0.0
 30
0.0
  9
$UCSORGRIGHT
 10
0.0
 20
0.0
 30
0.0
  9
$UCSORGFRONT
 10
0.0
 20
0.0
 30
0.0
  9
$UCSORGBACK
 10
0.0
 20
0.0
 30
0.0
  9
$PUCSBASE
  2

  9
$PUCSNAME
  2

  9
$PUCSORG
 10
0.0
 20
0.0
 30
0.0
  9
$PUCSXDIR
 10
1.0
 20
0.0
 30
0.0
  9
$PUCSYDIR
 10
0.0
 20
1.0
 30
0.0
  9
$PUCSORTHOREF
  2

  9
$PUCSORTHOVIEW
 70
     0
  9
$PUCSORGTOP
 10
0.0
 20
0.0
 30
0.0
  9
$PUCSORGBOTTOM
 10
0.0
 20
0.0
 30
0.0
  9
$PUCSORGLEFT
 10
0.0
 20
0.0
 30
0.0
  9
$PUCSORGRIGHT
 10
0.0
 20
0.0
 30
0.0
  9
$PUCSORGFRONT
 10
0.0
 20
0.0
 30
0.0
  9
$PUCSORGBACK
 10
0.0
 20
0.0
 30
0.0
  9
$USERI1
 70
     0
  9
$USERI2
 70
     0
  9
$USERI3
 70
     0
  9
$USERI4
 70
     0
  9
$USERI5
 70
     0
  9
$USERR1
 40
0.0
  9
$USERR2
 40
0.0
  9
$USERR3
 40
0.0
  9
$USERR4
 40
0.0
  9
$USERR5
 40
0.0
  9
$WORLDVIEW
 70
     1
  9
$SHADEDGE
 70
     3
  9
$SHADEDIF
 70
    70
  9
$TILEMODE
 70
     1
  9
$MAXACTVP
 70
    64
  9
$PINSBASE
 10
0.0
 20
0.0
 30
0.0
  9
$PLIMCHECK
 70
     0
  9
$PEXTMIN
 10
1.000000000000000E+20
 20
1.000000000000000E+20
 30
1.000000000000000E+20
  9
$PEXTMAX
 10
-1.000000000000000E+20
 20
-1.000000000000000E+20
 30
-1.000000000000000E+20
  9
$PLIMMIN
 10
0.0
 20
0.0
  9
$PLIMMAX
 10
12.0
 20
9.0
  9
$UNITMODE
 70
     0
  9
$VISRETAIN
 70
     1
  9
$PLINEGEN
 70
     0
  9
$PSLTSCALE
 70
     1
  9
$TREEDEPTH
 70
  3020
  9
$CMLSTYLE
  2
Standard
  9
$CMLJUST
 70
     0
  9
$CMLSCALE
 40
1.0
  9
$PROXYGRAPHICS
 70
     1
  9
$MEASUREMENT
 70
     0
  9
$CELWEIGHT
370
    -1
  9
$ENDCAPS
280
     0
  9
$JOINSTYLE
280
     0
  9
$LWDISPLAY
290
     1
  9
$INSUNITS
 70
     4
  9
$HYPERLINKBASE
  1

  9
$STYLESHEET
  1

  9
$XEDIT
290
     1
  9
$CEPSNTYPE
380
     0
  9
$PSTYLEMODE
290
     1
  9
$FINGERPRINTGUID
  2
{29551436-37BB-A16D-CDD9-1AF880B13D8B}
  9
$VERSIONGUID
  2
{FAEB1C32-E019-11D5-929B-00C0DF256EC4}
  9
$EXTNAMES
290
     1
  9
$PSVPSCALE
 40
0.0
  9
$OLESTARTUP
290
     0
  9
$SORTENTS
280
   127
  9
$INDEXCTL
280
     0
  9
$HIDETEXT
280
     1
  9
$XCLIPFRAME
280
     2
  9
$HALOGAP
280
     0
  9
$OBSCOLOR
 70
   257
  9
$OBSLTYPE
280
     0
  9
$INTERSECTIONDISPLAY
280
     0
  9
$INTERSECTIONCOLOR
 70
   257
  9
$DIMASSOC
280
     2
  9
$PROJECTNAME
  1

  9
$CAMERADISPLAY
290
     0
  9
$LENSLENGTH
 40
50.0
  9
$CAMERAHEIGHT
 40
0.0
  9
$STEPSPERSEC
 40
2.0
  9
$STEPSIZE
 40
6.0
  9
$3DDWFPREC
 40
2.0
  9
$PSOLWIDTH
 40
0.25
  9
$PSOLHEIGHT
 40
4.0
  9
$LOFTANG1
 40
1.570796326794897
  9
$LOFTANG2
 40
1.570796326794897
  9
$LOFTMAG1
 40
0.0
  9
$LOFTMAG2
 40
0.0
  9
$LOFTPARAM
 70
     7
  9
$LOFTNORMALS
280
     1
  9
$LATITUDE
 40
37.795
  9
$LONGITUDE
 40
-122.394
  9
$NORTHDIRECTION
 40
0.0
  9
$TIMEZONE
 70
 -8000
  9
$LIGHTGLYPHDISPLAY
280
     1
  9
$TILEMODELIGHTSYNCH
280
     1
  9
$CMATERIAL
347
3C
  9
$SOLIDHIST
280
     1
  9
$SHOWHIST
280
     1
  9
$DWFFRAME
280
     2
  9
$DGNFRAME
280
     2
  9
$REALWORLDSCALE
290
     1
  9
$INTERFERECOLOR
 62
   256
  9
$CSHADOW
280
     0
  9
$SHADOWPLANELOCATION
 40
0.0
  0
ENDSEC
  0
SECTION
  2
CLASSES
  0
CLASS
  1
ACDBDICTIONARYWDFLT
  2
AcDbDictionaryWithDefault
  3
ObjectDBX Classes
 90
        0
 91
        4
280
     0
281
     0
  0
CLASS
  1
VISUALSTYLE
  2
AcDbVisualStyle
  3
ObjectDBX Classes
 90
     4095
 91
        4
280
     0
281
     0
  0
CLASS
  1
MATERIAL
  2
AcDbMaterial
  3
ObjectDBX Classes
 90
     1153
 91
        4
280
     0
281
     0
  0
CLASS
  1
SUN
  2
AcDbSun
  3
SCENEOE
 90
     1024
 91
        4
280
     0
281
     0
  0
ENDSEC
  0
SECTION
  2
TABLES
  0
TABLE
  2
VPORT
  5
8
330
0
100
AcDbSymbolTable
 70
     1
  0
VPORT
  5
29
330
8
100
AcDbSymbolTableRecord
100
AcDbViewportTableRecord
  2
*Active
 70
     0
 10
0.0
 20
0.0
 11
1.0
 21
1.0
 12
0.0
 22
0.0
 13
0.0
 23
0.0
 14
0.5
 24
0.5
 15
0.5
 25
0.5
 16
0.0
 26
0.0
 36
1.0
 17
227.054109835423
 27
136.4994791054559
 37
0.0
 40
201.822502622146
 41
1.289321242528744
 42
50.0
 43
0.0
 44
0.0
 50
0.0
 51
0.0
 71
     0
 72
   100
 73
     1
 74
     3
 75
     0
 76
     0
 77
     0
 78
     0
281
     0
 65
     1
110
0.0
120
0.0
130
0.0
111
1.0
121
0.0
131
0.0
112
0.0
122
1.0
132
0.0
 79
     0
146
0.0
 60
     3
 61
     5
292
     1
282
     1
141
0.0
142
0.0
 63
   250
361
3F
  0
ENDTAB
  0
TABLE
  2
LTYPE
  5
5
330
0
100
AcDbSymbolTable
 70
     1
  0
LTYPE
  5
14
330
5
100
AcDbSymbolTableRecord
100
AcDbLinetypeTableRecord
  2
ByBlock
 70
     0
  3

 72
    65
 73
     0
 40
0.0
  0
LTYPE
  5
15
330
5
100
AcDbSymbolTableRecord
100
AcDbLinetypeTableRecord
  2
ByLayer
 70
     0
  3

 72
    65
 73
     0
 40
0.0
  0
LTYPE
  5
16
330
5
100
AcDbSymbolTableRecord
100
AcDbLinetypeTableRecord
  2
Continuous
 70
     0
  3
Solid line
 72
    65
 73
     0
 40
0.0
  0
ENDTAB
  0
TABLE
  2
LAYER
  5
2
330
0
100
AcDbSymbolTable
 70
     2
  0
LAYER
  5
10
330
2
100
AcDbSymbolTableRecord
100
AcDbLayerTableRecord
  2
0
 70
     0
 62
     7
  6
Continuous
370
    -3
390
F
347
3E
  0
LAYER
  5
40
330
2
100
AcDbSymbolTableRecord
100
AcDbLayerTableRecord
  2
_U+5207_U+65AD_U+30D1_U+30B9
 70
     0
 62
     7
  6
Continuous
370
    -3
390
F
347
3E
  0
ENDTAB
  0
TABLE
  2
STYLE
  5
3
330
0
100
AcDbSymbolTable
 70
     1
  0
STYLE
  5
11
330
3
100
AcDbSymbolTableRecord
100
AcDbTextStyleTableRecord
  2
Standard
 70
     0
 40
0.0
 41
1.0
 50
0.0
 71
     0
 42
0.2
  3
txt
  4

  0
ENDTAB
  0
TABLE
  2
VIEW
  5
6
330
0
100
AcDbSymbolTable
 70
     0
  0
ENDTAB
  0
TABLE
  2
UCS
  5
7
330
0
100
AcDbSymbolTable
 70
     0
  0
ENDTAB
  0
TABLE
  2
APPID
  5
9
330
0
100
AcDbSymbolTable
 70
     1
  0
APPID
  5
12
330
9
100
AcDbSymbolTableRecord
100
AcDbRegAppTableRecord
  2
ACAD
 70
     0
  0
ENDTAB
  0
TABLE
  2
DIMSTYLE
  5
A
330
0
100
AcDbSymbolTable
 70
     1
100
AcDbDimStyleTable
  0
DIMSTYLE
105
27
330
A
100
AcDbSymbolTableRecord
100
AcDbDimStyleTableRecord
  2
Standard
 70
     0
178
     0
340
11
  0
ENDTAB
  0
TABLE
  2
BLOCK_RECORD
  5
1
330
0
100
AcDbSymbolTable
 70
   146
  0
BLOCK_RECORD
  5
1F
330
1
100
AcDbSymbolTableRecord
100
AcDbBlockTableRecord
  2
*Model_Space
340
22
 70
     0
280
     1
281
     0
  0
BLOCK_RECORD
  5
1B
330
1
100
AcDbSymbolTableRecord
100
AcDbBlockTableRecord
  2
*Paper_Space
340
1E
 70
     0
280
     1
281
     0
  0
BLOCK_RECORD
  5
23
330
1
100
AcDbSymbolTableRecord
100
AcDbBlockTableRecord
  2
*Paper_Space0
340
26
 70
     0
280
     1
281
     0
  0
BLOCK_RECORD
  5
41
330
1
100
AcDbSymbolTableRecord
100
AcDbBlockTableRecord
  2
block 2
340
0
102
{BLKREFS
331
42
102
}
 70
     0
280
     1
281
     0
  0
BLOCK_RECORD
  5
4B
330
1
100
AcDbSymbolTableRecord
100
AcDbBlockTableRecord
  2
block 3
340
0
102
{BLKREFS
331
4C
102
}
 70
     0
280
     1
281
     0
  0
BLOCK_RECORD
  5
4F
330
1
100
AcDbSymbolTableRecord
100
AcDbBlockTableRecord
  2
block 4
340
0
102
{BLKREFS
331
50
102
}
 70
     0
280
     1
281
     0
  0
BLOCK_RECORD
  5
56
330
1
100
AcDbSymbolTableRecord
100
AcDbBlockTableRecord
  2
block 5
340
0
102
{BLKREFS
331
57
102
}
 70
     0
280
     1
281
     0
  0
BLOCK_RECORD
  5
5B
330
1
100
AcDbSymbolTableRecord
100
AcDbBlockTableRecord
  2
block 6
340
0
102
{BLKREFS
331
5C
102
}
 70
     0
280
     1
281
     0
  0
BLOCK_RECORD
  5
60
330
1
100
AcDbSymbolTableRecord
100
AcDbBlockTableRecord
  2
block 7
340
0
102
{BLKREFS
331
61
102
}
 70
     0
280
     1
281
     0
  0
BLOCK_RECORD
  5
65
330
1
100
AcDbSymbolTableRecord
100
AcDbBlockTableRecord
  2
block 8
340
0
102
{BLKREFS
331
66
102
}
 70
     0
280
     1
281
     0
  0
BLOCK_RECORD
  5
6A
330
1
100
AcDbSymbolTableRecord
100
AcDbBlockTableRecord
  2
block 9
340
0
102
{BLKREFS
331
6B
102
}
 70
     0
280
     1
281
     0
  0
BLOCK_RECORD
  5
6F
330
1
100
AcDbSymbolTableRecord
100
AcDbBlockTableRecord
  2
block 10
340
0
102
{BLKREFS
331
70
102
}
 70
     0
280
     1
281
     0
  0
BLOCK_RECORD
  5
74
330
1
100
AcDbSymbolTableRecord
100
AcDbBlockTableRecord
  2
block 11
340
0
102
{BLKREFS
331
75
102
}
 70
     0
280
     1
281
     0
  0
BLOCK_RECORD
  5
79
330
1
100
AcDbSymbolTableRecord
100
AcDbBlockTableRecord
  2
block 12
340
0
102
{BLKREFS
331
7A
102
}
 70
     0
280
     1
281
     0
  0
BLOCK_RECORD
  5
84
330
1
100
AcDbSymbolTableRecord
100
AcDbBlockTableRecord
  2
block 13
340
0
102
{BLKREFS
331
85
102
}
 70
     0
280
     1
281
     0
  0
BLOCK_RECORD
  5
8F
330
1
100
AcDbSymbolTableRecord
100
AcDbBlockTableRecord
  2
block 14
340
0
102
{BLKREFS
331
90
102
}
 70
     0
280
     1
281
     0
  0
BLOCK_RECORD
  5
9A
330
1
100
AcDbSymbolTableRecord
100
AcDbBlockTableRecord
  2
block 15
340
0
102
{BLKREFS
331
9B
102
}
 70
     0
280
     1
281
     0
  0
BLOCK_RECORD
  5
A5
330
1
100
AcDbSymbolTableRecord
100
AcDbBlockTableRecord
  2
block 16
340
0
102
{BLKREFS
331
A6
102
}
 70
     0
280
     1
281
     0
  0
BLOCK_RECORD
  5
B0
330
1
100
AcDbSymbolTableRecord
100
AcDbBlockTableRecord
  2
block 17
340
0
102
{BLKREFS
331
B1
102
}
 70
     0
280
     1
281
     0
  0
BLOCK_RECORD
  5
BB
330
1
100
AcDbSymbolTableRecord
100
AcDbBlockTableRecord
  2
block 18
340
0
102
{BLKREFS
331
BC
102
}
 70
     0
280
     1
281
     0
  0
BLOCK_RECORD
  5
C6
330
1
100
AcDbSymbolTableRecord
100
AcDbBlockTableRecord
  2
block 19
340
0
102
{BLKREFS
331
C7
102
}
 70
     0
280
     1
281
     0
  0
BLOCK_RECORD
  5
D1
330
1
100
AcDbSymbolTableRecord
100
AcDbBlockTableRecord
  2
block 20
340
0
102
{BLKREFS
331
D2
102
}
 70
     0
280
     1
281
     0
  0
BLOCK_RECORD
  5
DC
330
1
100
AcDbSymbolTableRecord
100
AcDbBlockTableRecord
  2
block 21
340
0
102
{BLKREFS
331
DD
102
}
 70
     0
280
     1
281
     0
  0
BLOCK_RECORD
  5
E7
330
1
100
AcDbSymbolTableRecord
100
AcDbBlockTableRecord
  2
block 22
340
0
102
{BLKREFS
331
E8
102
}
 70
     0
280
     1
281
     0
  0
BLOCK_RECORD
  5
F2
330
1
100
AcDbSymbolTableRecord
100
AcDbBlockTableRecord
  2
block 23
340
0
102
{BLKREFS
331
F3
102
}
 70
     0
280
     1
281
     0
  0
BLOCK_RECORD
  5
FD
330
1
100
AcDbSymbolTableRecord
100
AcDbBlockTableRecord
  2
block 24
340
0
102
{BLKREFS
331
FE
102
}
 70
     0
280
     1
281
     0
  0
BLOCK_RECORD
  5
108
330
1
100
AcDbSymbolTableRecord
100
AcDbBlockTableRecord
  2
block 25
340
0
102
{BLKREFS
331
109
102
}
 70
     0
280
     1
281
     0
  0
BLOCK_RECORD
  5
113
330
1
100
AcDbSymbolTableRecord
100
AcDbBlockTableRecord
  2
block 26
340
0
102
{BLKREFS
331
114
102
}
 70
     0
280
     1
281
     0
  0
BLOCK_RECORD
  5
11E
330
1
100
AcDbSymbolTableRecord
100
AcDbBlockTableRecord
  2
block 27
340
0
102
{BLKREFS
331
11F
102
}
 70
     0
280
     1
281
     0
  0
BLOCK_RECORD
  5
129
330
1
100
AcDbSymbolTableRecord
100
AcDbBlockTableRecord
  2
block 28
340
0
102
{BLKREFS
331
12A
102
}
 70
     0
280
     1
281
     0
  0
BLOCK_RECORD
  5
134
330
1
100
AcDbSymbolTableRecord
100
AcDbBlockTableRecord
  2
block 29
340
0
102
{BLKREFS
331
135
102
}
 70
     0
280
     1
281
     0
  0
BLOCK_RECORD
  5
13F
330
1
100
AcDbSymbolTableRecord
100
AcDbBlockTableRecord
  2
block 30
340
0
102
{BLKREFS
331
140
102
}
 70
     0
280
     1
281
     0
  0
BLOCK_RECORD
  5
146
330
1
100
AcDbSymbolTableRecord
100
AcDbBlockTableRecord
  2
block 31
340
0
102
{BLKREFS
331
147
102
}
 70
     0
280
     1
281
     0
  0
BLOCK_RECORD
  5
14A
330
1
100
AcDbSymbolTableRecord
100
AcDbBlockTableRecord
  2
block 32
340
0
102
{BLKREFS
331
14B
102
}
 70
     0
280
     1
281
     0
  0
BLOCK_RECORD
  5
14E
330
1
100
AcDbSymbolTableRecord
100
AcDbBlockTableRecord
  2
block 33
340
0
102
{BLKREFS
331
14F
102
}
 70
     0
280
     1
281
     0
  0
BLOCK_RECORD
  5
153
330
1
100
AcDbSymbolTableRecord
100
AcDbBlockTableRecord
  2
block 34
340
0
102
{BLKREFS
331
154
102
}
 70
     0
280
     1
281
     0
  0
BLOCK_RECORD
  5
157
330
1
100
AcDbSymbolTableRecord
100
AcDbBlockTableRecord
  2
block 35
340
0
102
{BLKREFS
331
158
102
}
 70
     0
280
     1
281
     0
  0
BLOCK_RECORD
  5
15C
330
1
100
AcDbSymbolTableRecord
100
AcDbBlockTableRecord
  2
block 36
340
0
102
{BLKREFS
331
15D
102
}
 70
     0
280
     1
281
     0
  0
BLOCK_RECORD
  5
160
330
1
100
AcDbSymbolTableRecord
100
AcDbBlockTableRecord
  2
block 37
340
0
102
{BLKREFS
331
161
102
}
 70
     0
280
     1
281
     0
  0
BLOCK_RECORD
  5
165
330
1
100
AcDbSymbolTableRecord
100
AcDbBlockTableRecord
  2
block 38
340
0
102
{BLKREFS
331
166
102
}
 70
     0
280
     1
281
     0
  0
BLOCK_RECORD
  5
16B
330
1
100
AcDbSymbolTableRecord
100
AcDbBlockTableRecord
  2
block 39
340
0
102
{BLKREFS
331
16C
102
}
 70
     0
280
     1
281
     0
  0
BLOCK_RECORD
  5
170
330
1
100
AcDbSymbolTableRecord
100
AcDbBlockTableRecord
  2
block 40
340
0
102
{BLKREFS
331
171
102
}
 70
     0
280
     1
281
     0
  0
BLOCK_RECORD
  5
175
330
1
100
AcDbSymbolTableRecord
100
AcDbBlockTableRecord
  2
block 41
340
0
102
{BLKREFS
331
176
102
}
 70
     0
280
     1
281
     0
  0
BLOCK_RECORD
  5
17A
330
1
100
AcDbSymbolTableRecord
100
AcDbBlockTableRecord
  2
block 42
340
0
102
{BLKREFS
331
17B
102
}
 70
     0
280
     1
281
     0
  0
BLOCK_RECORD
  5
17F
330
1
100
AcDbSymbolTableRecord
100
AcDbBlockTableRecord
  2
block 43
340
0
102
{BLKREFS
331
180
102
}
 70
     0
280
     1
281
     0
  0
BLOCK_RECORD
  5
184
330
1
100
AcDbSymbolTableRecord
100
AcDbBlockTableRecord
  2
block 44
340
0
102
{BLKREFS
331
185
102
}
 70
     0
280
     1
281
     0
  0
BLOCK_RECORD
  5
188
330
1
100
AcDbSymbolTableRecord
100
AcDbBlockTableRecord
  2
block 45
340
0
102
{BLKREFS
331
189
102
}
 70
     0
280
     1
281
     0
  0
BLOCK_RECORD
  5
18C
330
1
100
AcDbSymbolTableRecord
100
AcDbBlockTableRecord
  2
block 46
340
0
102
{BLKREFS
331
18D
102
}
 70
     0
280
     1
281
     0
  0
BLOCK_RECORD
  5
190
330
1
100
AcDbSymbolTableRecord
100
AcDbBlockTableRecord
  2
block 47
340
0
102
{BLKREFS
331
191
102
}
 70
     0
280
     1
281
     0
  0
BLOCK_RECORD
  5
194
330
1
100
AcDbSymbolTableRecord
100
AcDbBlockTableRecord
  2
block 48
340
0
102
{BLKREFS
331
195
102
}
 70
     0
280
     1
281
     0
  0
BLOCK_RECORD
  5
198
330
1
100
AcDbSymbolTableRecord
100
AcDbBlockTableRecord
  2
block 49
340
0
102
{BLKREFS
331
199
102
}
 70
     0
280
     1
281
     0
  0
BLOCK_RECORD
  5
19D
330
1
100
AcDbSymbolTableRecord
100
AcDbBlockTableRecord
  2
block 50
340
0
102
{BLKREFS
331
19E
102
}
 70
     0
280
     1
281
     0
  0
BLOCK_RECORD
  5
1A2
330
1
100
AcDbSymbolTableRecord
100
AcDbBlockTableRecord
  2
block 51
340
0
102
{BLKREFS
331
1A3
102
}
 70
     0
280
     1
281
     0
  0
BLOCK_RECORD
  5
1A6
330
1
100
AcDbSymbolTableRecord
100
AcDbBlockTableRecord
  2
block 52
340
0
102
{BLKREFS
331
1A7
102
}
 70
     0
280
     1
281
     0
  0
BLOCK_RECORD
  5
1AB
330
1
100
AcDbSymbolTableRecord
100
AcDbBlockTableRecord
  2
block 53
340
0
102
{BLKREFS
331
1AC
102
}
 70
     0
280
     1
281
     0
  0
BLOCK_RECORD
  5
1B0
330
1
100
AcDbSymbolTableRecord
100
AcDbBlockTableRecord
  2
block 54
340
0
102
{BLKREFS
331
1B1
102
}
 70
     0
280
     1
281
     0
  0
BLOCK_RECORD
  5
1B4
330
1
100
AcDbSymbolTableRecord
100
AcDbBlockTableRecord
  2
block 55
340
0
102
{BLKREFS
331
1B5
102
}
 70
     0
280
     1
281
     0
  0
BLOCK_RECORD
  5
1B9
330
1
100
AcDbSymbolTableRecord
100
AcDbBlockTableRecord
  2
block 56
340
0
102
{BLKREFS
331
1BA
102
}
 70
     0
280
     1
281
     0
  0
BLOCK_RECORD
  5
1BE
330
1
100
AcDbSymbolTableRecord
100
AcDbBlockTableRecord
  2
block 57
340
0
102
{BLKREFS
331
1BF
102
}
 70
     0
280
     1
281
     0
  0
BLOCK_RECORD
  5
1C2
330
1
100
AcDbSymbolTableRecord
100
AcDbBlockTableRecord
  2
block 58
340
0
102
{BLKREFS
331
1C3
102
}
 70
     0
280
     1
281
     0
  0
BLOCK_RECORD
  5
1C7
330
1
100
AcDbSymbolTableRecord
100
AcDbBlockTableRecord
  2
block 59
340
0
102
{BLKREFS
331
1C8
102
}
 70
     0
280
     1
281
     0
  0
BLOCK_RECORD
  5
1CC
330
1
100
AcDbSymbolTableRecord
100
AcDbBlockTableRecord
  2
block 60
340
0
102
{BLKREFS
331
1CD
102
}
 70
     0
280
     1
281
     0
  0
BLOCK_RECORD
  5
1D0
330
1
100
AcDbSymbolTableRecord
100
AcDbBlockTableRecord
  2
block 61
340
0
102
{BLKREFS
331
1D1
102
}
 70
     0
280
     1
281
     0
  0
BLOCK_RECORD
  5
1D5
330
1
100
AcDbSymbolTableRecord
100
AcDbBlockTableRecord
  2
block 62
340
0
102
{BLKREFS
331
1D6
102
}
 70
     0
280
     1
281
     0
  0
BLOCK_RECORD
  5
1DA
330
1
100
AcDbSymbolTableRecord
100
AcDbBlockTableRecord
  2
block 63
340
0
102
{BLKREFS
331
1DB
102
}
 70
     0
280
     1
281
     0
  0
BLOCK_RECORD
  5
1DE
330
1
100
AcDbSymbolTableRecord
100
AcDbBlockTableRecord
  2
block 64
340
0
102
{BLKREFS
331
1DF
102
}
 70
     0
280
     1
281
     0
  0
BLOCK_RECORD
  5
1E3
330
1
100
AcDbSymbolTableRecord
100
AcDbBlockTableRecord
  2
block 65
340
0
102
{BLKREFS
331
1E4
102
}
 70
     0
280
     1
281
     0
  0
BLOCK_RECORD
  5
1E8
330
1
100
AcDbSymbolTableRecord
100
AcDbBlockTableRecord
  2
block 66
340
0
102
{BLKREFS
331
1E9
102
}
 70
     0
280
     1
281
     0
  0
BLOCK_RECORD
  5
1EC
330
1
100
AcDbSymbolTableRecord
100
AcDbBlockTableRecord
  2
block 67
340
0
102
{BLKREFS
331
1ED
102
}
 70
     0
280
     1
281
     0
  0
BLOCK_RECORD
  5
1F1
330
1
100
AcDbSymbolTableRecord
100
AcDbBlockTableRecord
  2
block 68
340
0
102
{BLKREFS
331
1F2
102
}
 70
     0
280
     1
281
     0
  0
BLOCK_RECORD
  5
1F6
330
1
100
AcDbSymbolTableRecord
100
AcDbBlockTableRecord
  2
block 69
340
0
102
{BLKREFS
331
1F7
102
}
 70
     0
280
     1
281
     0
  0
BLOCK_RECORD
  5
1FA
330
1
100
AcDbSymbolTableRecord
100
AcDbBlockTableRecord
  2
block 70
340
0
102
{BLKREFS
331
1FB
102
}
 70
     0
280
     1
281
     0
  0
BLOCK_RECORD
  5
1FF
330
1
100
AcDbSymbolTableRecord
100
AcDbBlockTableRecord
  2
block 71
340
0
102
{BLKREFS
331
200
102
}
 70
     0
280
     1
281
     0
  0
BLOCK_RECORD
  5
204
330
1
100
AcDbSymbolTableRecord
100
AcDbBlockTableRecord
  2
block 72
340
0
102
{BLKREFS
331
205
102
}
 70
     0
280
     1
281
     0
  0
BLOCK_RECORD
  5
208
330
1
100
AcDbSymbolTableRecord
100
AcDbBlockTableRecord
  2
block 73
340
0
102
{BLKREFS
331
209
102
}
 70
     0
280
     1
281
     0
  0
BLOCK_RECORD
  5
20D
330
1
100
AcDbSymbolTableRecord
100
AcDbBlockTableRecord
  2
block 74
340
0
102
{BLKREFS
331
20E
102
}
 70
     0
280
     1
281
     0
  0
BLOCK_RECORD
  5
212
330
1
100
AcDbSymbolTableRecord
100
AcDbBlockTableRecord
  2
block 75
340
0
102
{BLKREFS
331
213
102
}
 70
     0
280
     1
281
     0
  0
BLOCK_RECORD
  5
217
330
1
100
AcDbSymbolTableRecord
100
AcDbBlockTableRecord
  2
block 76
340
0
102
{BLKREFS
331
218
102
}
 70
     0
280
     1
281
     0
  0
BLOCK_RECORD
  5
221
330
1
100
AcDbSymbolTableRecord
100
AcDbBlockTableRecord
  2
block 77
340
0
102
{BLKREFS
331
222
102
}
 70
     0
280
     1
281
     0
  0
BLOCK_RECORD
  5
225
330
1
100
AcDbSymbolTableRecord
100
AcDbBlockTableRecord
  2
block 78
340
0
102
{BLKREFS
331
226
102
}
 70
     0
280
     1
281
     0
  0
BLOCK_RECORD
  5
22C
330
1
100
AcDbSymbolTableRecord
100
AcDbBlockTableRecord
  2
block 79
340
0
102
{BLKREFS
331
22D
102
}
 70
     0
280
     1
281
     0
  0
BLOCK_RECORD
  5
231
330
1
100
AcDbSymbolTableRecord
100
AcDbBlockTableRecord
  2
block 80
340
0
102
{BLKREFS
331
232
102
}
 70
     0
280
     1
281
     0
  0
BLOCK_RECORD
  5
236
330
1
100
AcDbSymbolTableRecord
100
AcDbBlockTableRecord
  2
block 81
340
0
102
{BLKREFS
331
237
102
}
 70
     0
280
     1
281
     0
  0
BLOCK_RECORD
  5
23B
330
1
100
AcDbSymbolTableRecord
100
AcDbBlockTableRecord
  2
block 82
340
0
102
{BLKREFS
331
23C
102
}
 70
     0
280
     1
281
     0
  0
BLOCK_RECORD
  5
240
330
1
100
AcDbSymbolTableRecord
100
AcDbBlockTableRecord
  2
block 83
340
0
102
{BLKREFS
331
241
102
}
 70
     0
280
     1
281
     0
  0
BLOCK_RECORD
  5
245
330
1
100
AcDbSymbolTableRecord
100
AcDbBlockTableRecord
  2
block 84
340
0
102
{BLKREFS
331
246
102
}
 70
     0
280
     1
281
     0
  0
BLOCK_RECORD
  5
24A
330
1
100
AcDbSymbolTableRecord
100
AcDbBlockTableRecord
  2
block 85
340
0
102
{BLKREFS
331
24B
102
}
 70
     0
280
     1
281
     0
  0
BLOCK_RECORD
  5
24F
330
1
100
AcDbSymbolTableRecord
100
AcDbBlockTableRecord
  2
block 86
340
0
102
{BLKREFS
331
250
102
}
 70
     0
280
     1
281
     0
  0
BLOCK_RECORD
  5
25A
330
1
100
AcDbSymbolTableRecord
100
AcDbBlockTableRecord
  2
block 87
340
0
102
{BLKREFS
331
25B
102
}
 70
     0
280
     1
281
     0
  0
BLOCK_RECORD
  5
265
330
1
100
AcDbSymbolTableRecord
100
AcDbBlockTableRecord
  2
block 88
340
0
102
{BLKREFS
331
266
102
}
 70
     0
280
     1
281
     0
  0
BLOCK_RECORD
  5
270
330
1
100
AcDbSymbolTableRecord
100
AcDbBlockTableRecord
  2
block 89
340
0
102
{BLKREFS
331
271
102
}
 70
     0
280
     1
281
     0
  0
BLOCK_RECORD
  5
27B
330
1
100
AcDbSymbolTableRecord
100
AcDbBlockTableRecord
  2
block 90
340
0
102
{BLKREFS
331
27C
102
}
 70
     0
280
     1
281
     0
  0
BLOCK_RECORD
  5
286
330
1
100
AcDbSymbolTableRecord
100
AcDbBlockTableRecord
  2
block 91
340
0
102
{BLKREFS
331
287
102
}
 70
     0
280
     1
281
     0
  0
BLOCK_RECORD
  5
291
330
1
100
AcDbSymbolTableRecord
100
AcDbBlockTableRecord
  2
block 92
340
0
102
{BLKREFS
331
292
102
}
 70
     0
280
     1
281
     0
  0
BLOCK_RECORD
  5
29C
330
1
100
AcDbSymbolTableRecord
100
AcDbBlockTableRecord
  2
block 93
340
0
102
{BLKREFS
331
29D
102
}
 70
     0
280
     1
281
     0
  0
BLOCK_RECORD
  5
2A7
330
1
100
AcDbSymbolTableRecord
100
AcDbBlockTableRecord
  2
block 94
340
0
102
{BLKREFS
331
2A8
102
}
 70
     0
280
     1
281
     0
  0
BLOCK_RECORD
  5
2B2
330
1
100
AcDbSymbolTableRecord
100
AcDbBlockTableRecord
  2
block 95
340
0
102
{BLKREFS
331
2B3
102
}
 70
     0
280
     1
281
     0
  0
BLOCK_RECORD
  5
2BD
330
1
100
AcDbSymbolTableRecord
100
AcDbBlockTableRecord
  2
block 96
340
0
102
{BLKREFS
331
2BE
102
}
 70
     0
280
     1
281
     0
  0
BLOCK_RECORD
  5
2C8
330
1
100
AcDbSymbolTableRecord
100
AcDbBlockTableRecord
  2
block 97
340
0
102
{BLKREFS
331
2C9
102
}
 70
     0
280
     1
281
     0
  0
BLOCK_RECORD
  5
2D3
330
1
100
AcDbSymbolTableRecord
100
AcDbBlockTableRecord
  2
block 98
340
0
102
{BLKREFS
331
2D4
102
}
 70
     0
280
     1
281
     0
  0
BLOCK_RECORD
  5
2DE
330
1
100
AcDbSymbolTableRecord
100
AcDbBlockTableRecord
  2
block 99
340
0
102
{BLKREFS
331
2DF
102
}
 70
     0
280
     1
281
     0
  0
BLOCK_RECORD
  5
2E9
330
1
100
AcDbSymbolTableRecord
100
AcDbBlockTableRecord
  2
block 100
340
0
102
{BLKREFS
331
2EA
102
}
 70
     0
280
     1
281
     0
  0
BLOCK_RECORD
  5
2F4
330
1
100
AcDbSymbolTableRecord
100
AcDbBlockTableRecord
  2
block 101
340
0
102
{BLKREFS
331
2F5
102
}
 70
     0
280
     1
281
     0
  0
BLOCK_RECORD
  5
2FF
330
1
100
AcDbSymbolTableRecord
100
AcDbBlockTableRecord
  2
block 102
340
0
102
{BLKREFS
331
300
102
}
 70
     0
280
     1
281
     0
  0
BLOCK_RECORD
  5
30A
330
1
100
AcDbSymbolTableRecord
100
AcDbBlockTableRecord
  2
block 103
340
0
102
{BLKREFS
331
30B
102
}
 70
     0
280
     1
281
     0
  0
BLOCK_RECORD
  5
315
330
1
100
AcDbSymbolTableRecord
100
AcDbBlockTableRecord
  2
block 104
340
0
102
{BLKREFS
331
316
102
}
 70
     0
280
     1
281
     0
  0
BLOCK_RECORD
  5
31C
330
1
100
AcDbSymbolTableRecord
100
AcDbBlockTableRecord
  2
block 105
340
0
102
{BLKREFS
331
31D
102
}
 70
     0
280
     1
281
     0
  0
BLOCK_RECORD
  5
320
330
1
100
AcDbSymbolTableRecord
100
AcDbBlockTableRecord
  2
block 106
340
0
102
{BLKREFS
331
321
102
}
 70
     0
280
     1
281
     0
  0
BLOCK_RECORD
  5
324
330
1
100
AcDbSymbolTableRecord
100
AcDbBlockTableRecord
  2
block 107
340
0
102
{BLKREFS
331
325
102
}
 70
     0
280
     1
281
     0
  0
BLOCK_RECORD
  5
329
330
1
100
AcDbSymbolTableRecord
100
AcDbBlockTableRecord
  2
block 108
340
0
102
{BLKREFS
331
32A
102
}
 70
     0
280
     1
281
     0
  0
BLOCK_RECORD
  5
32D
330
1
100
AcDbSymbolTableRecord
100
AcDbBlockTableRecord
  2
block 109
340
0
102
{BLKREFS
331
32E
102
}
 70
     0
280
     1
281
     0
  0
BLOCK_RECORD
  5
332
330
1
100
AcDbSymbolTableRecord
100
AcDbBlockTableRecord
  2
block 110
340
0
102
{BLKREFS
331
333
102
}
 70
     0
280
     1
281
     0
  0
BLOCK_RECORD
  5
336
330
1
100
AcDbSymbolTableRecord
100
AcDbBlockTableRecord
  2
block 111
340
0
102
{BLKREFS
331
337
102
}
 70
     0
280
     1
281
     0
  0
BLOCK_RECORD
  5
33B
330
1
100
AcDbSymbolTableRecord
100
AcDbBlockTableRecord
  2
block 112
340
0
102
{BLKREFS
331
33C
102
}
 70
     0
280
     1
281
     0
  0
BLOCK_RECORD
  5
341
330
1
100
AcDbSymbolTableRecord
100
AcDbBlockTableRecord
  2
block 113
340
0
102
{BLKREFS
331
342
102
}
 70
     0
280
     1
281
     0
  0
BLOCK_RECORD
  5
346
330
1
100
AcDbSymbolTableRecord
100
AcDbBlockTableRecord
  2
block 114
340
0
102
{BLKREFS
331
347
102
}
 70
     0
280
     1
281
     0
  0
BLOCK_RECORD
  5
34B
330
1
100
AcDbSymbolTableRecord
100
AcDbBlockTableRecord
  2
block 115
340
0
102
{BLKREFS
331
34C
102
}
 70
     0
280
     1
281
     0
  0
BLOCK_RECORD
  5
350
330
1
100
AcDbSymbolTableRecord
100
AcDbBlockTableRecord
  2
block 116
340
0
102
{BLKREFS
331
351
102
}
 70
     0
280
     1
281
     0
  0
BLOCK_RECORD
  5
355
330
1
100
AcDbSymbolTableRecord
100
AcDbBlockTableRecord
  2
block 117
340
0
102
{BLKREFS
331
356
102
}
 70
     0
280
     1
281
     0
  0
BLOCK_RECORD
  5
35A
330
1
100
AcDbSymbolTableRecord
100
AcDbBlockTableRecord
  2
block 118
340
0
102
{BLKREFS
331
35B
102
}
 70
     0
280
     1
281
     0
  0
BLOCK_RECORD
  5
35E
330
1
100
AcDbSymbolTableRecord
100
AcDbBlockTableRecord
  2
block 119
340
0
102
{BLKREFS
331
35F
102
}
 70
     0
280
     1
281
     0
  0
BLOCK_RECORD
  5
362
330
1
100
AcDbSymbolTableRecord
100
AcDbBlockTableRecord
  2
block 120
340
0
102
{BLKREFS
331
363
102
}
 70
     0
280
     1
281
     0
  0
BLOCK_RECORD
  5
367
330
1
100
AcDbSymbolTableRecord
100
AcDbBlockTableRecord
  2
block 121
340
0
102
{BLKREFS
331
368
102
}
 70
     0
280
     1
281
     0
  0
BLOCK_RECORD
  5
36C
330
1
100
AcDbSymbolTableRecord
100
AcDbBlockTableRecord
  2
block 122
340
0
102
{BLKREFS
331
36D
102
}
 70
     0
280
     1
281
     0
  0
BLOCK_RECORD
  5
370
330
1
100
AcDbSymbolTableRecord
100
AcDbBlockTableRecord
  2
block 123
340
0
102
{BLKREFS
331
371
102
}
 70
     0
280
     1
281
     0
  0
BLOCK_RECORD
  5
375
330
1
100
AcDbSymbolTableRecord
100
AcDbBlockTableRecord
  2
block 124
340
0
102
{BLKREFS
331
376
102
}
 70
     0
280
     1
281
     0
  0
BLOCK_RECORD
  5
37A
330
1
100
AcDbSymbolTableRecord
100
AcDbBlockTableRecord
  2
block 125
340
0
102
{BLKREFS
331
37B
102
}
 70
     0
280
     1
281
     0
  0
BLOCK_RECORD
  5
37E
330
1
100
AcDbSymbolTableRecord
100
AcDbBlockTableRecord
  2
block 126
340
0
102
{BLKREFS
331
37F
102
}
 70
     0
280
     1
281
     0
  0
BLOCK_RECORD
  5
383
330
1
100
AcDbSymbolTableRecord
100
AcDbBlockTableRecord
  2
block 127
340
0
102
{BLKREFS
331
384
102
}
 70
     0
280
     1
281
     0
  0
BLOCK_RECORD
  5
388
330
1
100
AcDbSymbolTableRecord
100
AcDbBlockTableRecord
  2
block 128
340
0
102
{BLKREFS
331
389
102
}
 70
     0
280
     1
281
     0
  0
BLOCK_RECORD
  5
38C
330
1
100
AcDbSymbolTableRecord
100
AcDbBlockTableRecord
  2
block 129
340
0
102
{BLKREFS
331
38D
102
}
 70
     0
280
     1
281
     0
  0
BLOCK_RECORD
  5
391
330
1
100
AcDbSymbolTableRecord
100
AcDbBlockTableRecord
  2
block 130
340
0
102
{BLKREFS
331
392
102
}
 70
     0
280
     1
281
     0
  0
BLOCK_RECORD
  5
396
330
1
100
AcDbSymbolTableRecord
100
AcDbBlockTableRecord
  2
block 131
340
0
102
{BLKREFS
331
397
102
}
 70
     0
280
     1
281
     0
  0
BLOCK_RECORD
  5
39A
330
1
100
AcDbSymbolTableRecord
100
AcDbBlockTableRecord
  2
block 132
340
0
102
{BLKREFS
331
39B
102
}
 70
     0
280
     1
281
     0
  0
BLOCK_RECORD
  5
39F
330
1
100
AcDbSymbolTableRecord
100
AcDbBlockTableRecord
  2
block 133
340
0
102
{BLKREFS
331
3A0
102
}
 70
     0
280
     1
281
     0
  0
BLOCK_RECORD
  5
3A4
330
1
100
AcDbSymbolTableRecord
100
AcDbBlockTableRecord
  2
block 134
340
0
102
{BLKREFS
331
3A5
102
}
 70
     0
280
     1
281
     0
  0
BLOCK_RECORD
  5
3A8
330
1
100
AcDbSymbolTableRecord
100
AcDbBlockTableRecord
  2
block 135
340
0
102
{BLKREFS
331
3A9
102
}
 70
     0
280
     1
281
     0
  0
BLOCK_RECORD
  5
3AD
330
1
100
AcDbSymbolTableRecord
100
AcDbBlockTableRecord
  2
block 136
340
0
102
{BLKREFS
331
3AE
102
}
 70
     0
280
     1
281
     0
  0
BLOCK_RECORD
  5
3B2
330
1
100
AcDbSymbolTableRecord
100
AcDbBlockTableRecord
  2
block 137
340
0
102
{BLKREFS
331
3B3
102
}
 70
     0
280
     1
281
     0
  0
BLOCK_RECORD
  5
3B6
330
1
100
AcDbSymbolTableRecord
100
AcDbBlockTableRecord
  2
block 138
340
0
102
{BLKREFS
331
3B7
102
}
 70
     0
280
     1
281
     0
  0
BLOCK_RECORD
  5
3BB
330
1
100
AcDbSymbolTableRecord
100
AcDbBlockTableRecord
  2
block 139
340
0
102
{BLKREFS
331
3BC
102
}
 70
     0
280
     1
281
     0
  0
BLOCK_RECORD
  5
3C0
330
1
100
AcDbSymbolTableRecord
100
AcDbBlockTableRecord
  2
block 140
340
0
102
{BLKREFS
331
3C1
102
}
 70
     0
280
     1
281
     0
  0
BLOCK_RECORD
  5
3C4
330
1
100
AcDbSymbolTableRecord
100
AcDbBlockTableRecord
  2
block 141
340
0
102
{BLKREFS
331
3C5
102
}
 70
     0
280
     1
281
     0
  0
BLOCK_RECORD
  5
3C9
330
1
100
AcDbSymbolTableRecord
100
AcDbBlockTableRecord
  2
block 142
340
0
102
{BLKREFS
331
3CA
102
}
 70
     0
280
     1
281
     0
  0
BLOCK_RECORD
  5
3CE
330
1
100
AcDbSymbolTableRecord
100
AcDbBlockTableRecord
  2
block 143
340
0
102
{BLKREFS
331
3CF
102
}
 70
     0
280
     1
281
     0
  0
BLOCK_RECORD
  5
3D2
330
1
100
AcDbSymbolTableRecord
100
AcDbBlockTableRecord
  2
block 144
340
0
102
{BLKREFS
331
3D3
102
}
 70
     0
280
     1
281
     0
  0
BLOCK_RECORD
  5
3D7
330
1
100
AcDbSymbolTableRecord
100
AcDbBlockTableRecord
  2
block 145
340
0
102
{BLKREFS
331
3D8
102
}
 70
     0
280
     1
281
     0
  0
BLOCK_RECORD
  5
3DC
330
1
100
AcDbSymbolTableRecord
100
AcDbBlockTableRecord
  2
block 146
340
0
102
{BLKREFS
331
3DD
102
}
 70
     0
280
     1
281
     0
  0
ENDTAB
  0
ENDSEC
  0
SECTION
  2
BLOCKS
  0
BLOCK
  5
20
330
1F
100
AcDbEntity
  8
0
100
AcDbBlockBegin
  2
*Model_Space
 70
     0
 10
0.0
 20
0.0
 30
0.0
  3
*Model_Space
  1

  0
ENDBLK
  5
21
330
1F
100
AcDbEntity
  8
0
100
AcDbBlockEnd
  0
BLOCK
  5
1C
330
1B
100
AcDbEntity
 67
     1
  8
0
100
AcDbBlockBegin
  2
*Paper_Space
 70
     0
 10
0.0
 20
0.0
 30
0.0
  3
*Paper_Space
  1

  0
ENDBLK
  5
1D
330
1B
100
AcDbEntity
 67
     1
  8
0
100
AcDbBlockEnd
  0
BLOCK
  5
24
330
23
100
AcDbEntity
  8
0
100
AcDbBlockBegin
  2
*Paper_Space0
 70
     0
 10
0.0
 20
0.0
 30
0.0
  3
*Paper_Space0
  1

  0
ENDBLK
  5
25
330
23
100
AcDbEntity
  8
0
100
AcDbBlockEnd
  0
BLOCK
  5
43
330
41
100
AcDbEntity
  8
0
100
AcDbBlockBegin
  2
block 2
 70
     0
 10
0.0
 20
0.0
 30
0.0
  3
block 2
  1

  0
POLYLINE
  5
45
330
41
100
AcDbEntity
  8
_U+5207_U+65AD_U+30D1_U+30B9
 62
     1
420
 16711680
370
     9
100
AcDb2dPolyline
 66
     1
 10
0.0
 20
0.0
 30
0.0
  0
VERTEX
  5
46
330
45
100
AcDbEntity
  8
_U+5207_U+65AD_U+30D1_U+30B9
 62
     1
420
 16711680
370
     9
100
AcDbVertex
100
AcDb2dVertex
 10
192.8394662600577
 20
224.4932231543155
 30
0.0
  0
VERTEX
  5
3E1
330
45
100
AcDbEntity
  8
0
100
AcDbVertex
100
AcDb2dVertex
 10
192.8394662600577
 20
224.4932231543155
 30
0.0
  0
SEQEND
  5
47
330
45
100
AcDbEntity
  8
_U+5207_U+65AD_U+30D1_U+30B9
 62
     1
420
 16711680
370
     9
  0
POLYLINE
  5
48
330
41
100
AcDbEntity
  8
_U+5207_U+65AD_U+30D1_U+30B9
 62
     1
420
 16711680
370
     9
100
AcDb2dPolyline
 66
     1
 10
0.0
 20
0.0
 30
0.0
  0
VERTEX
  5
49
330
48
100
AcDbEntity
  8
_U+5207_U+65AD_U+30D1_U+30B9
 62
     1
420
 16711680
370
     9
100
AcDbVertex
100
AcDb2dVertex
 10
192.8394662600577
 20
224.4932231543155
 30
0.0
  0
VERTEX
  5
3E2
330
48
100
AcDbEntity
  8
0
100
AcDbVertex
100
AcDb2dVertex
 10
192.8394662600577
 20
224.4932231543155
 30
0.0
  0
SEQEND
  5
4A
330
48
100
AcDbEntity
  8
_U+5207_U+65AD_U+30D1_U+30B9
 62
     1
420
 16711680
370
     9
  0
INSERT
  5
4C
330
41
100
AcDbEntity
  8
_U+5207_U+65AD_U+30D1_U+30B9
100
AcDbBlockReference
  2
block 3
 10
0.0
 20
0.0
 30
0.0
  0
SPLINE
  5
55
330
41
100
AcDbEntity
  8
_U+5207_U+65AD_U+30D1_U+30B9
 62
     1
420
 16711680
370
     9
100
AcDbSpline
210
0.0
220
0.0
230
1.0
 70
    11
 71
     3
 72
    17
 73
    13
 74
     0
 42
0.0000000001
 43
0.0000000001
 12
1.0
 22
0.0
 32
0.0
 13
1.0
 23
0.0
 33
0.0
 40
0.0
 40
0.0
 40
0.0
 40
0.0
 40
1.0
 40
1.0
 40
1.0
 40
2.0
 40
2.0
 40
2.0
 40
3.0
 40
3.0
 40
3.0
 40
4.0
 40
4.0
 40
4.0
 40
4.0
 10
224.1809883514291
 20
147.0013338173148
 30
0.0
 10
223.4630089204562
 20
145.7577620063735
 30
0.0
 10
221.8728820355456
 20
145.3316898222352
 30
0.0
 10
220.6293102246044
 20
146.0496692532081
 30
0.0
 10
219.3857599455098
 20
146.7676486841812
 30
0.0
 10
218.9596877613716
 20
148.3577755690915
 30
0.0
 10
219.6776456604976
 20
149.6013258481863
 30
0.0
 10
220.3956250914705
 20
150.8448976591273
 30
0.0
 10
221.9857519763811
 20
151.2709698432656
 30
0.0
 10
223.2293237873224
 20
150.5529904122927
 30
0.0
 10
224.4728740664169
 20
149.8350325131667
 30
0.0
 10
224.8989462505552
 20
148.2448840964093
 30
0.0
 10
224.1809883514291
 20
147.0013338173148
 30
0.0
  0
INSERT
  5
57
330
41
100
AcDbEntity
  8
_U+5207_U+65AD_U+30D1_U+30B9
100
AcDbBlockReference
  2
block 5
 10
0.0
 20
0.0
 30
0.0
  0
INSERT
  5
5C
330
41
100
AcDbEntity
  8
_U+5207_U+65AD_U+30D1_U+30B9
100
AcDbBlockReference
  2
block 6
 10
0.0
 20
0.0
 30
0.0
  0
INSERT
  5
61
330
41
100
AcDbEntity
  8
_U+5207_U+65AD_U+30D1_U+30B9
100
AcDbBlockReference
  2
block 7
 10
0.0
 20
0.0
 30
0.0
  0
INSERT
  5
66
330
41
100
AcDbEntity
  8
_U+5207_U+65AD_U+30D1_U+30B9
100
AcDbBlockReference
  2
block 8
 10
0.0
 20
0.0
 30
0.0
  0
INSERT
  5
6B
330
41
100
AcDbEntity
  8
_U+5207_U+65AD_U+30D1_U+30B9
100
AcDbBlockReference
  2
block 9
 10
0.0
 20
0.0
 30
0.0
  0
INSERT
  5
70
330
41
100
AcDbEntity
  8
_U+5207_U+65AD_U+30D1_U+30B9
100
AcDbBlockReference
  2
block 10
 10
0.0
 20
0.0
 30
0.0
  0
INSERT
  5
75
330
41
100
AcDbEntity
  8
_U+5207_U+65AD_U+30D1_U+30B9
100
AcDbBlockReference
  2
block 11
 10
0.0
 20
0.0
 30
0.0
  0
INSERT
  5
7A
330
41
100
AcDbEntity
  8
_U+5207_U+65AD_U+30D1_U+30B9
100
AcDbBlockReference
  2
block 12
 10
0.0
 20
0.0
 30
0.0
  0
INSERT
  5
85
330
41
100
AcDbEntity
  8
_U+5207_U+65AD_U+30D1_U+30B9
100
AcDbBlockReference
  2
block 13
 10
0.0
 20
0.0
 30
0.0
  0
INSERT
  5
90
330
41
100
AcDbEntity
  8
_U+5207_U+65AD_U+30D1_U+30B9
100
AcDbBlockReference
  2
block 14
 10
0.0
 20
0.0
 30
0.0
  0
INSERT
  5
9B
330
41
100
AcDbEntity
  8
_U+5207_U+65AD_U+30D1_U+30B9
100
AcDbBlockReference
  2
block 15
 10
0.0
 20
0.0
 30
0.0
  0
INSERT
  5
A6
330
41
100
AcDbEntity
  8
_U+5207_U+65AD_U+30D1_U+30B9
100
AcDbBlockReference
  2
block 16
 10
0.0
 20
0.0
 30
0.0
  0
INSERT
  5
B1
330
41
100
AcDbEntity
  8
_U+5207_U+65AD_U+30D1_U+30B9
100
AcDbBlockReference
  2
block 17
 10
0.0
 20
0.0
 30
0.0
  0
INSERT
  5
BC
330
41
100
AcDbEntity
  8
_U+5207_U+65AD_U+30D1_U+30B9
100
AcDbBlockReference
  2
block 18
 10
0.0
 20
0.0
 30
0.0
  0
INSERT
  5
C7
330
41
100
AcDbEntity
  8
_U+5207_U+65AD_U+30D1_U+30B9
100
AcDbBlockReference
  2
block 19
 10
0.0
 20
0.0
 30
0.0
  0
INSERT
  5
D2
330
41
100
AcDbEntity
  8
_U+5207_U+65AD_U+30D1_U+30B9
100
AcDbBlockReference
  2
block 20
 10
0.0
 20
0.0
 30
0.0
  0
INSERT
  5
DD
330
41
100
AcDbEntity
  8
_U+5207_U+65AD_U+30D1_U+30B9
100
AcDbBlockReference
  2
block 21
 10
0.0
 20
0.0
 30
0.0
  0
INSERT
  5
E8
330
41
100
AcDbEntity
  8
_U+5207_U+65AD_U+30D1_U+30B9
100
AcDbBlockReference
  2
block 22
 10
0.0
 20
0.0
 30
0.0
  0
INSERT
  5
F3
330
41
100
AcDbEntity
  8
_U+5207_U+65AD_U+30D1_U+30B9
100
AcDbBlockReference
  2
block 23
 10
0.0
 20
0.0
 30
0.0
  0
INSERT
  5
FE
330
41
100
AcDbEntity
  8
_U+5207_U+65AD_U+30D1_U+30B9
100
AcDbBlockReference
  2
block 24
 10
0.0
 20
0.0
 30
0.0
  0
INSERT
  5
109
330
41
100
AcDbEntity
  8
_U+5207_U+65AD_U+30D1_U+30B9
100
AcDbBlockReference
  2
block 25
 10
0.0
 20
0.0
 30
0.0
  0
INSERT
  5
114
330
41
100
AcDbEntity
  8
_U+5207_U+65AD_U+30D1_U+30B9
100
AcDbBlockReference
  2
block 26
 10
0.0
 20
0.0
 30
0.0
  0
INSERT
  5
11F
330
41
100
AcDbEntity
  8
_U+5207_U+65AD_U+30D1_U+30B9
100
AcDbBlockReference
  2
block 27
 10
0.0
 20
0.0
 30
0.0
  0
INSERT
  5
12A
330
41
100
AcDbEntity
  8
_U+5207_U+65AD_U+30D1_U+30B9
100
AcDbBlockReference
  2
block 28
 10
0.0
 20
0.0
 30
0.0
  0
INSERT
  5
135
330
41
100
AcDbEntity
  8
_U+5207_U+65AD_U+30D1_U+30B9
100
AcDbBlockReference
  2
block 29
 10
0.0
 20
0.0
 30
0.0
  0
INSERT
  5
140
330
41
100
AcDbEntity
  8
_U+5207_U+65AD_U+30D1_U+30B9
100
AcDbBlockReference
  2
block 30
 10
0.0
 20
0.0
 30
0.0
  0
ENDBLK
  5
44
330
41
100
AcDbEntity
  8
0
100
AcDbBlockEnd
  0
BLOCK
  5
4D
330
4B
100
AcDbEntity
  8
0
100
AcDbBlockBegin
  2
block 3
 70
     0
 10
0.0
 20
0.0
 30
0.0
  3
block 3
  1

  0
INSERT
  5
50
330
4B
100
AcDbEntity
  8
_U+5207_U+65AD_U+30D1_U+30B9
100
AcDbBlockReference
  2
block 4
 10
0.0
 20
0.0
 30
0.0
  0
SPLINE
  5
54
330
4B
100
AcDbEntity
  8
_U+5207_U+65AD_U+30D1_U+30B9
 62
     1
420
 16711680
370
     9
100
AcDbSpline
210
0.0
220
0.0
230
1.0
 70
    11
 71
     3
 72
   209
 73
   205
 74
     0
 42
0.0000000001
 43
0.0000000001
 12
1.0
 22
0.0
 32
0.0
 13
1.0
 23
0.0
 33
0.0
 40
0.0
 40
0.0
 40
0.0
 40
0.0
 40
1.0
 40
1.0
 40
1.0
 40
2.0
 40
2.0
 40
2.0
 40
3.0
 40
3.0
 40
3.0
 40
4.0
 40
4.0
 40
4.0
 40
5.0
 40
5.0
 40
5.0
 40
6.0
 40
6.0
 40
6.0
 40
7.0
 40
7.0
 40
7.0
 40
8.0
 40
8.0
 40
8.0
 40
9.0
 40
9.0
 40
9.0
 40
10.0
 40
10.0
 40
10.0
 40
11.0
 40
11.0
 40
11.0
 40
12.0
 40
12.0
 40
12.0
 40
13.0
 40
13.0
 40
13.0
 40
14.0
 40
14.0
 40
14.0
 40
15.0
 40
15.0
 40
15.0
 40
16.0
 40
16.0
 40
16.0
 40
17.0
 40
17.0
 40
17.0
 40
18.0
 40
18.0
 40
18.0
 40
19.0
 40
19.0
 40
19.0
 40
20.0
 40
20.0
 40
20.0
 40
21.0
 40
21.0
 40
21.0
 40
22.0
 40
22.0
 40
22.0
 40
23.0
 40
23.0
 40
23.0
 40
24.0
 40
24.0
 40
24.0
 40
25.0
 40
25.0
 40
25.0
 40
26.0
 40
26.0
 40
26.0
 40
27.0
 40
27.0
 40
27.0
 40
28.0
 40
28.0
 40
28.0
 40
29.0
 40
29.0
 40
29.0
 40
30.0
 40
30.0
 40
30.0
 40
31.0
 40
31.0
 40
31.0
 40
32.0
 40
32.0
 40
32.0
 40
33.0
 40
33.0
 40
33.0
 40
34.0
 40
34.0
 40
34.0
 40
35.0
 40
35.0
 40
35.0
 40
36.0
 40
36.0
 40
36.0
 40
37.0
 40
37.0
 40
37.0
 40
38.0
 40
38.0
 40
38.0
 40
39.0
 40
39.0
 40
39.0
 40
40.0
 40
40.0
 40
40.0
 40
41.0
 40
41.0
 40
41.0
 40
42.0
 40
42.0
 40
42.0
 40
43.0
 40
43.0
 40
43.0
 40
44.0
 40
44.0
 40
44.0
 40
45.0
 40
45.0
 40
45.0
 40
46.0
 40
46.0
 40
46.0
 40
47.0
 40
47.0
 40
47.0
 40
48.0
 40
48.0
 40
48.0
 40
49.0
 40
49.0
 40
49.0
 40
50.0
 40
50.0
 40
50.0
 40
51.0
 40
51.0
 40
51.0
 40
52.0
 40
52.0
 40
52.0
 40
53.0
 40
53.0
 40
53.0
 40
54.0
 40
54.0
 40
54.0
 40
55.0
 40
55.0
 40
55.0
 40
56.0
 40
56.0
 40
56.0
 40
57.0
 40
57.0
 40
57.0
 40
58.0
 40
58.0
 40
58.0
 40
59.0
 40
59.0
 40
59.0
 40
60.0
 40
60.0
 40
60.0
 40
61.0
 40
61.0
 40
61.0
 40
62.0
 40
62.0
 40
62.0
 40
63.0
 40
63.0
 40
63.0
 40
64.0
 40
64.0
 40
64.0
 40
65.0
 40
65.0
 40
65.0
 40
66.0
 40
66.0
 40
66.0
 40
67.0
 40
67.0
 40
67.0
 40
68.0
 40
68.0
 40
68.0
 40
68.0
 10
185.8218918690316
 20
226.3865039760624
 30
0.0
 10
185.5457300410634
 20
226.3865039760624
 30
0.0
 10
185.3218566461723
 20
226.610377370956
 30
0.0
 10
185.3218566461723
 20
226.8865391989227
 30
0.0
 10
185.3218566461723
 20
226.8865391989227
 30
0.0
 10
185.3218566461723
 20
228.3866448674936
 30
0.0
 10
185.3218566461723
 20
228.3866448674936
 30
0.0
 10
185.3218566461723
 20
228.662806695458
 30
0.0
 10
185.0979832512723
 20
228.8866800903581
 30
0.0
 10
184.8218214233111
 20
228.8866800903581
 30
0.0
 10
184.8218214233111
 20
228.8866800903581
 30
0.0
 10
166.8205534004099
 20
228.8866800903581
 30
0.0
 10
166.8205534004099
 20
228.8866800903581
 30
0.0
 10
166.544391572448
 20
228.8866800903581
 30
0.0
 10
166.3205181775505
 20
229.1105534852479
 30
0.0
 10
166.3205181775505
 20
229.3867153132107
 30
0.0
 10
166.3205181775505
 20
229.3867153132107
 30
0.0
 10
166.3205181775505
 20
230.6368033703587
 30
0.0
 10
166.3205181775505
 20
230.6368033703587
 30
0.0
 10
166.3205181775505
 20
230.9129651983234
 30
0.0
 10
166.0966447826576
 20
231.1368385932129
 30
0.0
 10
165.820482954697
 20
231.1368385932129
 30
0.0
 10
165.820482954697
 20
231.1368385932129
 30
0.0
 10
148.8192853775068
 20
231.1368385932129
 30
0.0
 10
148.8192853775068
 20
231.1368385932129
 30
0.0
 10
148.5431235495481
 20
231.1368385932129
 30
0.0
 10
148.3192501546545
 20
230.9129651983234
 30
0.0
 10
148.3192501546545
 20
230.6368033703587
 30
0.0
 10
148.3192501546545
 20
230.6368033703587
 30
0.0
 10
148.3192501546545
 20
229.3867153132107
 30
0.0
 10
148.3192501546545
 20
229.3867153132107
 30
0.0
 10
148.3192501546545
 20
229.1105534852479
 30
0.0
 10
148.0953767597557
 20
228.8866800903581
 30
0.0
 10
147.8192149317939
 20
228.8866800903581
 30
0.0
 10
147.8192149317939
 20
228.8866800903581
 30
0.0
 10
129.8179469088946
 20
228.8866800903581
 30
0.0
 10
129.8179469088946
 20
228.8866800903581
 30
0.0
 10
129.5417850809302
 20
228.8866800903581
 30
0.0
 10
129.317911686034
 20
228.662806695458
 30
0.0
 10
129.317911686034
 20
228.3866448674936
 30
0.0
 10
129.317911686034
 20
228.3866448674936
 30
0.0
 10
129.317911686034
 20
224.6363806960576
 30
0.0
 10
129.317911686034
 20
224.6363806960576
 30
0.0
 10
129.317911686034
 20
224.3602188680983
 30
0.0
 10
129.094038291141
 20
224.1363454731973
 30
0.0
 10
128.8178764631734
 20
224.1363454731973
 30
0.0
 10
128.8178764631734
 20
224.1363454731973
 30
0.0
 10
110.3112672915181
 20
224.1363454731973
 30
0.0
 10
110.3112672915181
 20
224.1363454731973
 30
0.0
 10
110.0351054635549
 20
224.1363454731973
 30
0.0
 10
109.8112320686587
 20
223.9124720783076
 30
0.0
 10
109.8112320686587
 20
223.6363102503403
 30
0.0
 10
109.8112320686587
 20
223.6363102503403
 30
0.0
 10
109.8112320686587
 20
222.9702046093265
 30
0.0
 10
109.8112320686587
 20
222.9702046093265
 30
0.0
 10
109.8112320686587
 20
222.9702046093265
 30
0.0
 10
109.7679283932647
 20
222.7499478948873
 30
0.0
 10
109.7679283932647
 20
222.7499478948873
 30
0.0
 10
109.5370208683659
 20
221.3226448353483
 30
0.0
 10
108.3026216241534
 20
220.2315830951697
 30
0.0
 10
106.8101201325561
 20
220.2315830951697
 30
0.0
 10
106.8101201325561
 20
220.2315830951697
 30
0.0
 10
105.0666003711647
 20
220.2315830951697
 30
0.0
 10
105.0666003711647
 20
220.2315830951697
 30
0.0
 10
102.3743013131355
 20
220.2315830951697
 30
0.0
 10
100.0577114496196
 20
218.1625879378093
 30
0.0
 10
99.93108265868987
 20
215.4732818064829
 30
0.0
 10
99.7958841927406
 20
212.6019669743015
 30
0.0
 10
102.0838151681889
 20
210.2315690256753
 30
0.0
 10
104.9253729881162
 20
210.2315690256753
 30
0.0
 10
104.9253729881162
 20
210.2315690256753
 30
0.0
 10
106.8077300975635
 20
210.2315690256753
 30
0.0
 10
106.8077300975635
 20
210.2315690256753
 30
0.0
 10
108.3056576145504
 20
210.2315690256753
 30
0.0
 10
109.5435450179404
 20
209.1325189703402
 30
0.0
 10
109.7679283932647
 20
207.6975505733466
 30
0.0
 10
109.7679283932647
 20
207.6975505733466
 30
0.0
 10
109.7679283932647
 20
184.7881608289111
 30
0.0
 10
109.7679283932647
 20
184.7881608289111
 30
0.0
 10
109.5635481036023
 20
183.3302610150938
 30
0.0
 10
108.3148086494325
 20
182.2073106098298
 30
0.0
 10
106.8005815244316
 20
182.2073321416766
 30
0.0
 10
106.8005815244316
 20
182.2073321416766
 30
0.0
 10
105.0570617630399
 20
182.2073321416766
 30
0.0
 10
105.0570617630399
 20
182.2073321416766
 30
0.0
 10
102.364762705011
 20
182.2073321416766
 30
0.0
 10
100.0481728414948
 20
180.1383369843162
 30
0.0
 10
99.92154405056509
 20
177.4490308529899
 30
0.0
 10
99.78634558461582
 20
174.5777160208084
 30
0.0
 10
102.0742765600638
 20
172.2073180721822
 30
0.0
 10
104.9158343799914
 20
172.2073180721822
 30
0.0
 10
104.9158343799914
 20
172.2073180721822
 30
0.0
 10
106.7981914894384
 20
172.2073180721822
 30
0.0
 10
106.7981914894384
 20
172.2073180721822
 30
0.0
 10
108.3178446398289
 20
172.2073180721822
 30
0.0
 10
109.5703952308786
 20
171.0763793517618
 30
0.0
 10
109.7679283932647
 20
169.6108357323366
 30
0.0
 10
109.7679283932647
 20
169.6108357323366
 30
0.0
 10
109.8112320686587
 20
168.3824181244909
 30
0.0
 10
109.8112320686587
 20
168.3824181244909
 30
0.0
 10
109.8112320686587
 20
168.1062562965303
 30
0.0
 10
110.0351054635549
 20
167.8823829016287
 30
0.0
 10
110.3112672915181
 20
167.8823829016287
 30
0.0
 10
110.3112672915181
 20
167.8823829016287
 30
0.0
 10
146.8191444860752
 20
167.8823829016287
 30
0.0
 10
146.8191444860752
 20
167.8823829016287
 30
0.0
 10
146.9517620726809
 20
167.8823829016287
 30
0.0
 10
147.0789479881996
 20
167.8297007704807
 30
0.0
 10
147.1727227829898
 20
167.7359259756917
 30
0.0
 10
147.1691691420772
 20
167.7405997898474
 30
0.0
 10
157.7199123443901
 20
153.281354394173
 30
0.0
 10
157.7199123443901
 20
153.281354394173
 30
0.0
 10
157.8185494626136
 20
153.1968101381105
 30
0.0
 10
157.9406896989485
 20
153.144464322535
 30
0.0
 10
158.0699370003928
 20
153.1313438273122
 30
0.0
 10
158.0699370003928
 20
153.1313438273122
 30
0.0
 10
194.8637864007783
 20
147.6619688336454
 30
0.0
 10
194.8637864007783
 20
147.6619688336454
 30
0.0
 10
194.9589970661596
 20
147.6457054642766
 30
0.0
 10
195.0526985731803
 20
147.6215908532879
 30
0.0
 10
195.1439316503848
 20
147.589871874597
 30
0.0
 10
195.1439316503848
 20
147.589871874597
 30
0.0
 10
209.8935937211272
 20
139.1003516537322
 30
0.0
 10
209.8935937211272
 20
139.1003516537322
 30
0.0
 10
210.2869062586774
 20
138.8223445059762
 30
0.0
 10
210.8311183900759
 20
138.9158179930763
 30
0.0
 10
211.1091255378262
 20
139.3091305306195
 30
0.0
 10
211.1091255378262
 20
139.3091305306195
 30
0.0
 10
211.2153056017198
 20
139.513403112044
 30
0.0
 10
211.2153056017198
 20
139.513403112044
 30
0.0
 10
211.2153056017198
 20
139.513403112044
 30
0.0
 10
213.640869889723
 20
143.7454889669331
 30
0.0
 10
213.640869889723
 20
143.7454889669331
 30
0.0
 10
214.4698366047429
 20
145.1898530988423
 30
0.0
 10
216.3165932666447
 20
145.682605710914
 30
0.0
 10
217.7549163982253
 20
144.8432010830279
 30
0.0
 10
217.7549163982253
 20
144.8432010830279
 30
0.0
 10
219.3628963426443
 20
143.9047848278376
 30
0.0
 10
219.3628963426443
 20
143.9047848278376
 30
0.0
 10
221.7543582831117
 20
142.5240709161526
 30
0.0
 10
224.8123110074085
 20
143.3434440867822
 30
0.0
 10
226.193024919088
 20
145.734906027241
 30
0.0
 10
227.5737388307734
 20
148.1263679677109
 30
0.0
 10
226.7543656601167
 20
151.1843206919907
 30
0.0
 10
224.3629037196494
 20
152.5650346036757
 30
0.0
 10
224.3629037196494
 20
152.5650346036757
 30
0.0
 10
224.3629037196494
 20
152.5650346036757
 30
0.0
 10
224.3629037196494
 20
152.5650346036757
 30
0.0
 10
224.3629037196494
 20
152.5650346036757
 30
0.0
 10
222.7106393730433
 20
153.5339264887866
 30
0.0
 10
222.7106393730433
 20
153.5339264887866
 30
0.0
 10
221.2922203709319
 20
154.3656908875381
 30
0.0
 10
220.8076709134806
 20
156.1842457776512
 30
0.0
 10
221.6241796767704
 20
157.6115011577618
 30
0.0
 10
221.6241796767704
 20
157.6115011577618
 30
0.0
 10
224.1026885797553
 20
161.9370221296564
 30
0.0
 10
224.1026885797553
 20
161.9370221296564
 30
0.0
 10
224.1026885797553
 20
161.9370221296564
 30
0.0
 10
224.3609523687098
 20
162.3702114424165
 30
0.0
 10
224.3609523687098
 20
162.3702114424165
 30
0.0
 10
224.6677659612612
 20
162.954292644525
 30
0.0
 10
224.5056782718515
 20
163.6746823752168
 30
0.0
 10
223.9782610722106
 20
164.0710616490769
 30
0.0
 10
223.9782610722106
 20
164.0710616490769
 30
0.0
 10
204.9013210665503
 20
175.1084340418629
 30
0.0
 10
204.9013210665503
 20
175.1084340418629
 30
0.0
 10
204.6075510702327
 20
175.3680235972994
 30
0.0
 10
204.4047522688178
 20
175.7149647015901
 30
0.0
 10
204.3227036260577
 20
176.0983125439628
 30
0.0
 10
204.3227036260577
 20
176.0983125439628
 30
0.0
 10
204.3224995897999
 20
208.3911224315742
 30
0.0
 10
204.3224995897999
 20
208.3911224315742
 30
0.0
 10
204.3224995897999
 20
208.3911224315742
 30
0.0
 10
204.3231951147877
 20
224.6518755120428
 30
0.0
 10
204.3231951147877
 20
224.6518755120428
 30
0.0
 10
204.3231951147877
 20
224.6518755120428
 30
0.0
 10
204.3231951147877
 20
225.8864687532015
 30
0.0
 10
204.3231951147877
 20
225.8864687532015
 30
0.0
 10
204.3231951147877
 20
226.1626305811659
 30
0.0
 10
204.0993217198934
 20
226.3865039760624
 30
0.0
 10
203.8231598919251
 20
226.3865039760624
 30
0.0
 10
203.8231598919251
 20
226.3865039760624
 30
0.0
 10
203.2154550030332
 20
226.3939712592095
 30
0.0
 10
203.2154550030332
 20
226.3939712592095
 30
0.0
 10
201.5595052061425
 20
226.3952490553565
 30
0.0
 10
200.2177699210399
 20
227.7380200760168
 30
0.0
 10
200.2177699213646
 20
229.3939703659068
 30
0.0
 10
200.2177699213646
 20
229.3939703659068
 30
0.0
 10
200.2177699217329
 20
231.278322361909
 30
0.0
 10
200.2177699217329
 20
231.278322361909
 30
0.0
 10
200.2177699217329
 20
234.1198885072701
 30
0.0
 10
197.8473716560625
 20
236.4078184730692
 30
0.0
 10
194.9760647705472
 20
236.272615294272
 30
0.0
 10
192.2867581213781
 20
236.1459820843004
 30
0.0
 10
190.2177652852851
 20
233.8293814076513
 30
0.0
 10
190.217766964913
 20
231.1370949772864
 30
0.0
 10
190.217766964913
 20
231.1370949772864
 30
0.0
 10
190.2177680520693
 20
229.3944846326192
 30
0.0
 10
190.2177680520693
 20
229.3944846326192
 30
0.0
 10
190.2177690852869
 20
227.7383333001145
 30
0.0
 10
188.8757210003708
 20
226.3954780502251
 30
0.0
 10
187.2195699666076
 20
226.3944833029176
 30
0.0
 10
187.2195699666076
 20
226.3944833029176
 30
0.0
 10
185.8218918690316
 20
226.3865039760624
 30
0.0
 10
185.8218918690316
 20
226.3865039760624
 30
0.0
  0
ENDBLK
  5
4E
330
4B
100
AcDbEntity
  8
0
100
AcDbBlockEnd
  0
BLOCK
  5
51
330
4F
100
AcDbEntity
  8
0
100
AcDbBlockBegin
  2
block 4
 70
     0
 10
0.0
 20
0.0
 30
0.0
  3
block 4
  1

  0
SPLINE
  5
53
330
4F
100
AcDbEntity
  8
_U+5207_U+65AD_U+30D1_U+30B9
 62
     1
420
 16711680
370
     9
100
AcDbSpline
210
0.0
220
0.0
230
1.0
 70
    11
 71
     3
 72
    20
 73
    16
 74
     0
 42
0.0000000001
 43
0.0000000001
 12
1.0
 22
0.0
 32
0.0
 13
1.0
 23
0.0
 33
0.0
 40
0.0
 40
0.0
 40
0.0
 40
0.0
 40
1.0
 40
1.0
 40
1.0
 40
2.0
 40
2.0
 40
2.0
 40
3.0
 40
3.0
 40
3.0
 40
4.0
 40
4.0
 40
4.0
 40
5.0
 40
5.0
 40
5.0
 40
5.0
 10
192.6177699236334
 20
231.2783223619212
 30
0.0
 10
192.6177699236334
 20
232.7142627111268
 30
0.0
 10
193.7818295737765
 20
233.8783223612847
 30
0.0
 10
195.2177699229834
 20
233.8783223612847
 30
0.0
 10
196.6537102721833
 20
233.8783223612847
 30
0.0
 10
197.8177699223335
 20
232.7142627111268
 30
0.0
 10
197.8177699223335
 20
231.2783223619212
 30
0.0
 10
197.8177699223335
 20
229.8423820127367
 30
0.0
 10
196.6537102721833
 20
228.6783223625846
 30
0.0
 10
195.2177699229834
 20
228.6783223625846
 30
0.0
 10
193.7818295737765
 20
228.6783223625846
 30
0.0
 10
192.6177699236334
 20
229.8423820127367
 30
0.0
 10
192.6177699236334
 20
231.2783223619212
 30
0.0
 10
192.6177699236334
 20
231.2783223619212
 30
0.0
 10
192.6177699236334
 20
231.2783223619212
 30
0.0
 10
192.6177699236334
 20
231.2783223619212
 30
0.0
  0
ENDBLK
  5
52
330
4F
100
AcDbEntity
  8
0
100
AcDbBlockEnd
  0
BLOCK
  5
58
330
56
100
AcDbEntity
  8
0
100
AcDbBlockBegin
  2
block 5
 70
     0
 10
0.0
 20
0.0
 30
0.0
  3
block 5
  1

  0
SPLINE
  5
5A
330
56
100
AcDbEntity
  8
_U+5207_U+65AD_U+30D1_U+30B9
 62
     1
420
 16711680
370
     9
100
AcDbSpline
210
0.0
220
0.0
230
1.0
 70
    11
 71
     3
 72
    20
 73
    16
 74
     0
 42
0.0000000001
 43
0.0000000001
 12
1.0
 22
0.0
 32
0.0
 13
1.0
 23
0.0
 33
0.0
 40
0.0
 40
0.0
 40
0.0
 40
0.0
 40
1.0
 40
1.0
 40
1.0
 40
2.0
 40
2.0
 40
2.0
 40
3.0
 40
3.0
 40
3.0
 40
4.0
 40
4.0
 40
4.0
 40
5.0
 40
5.0
 40
5.0
 40
5.0
 10
104.8932702393717
 20
212.6172504081964
 30
0.0
 10
103.4573298901661
 20
212.6172504081964
 30
0.0
 10
102.2932702400081
 20
213.7813100583405
 30
0.0
 10
102.2932702400081
 20
215.2172504075468
 30
0.0
 10
102.2932702400081
 20
216.6531907567466
 30
0.0
 10
103.4573298901661
 20
217.8172504068962
 30
0.0
 10
104.8932702393717
 20
217.8172504068962
 30
0.0
 10
106.3292105885561
 20
217.8172504068962
 30
0.0
 10
107.4932702387082
 20
216.6531907567466
 30
0.0
 10
107.4932702387082
 20
215.2172504075468
 30
0.0
 10
107.4932702387082
 20
213.7813100583405
 30
0.0
 10
106.3292105885561
 20
212.6172504081964
 30
0.0
 10
104.8932702393717
 20
212.6172504081964
 30
0.0
 10
104.8932702393717
 20
212.6172504081964
 30
0.0
 10
104.8932702393717
 20
212.6172504081964
 30
0.0
 10
104.8932702393717
 20
212.6172504081964
 30
0.0
  0
ENDBLK
  5
59
330
56
100
AcDbEntity
  8
0
100
AcDbBlockEnd
  0
BLOCK
  5
5D
330
5B
100
AcDbEntity
  8
0
100
AcDbBlockBegin
  2
block 6
 70
     0
 10
0.0
 20
0.0
 30
0.0
  3
block 6
  1

  0
SPLINE
  5
5F
330
5B
100
AcDbEntity
  8
_U+5207_U+65AD_U+30D1_U+30B9
 62
     1
420
 16711680
370
     9
100
AcDbSpline
210
0.0
220
0.0
230
1.0
 70
    11
 71
     3
 72
    20
 73
    16
 74
     0
 42
0.0000000001
 43
0.0000000001
 12
1.0
 22
0.0
 32
0.0
 13
1.0
 23
0.0
 33
0.0
 40
0.0
 40
0.0
 40
0.0
 40
0.0
 40
1.0
 40
1.0
 40
1.0
 40
2.0
 40
2.0
 40
2.0
 40
3.0
 40
3.0
 40
3.0
 40
4.0
 40
4.0
 40
4.0
 40
5.0
 40
5.0
 40
5.0
 40
5.0
 10
104.8837319966592
 20
174.5929943195135
 30
0.0
 10
103.4477916474536
 20
174.5929943195135
 30
0.0
 10
102.2837319972957
 20
175.7570539696573
 30
0.0
 10
102.2837319972957
 20
177.1929943188636
 30
0.0
 10
102.2837319972957
 20
178.6289346680634
 30
0.0
 10
103.4477916474536
 20
179.7929943182129
 30
0.0
 10
104.8837319966592
 20
179.7929943182129
 30
0.0
 10
106.3196723458436
 20
179.7929943182129
 30
0.0
 10
107.4837319959964
 20
178.6289346680634
 30
0.0
 10
107.4837319959964
 20
177.1929943188636
 30
0.0
 10
107.4837319959964
 20
175.7570539696573
 30
0.0
 10
106.3196723458436
 20
174.5929943195135
 30
0.0
 10
104.8837319966592
 20
174.5929943195135
 30
0.0
 10
104.8837319966592
 20
174.5929943195135
 30
0.0
 10
104.8837319966592
 20
174.5929943195135
 30
0.0
 10
104.8837319966592
 20
174.5929943195135
 30
0.0
  0
ENDBLK
  5
5E
330
5B
100
AcDbEntity
  8
0
100
AcDbBlockEnd
  0
BLOCK
  5
62
330
60
100
AcDbEntity
  8
0
100
AcDbBlockBegin
  2
block 7
 70
     0
 10
0.0
 20
0.0
 30
0.0
  3
block 7
  1

  0
SPLINE
  5
64
330
60
100
AcDbEntity
  8
_U+5207_U+65AD_U+30D1_U+30B9
 62
     1
420
 16711680
370
     9
100
AcDbSpline
210
0.0
220
0.0
230
1.0
 70
    11
 71
     3
 72
    17
 73
    13
 74
     0
 42
0.0000000001
 43
0.0000000001
 12
1.0
 22
0.0
 32
0.0
 13
1.0
 23
0.0
 33
0.0
 40
0.0
 40
0.0
 40
0.0
 40
0.0
 40
1.0
 40
1.0
 40
1.0
 40
2.0
 40
2.0
 40
2.0
 40
3.0
 40
3.0
 40
3.0
 40
4.0
 40
4.0
 40
4.0
 40
4.0
 10
184.74110555429
 20
209.135362571131
 30
0.0
 10
184.74110555429
 20
209.7429185926475
 30
0.0
 10
185.2336270230623
 20
210.2354400614143
 30
0.0
 10
185.8411830445824
 20
210.2354400614143
 30
0.0
 10
186.4487390661031
 20
210.2354400614143
 30
0.0
 10
186.941260534867
 20
209.7429185926475
 30
0.0
 10
186.941260534867
 20
209.135362571131
 30
0.0
 10
186.941260534867
 20
208.5278065496077
 30
0.0
 10
186.4487390661031
 20
208.0352850808374
 30
0.0
 10
185.8411830445824
 20
208.0352850808374
 30
0.0
 10
185.2336270230623
 20
208.0352850808374
 30
0.0
 10
184.74110555429
 20
208.5278065496077
 30
0.0
 10
184.74110555429
 20
209.135362571131
 30
0.0
  0
ENDBLK
  5
63
330
60
100
AcDbEntity
  8
0
100
AcDbBlockEnd
  0
BLOCK
  5
67
330
65
100
AcDbEntity
  8
0
100
AcDbBlockBegin
  2
block 8
 70
     0
 10
0.0
 20
0.0
 30
0.0
  3
block 8
  1

  0
SPLINE
  5
69
330
65
100
AcDbEntity
  8
_U+5207_U+65AD_U+30D1_U+30B9
 62
     1
420
 16711680
370
     9
100
AcDbSpline
210
0.0
220
0.0
230
1.0
 70
    11
 71
     3
 72
    17
 73
    13
 74
     0
 42
0.0000000001
 43
0.0000000001
 12
1.0
 22
0.0
 32
0.0
 13
1.0
 23
0.0
 33
0.0
 40
0.0
 40
0.0
 40
0.0
 40
0.0
 40
1.0
 40
1.0
 40
1.0
 40
2.0
 40
2.0
 40
2.0
 40
3.0
 40
3.0
 40
3.0
 40
4.0
 40
4.0
 40
4.0
 40
4.0
 10
127.7282080208241
 20
205.5129656036174
 30
0.0
 10
127.7282080208241
 20
206.1205216251342
 30
0.0
 10
128.2207294895906
 20
206.6130430939049
 30
0.0
 10
128.82828551111
 20
206.6130430939049
 30
0.0
 10
129.4358415326307
 20
206.6130430939049
 30
0.0
 10
129.9283630014017
 20
206.1205216251342
 30
0.0
 10
129.9283630014017
 20
205.5129656036174
 30
0.0
 10
129.9283630014017
 20
204.9054095821025
 30
0.0
 10
129.4358415326307
 20
204.4128881133318
 30
0.0
 10
128.82828551111
 20
204.4128881133318
 30
0.0
 10
128.2207294895906
 20
204.4128881133318
 30
0.0
 10
127.7282080208241
 20
204.9054095821025
 30
0.0
 10
127.7282080208241
 20
205.5129656036174
 30
0.0
  0
ENDBLK
  5
68
330
65
100
AcDbEntity
  8
0
100
AcDbBlockEnd
  0
BLOCK
  5
6C
330
6A
100
AcDbEntity
  8
0
100
AcDbBlockBegin
  2
block 9
 70
     0
 10
0.0
 20
0.0
 30
0.0
  3
block 9
  1

  0
SPLINE
  5
6E
330
6A
100
AcDbEntity
  8
_U+5207_U+65AD_U+30D1_U+30B9
 62
     1
420
 16711680
370
     9
100
AcDbSpline
210
0.0
220
0.0
230
1.0
 70
    11
 71
     3
 72
    17
 73
    13
 74
     0
 42
0.0000000001
 43
0.0000000001
 12
1.0
 22
0.0
 32
0.0
 13
1.0
 23
0.0
 33
0.0
 40
0.0
 40
0.0
 40
0.0
 40
0.0
 40
1.0
 40
1.0
 40
1.0
 40
2.0
 40
2.0
 40
2.0
 40
3.0
 40
3.0
 40
3.0
 40
4.0
 40
4.0
 40
4.0
 40
4.0
 10
127.7194126160425
 20
186.4978291763696
 30
0.0
 10
127.7194126160425
 20
187.1053851978852
 30
0.0
 10
128.2119340848141
 20
187.5979066666632
 30
0.0
 10
128.8194901063271
 20
187.5979066666632
 30
0.0
 10
129.4270461278491
 20
187.5979066666632
 30
0.0
 10
129.9195675966195
 20
187.1053851978852
 30
0.0
 10
129.9195675966195
 20
186.4978291763696
 30
0.0
 10
129.9195675966195
 20
185.8902731548495
 30
0.0
 10
129.4270461278491
 20
185.3977516860827
 30
0.0
 10
128.8194901063271
 20
185.3977516860827
 30
0.0
 10
128.2119340848141
 20
185.3977516860827
 30
0.0
 10
127.7194126160425
 20
185.8902731548495
 30
0.0
 10
127.7194126160425
 20
186.4978291763696
 30
0.0
  0
ENDBLK
  5
6D
330
6A
100
AcDbEntity
  8
0
100
AcDbBlockEnd
  0
BLOCK
  5
71
330
6F
100
AcDbEntity
  8
0
100
AcDbBlockBegin
  2
block 10
 70
     0
 10
0.0
 20
0.0
 30
0.0
  3
block 10
  1

  0
SPLINE
  5
73
330
6F
100
AcDbEntity
  8
_U+5207_U+65AD_U+30D1_U+30B9
 62
     1
420
 16711680
370
     9
100
AcDbSpline
210
0.0
220
0.0
230
1.0
 70
    11
 71
     3
 72
    17
 73
    13
 74
     0
 42
0.0000000001
 43
0.0000000001
 12
1.0
 22
0.0
 32
0.0
 13
1.0
 23
0.0
 33
0.0
 40
0.0
 40
0.0
 40
0.0
 40
0.0
 40
1.0
 40
1.0
 40
1.0
 40
2.0
 40
2.0
 40
2.0
 40
3.0
 40
3.0
 40
3.0
 40
4.0
 40
4.0
 40
4.0
 40
4.0
 10
198.4827967184478
 20
161.6336026157305
 30
0.0
 10
198.4827967184478
 20
162.2411586372509
 30
0.0
 10
198.975318187213
 20
162.7336801060215
 30
0.0
 10
199.5828742087305
 20
162.7336801060215
 30
0.0
 10
200.1904302302512
 20
162.7336801060215
 30
0.0
 10
200.6829516990164
 20
162.2411586372509
 30
0.0
 10
200.6829516990164
 20
161.6336026157305
 30
0.0
 10
200.6829516990164
 20
161.0260465942191
 30
0.0
 10
200.1904302302512
 20
160.5335251254449
 30
0.0
 10
199.5828742087305
 20
160.5335251254449
 30
0.0
 10
198.975318187213
 20
160.5335251254449
 30
0.0
 10
198.4827967184478
 20
161.0260465942191
 30
0.0
 10
198.4827967184478
 20
161.6336026157305
 30
0.0
  0
ENDBLK
  5
72
330
6F
100
AcDbEntity
  8
0
100
AcDbBlockEnd
  0
BLOCK
  5
76
330
74
100
AcDbEntity
  8
0
100
AcDbBlockBegin
  2
block 11
 70
     0
 10
0.0
 20
0.0
 30
0.0
  3
block 11
  1

  0
SPLINE
  5
78
330
74
100
AcDbEntity
  8
_U+5207_U+65AD_U+30D1_U+30B9
 62
     1
420
 16711680
370
     9
100
AcDbSpline
210
0.0
220
0.0
230
1.0
 70
    11
 71
     3
 72
    17
 73
    13
 74
     0
 42
0.0000000001
 43
0.0000000001
 12
1.0
 22
0.0
 32
0.0
 13
1.0
 23
0.0
 33
0.0
 40
0.0
 40
0.0
 40
0.0
 40
0.0
 40
1.0
 40
1.0
 40
1.0
 40
2.0
 40
2.0
 40
2.0
 40
3.0
 40
3.0
 40
3.0
 40
4.0
 40
4.0
 40
4.0
 40
4.0
 10
151.9628403624322
 20
169.3881084908149
 30
0.0
 10
151.9628403624322
 20
169.9956645123357
 30
0.0
 10
152.4553618311961
 20
170.488185981106
 30
0.0
 10
153.0629178527188
 20
170.488185981106
 30
0.0
 10
153.6704738742388
 20
170.488185981106
 30
0.0
 10
154.1629953430028
 20
169.9956645123357
 30
0.0
 10
154.1629953430028
 20
169.3881084908149
 30
0.0
 10
154.1629953430028
 20
168.7805524692958
 30
0.0
 10
153.6704738742388
 20
168.2880310005332
 30
0.0
 10
153.0629178527188
 20
168.2880310005332
 30
0.0
 10
152.4553618311961
 20
168.2880310005332
 30
0.0
 10
151.9628403624322
 20
168.7805524692958
 30
0.0
 10
151.9628403624322
 20
169.3881084908149
 30
0.0
  0
ENDBLK
  5
77
330
74
100
AcDbEntity
  8
0
100
AcDbBlockEnd
  0
BLOCK
  5
7B
330
79
100
AcDbEntity
  8
0
100
AcDbBlockBegin
  2
block 12
 70
     0
 10
0.0
 20
0.0
 30
0.0
  3
block 12
  1

  0
POLYLINE
  5
7D
330
79
100
AcDbEntity
  8
_U+5207_U+65AD_U+30D1_U+30B9
 62
     1
420
 16711680
370
     9
100
AcDb2dPolyline
 66
     1
 10
0.0
 20
0.0
 30
0.0
  0
VERTEX
  5
7E
330
7D
100
AcDbEntity
  8
_U+5207_U+65AD_U+30D1_U+30B9
 62
     1
420
 16711680
370
     9
100
AcDbVertex
100
AcDb2dVertex
 10
112.3866674842707
 20
221.9459785758701
 30
0.0
  0
VERTEX
  5
7F
330
7D
100
AcDbEntity
  8
_U+5207_U+65AD_U+30D1_U+30B9
 62
     1
420
 16711680
370
     9
100
AcDbVertex
100
AcDb2dVertex
 10
112.3866674842707
 20
208.0950029026935
 30
0.0
  0
VERTEX
  5
80
330
7D
100
AcDbEntity
  8
_U+5207_U+65AD_U+30D1_U+30B9
 62
     1
420
 16711680
370
     9
100
AcDbVertex
100
AcDb2dVertex
 10
126.2376431574483
 20
208.0950029026935
 30
0.0
  0
VERTEX
  5
81
330
7D
100
AcDbEntity
  8
_U+5207_U+65AD_U+30D1_U+30B9
 62
     1
420
 16711680
370
     9
100
AcDbVertex
100
AcDb2dVertex
 10
126.2376431574483
 20
221.9459785758701
 30
0.0
  0
VERTEX
  5
82
330
7D
100
AcDbEntity
  8
_U+5207_U+65AD_U+30D1_U+30B9
 62
     1
420
 16711680
370
     9
100
AcDbVertex
100
AcDb2dVertex
 10
112.3866674842707
 20
221.9459785758701
 30
0.0
  0
SEQEND
  5
83
330
7D
100
AcDbEntity
  8
_U+5207_U+65AD_U+30D1_U+30B9
 62
     1
420
 16711680
370
     9
  0
ENDBLK
  5
7C
330
79
100
AcDbEntity
  8
0
100
AcDbBlockEnd
  0
BLOCK
  5
86
330
84
100
AcDbEntity
  8
0
100
AcDbBlockBegin
  2
block 13
 70
     0
 10
0.0
 20
0.0
 30
0.0
  3
block 13
  1

  0
POLYLINE
  5
88
330
84
100
AcDbEntity
  8
_U+5207_U+65AD_U+30D1_U+30B9
 62
     1
420
 16711680
370
     9
100
AcDb2dPolyline
 66
     1
 10
0.0
 20
0.0
 30
0.0
  0
VERTEX
  5
89
330
88
100
AcDbEntity
  8
_U+5207_U+65AD_U+30D1_U+30B9
 62
     1
420
 16711680
370
     9
100
AcDbVertex
100
AcDb2dVertex
 10
112.3866674842707
 20
202.9446401072557
 30
0.0
  0
VERTEX
  5
8A
330
88
100
AcDbEntity
  8
_U+5207_U+65AD_U+30D1_U+30B9
 62
     1
420
 16711680
370
     9
100
AcDbVertex
100
AcDb2dVertex
 10
112.3866674842707
 20
189.0936644340746
 30
0.0
  0
VERTEX
  5
8B
330
88
100
AcDbEntity
  8
_U+5207_U+65AD_U+30D1_U+30B9
 62
     1
420
 16711680
370
     9
100
AcDbVertex
100
AcDb2dVertex
 10
126.2376431574483
 20
189.0936644340746
 30
0.0
  0
VERTEX
  5
8C
330
88
100
AcDbEntity
  8
_U+5207_U+65AD_U+30D1_U+30B9
 62
     1
420
 16711680
370
     9
100
AcDbVertex
100
AcDb2dVertex
 10
126.2376431574483
 20
202.9446401072557
 30
0.0
  0
VERTEX
  5
8D
330
88
100
AcDbEntity
  8
_U+5207_U+65AD_U+30D1_U+30B9
 62
     1
420
 16711680
370
     9
100
AcDbVertex
100
AcDb2dVertex
 10
112.3866674842707
 20
202.9446401072557
 30
0.0
  0
SEQEND
  5
8E
330
88
100
AcDbEntity
  8
_U+5207_U+65AD_U+30D1_U+30B9
 62
     1
420
 16711680
370
     9
  0
ENDBLK
  5
87
330
84
100
AcDbEntity
  8
0
100
AcDbBlockEnd
  0
BLOCK
  5
91
330
8F
100
AcDbEntity
  8
0
100
AcDbBlockBegin
  2
block 14
 70
     0
 10
0.0
 20
0.0
 30
0.0
  3
block 14
  1

  0
POLYLINE
  5
93
330
8F
100
AcDbEntity
  8
_U+5207_U+65AD_U+30D1_U+30B9
 62
     1
420
 16711680
370
     9
100
AcDb2dPolyline
 66
     1
 10
0.0
 20
0.0
 30
0.0
  0
VERTEX
  5
94
330
93
100
AcDbEntity
  8
_U+5207_U+65AD_U+30D1_U+30B9
 62
     1
420
 16711680
370
     9
100
AcDbVertex
100
AcDb2dVertex
 10
112.3866674842707
 20
183.9433016386368
 30
0.0
  0
VERTEX
  5
95
330
93
100
AcDbEntity
  8
_U+5207_U+65AD_U+30D1_U+30B9
 62
     1
420
 16711680
370
     9
100
AcDbVertex
100
AcDb2dVertex
 10
112.3866674842707
 20
170.0923259654605
 30
0.0
  0
VERTEX
  5
96
330
93
100
AcDbEntity
  8
_U+5207_U+65AD_U+30D1_U+30B9
 62
     1
420
 16711680
370
     9
100
AcDbVertex
100
AcDb2dVertex
 10
126.2376431574483
 20
170.0923259654612
 30
0.0
  0
VERTEX
  5
97
330
93
100
AcDbEntity
  8
_U+5207_U+65AD_U+30D1_U+30B9
 62
     1
420
 16711680
370
     9
100
AcDbVertex
100
AcDb2dVertex
 10
126.2376431574483
 20
183.9433016386368
 30
0.0
  0
VERTEX
  5
98
330
93
100
AcDbEntity
  8
_U+5207_U+65AD_U+30D1_U+30B9
 62
     1
420
 16711680
370
     9
100
AcDbVertex
100
AcDb2dVertex
 10
112.3866674842707
 20
183.9433016386368
 30
0.0
  0
SEQEND
  5
99
330
93
100
AcDbEntity
  8
_U+5207_U+65AD_U+30D1_U+30B9
 62
     1
420
 16711680
370
     9
  0
ENDBLK
  5
92
330
8F
100
AcDbEntity
  8
0
100
AcDbBlockEnd
  0
BLOCK
  5
9C
330
9A
100
AcDbEntity
  8
0
100
AcDbBlockBegin
  2
block 15
 70
     0
 10
0.0
 20
0.0
 30
0.0
  3
block 15
  1

  0
POLYLINE
  5
9E
330
9A
100
AcDbEntity
  8
_U+5207_U+65AD_U+30D1_U+30B9
 62
     1
420
 16711680
370
     9
100
AcDb2dPolyline
 66
     1
 10
0.0
 20
0.0
 30
0.0
  0
VERTEX
  5
9F
330
9E
100
AcDbEntity
  8
_U+5207_U+65AD_U+30D1_U+30B9
 62
     1
420
 16711680
370
     9
100
AcDbVertex
100
AcDb2dVertex
 10
131.3880059528937
 20
226.6963131930235
 30
0.0
  0
VERTEX
  5
A0
330
9E
100
AcDbEntity
  8
_U+5207_U+65AD_U+30D1_U+30B9
 62
     1
420
 16711680
370
     9
100
AcDbVertex
100
AcDb2dVertex
 10
131.3880059528937
 20
212.8453375198503
 30
0.0
  0
VERTEX
  5
A1
330
9E
100
AcDbEntity
  8
_U+5207_U+65AD_U+30D1_U+30B9
 62
     1
420
 16711680
370
     9
100
AcDbVertex
100
AcDb2dVertex
 10
145.2389816260688
 20
212.8453375198503
 30
0.0
  0
VERTEX
  5
A2
330
9E
100
AcDbEntity
  8
_U+5207_U+65AD_U+30D1_U+30B9
 62
     1
420
 16711680
370
     9
100
AcDbVertex
100
AcDb2dVertex
 10
145.2389816260688
 20
226.6963131930235
 30
0.0
  0
VERTEX
  5
A3
330
9E
100
AcDbEntity
  8
_U+5207_U+65AD_U+30D1_U+30B9
 62
     1
420
 16711680
370
     9
100
AcDbVertex
100
AcDb2dVertex
 10
131.3880059528937
 20
226.6963131930235
 30
0.0
  0
SEQEND
  5
A4
330
9E
100
AcDbEntity
  8
_U+5207_U+65AD_U+30D1_U+30B9
 62
     1
420
 16711680
370
     9
  0
ENDBLK
  5
9D
330
9A
100
AcDbEntity
  8
0
100
AcDbBlockEnd
  0
BLOCK
  5
A7
330
A5
100
AcDbEntity
  8
0
100
AcDbBlockBegin
  2
block 16
 70
     0
 10
0.0
 20
0.0
 30
0.0
  3
block 16
  1

  0
POLYLINE
  5
A9
330
A5
100
AcDbEntity
  8
_U+5207_U+65AD_U+30D1_U+30B9
 62
     1
420
 16711680
370
     9
100
AcDb2dPolyline
 66
     1
 10
0.0
 20
0.0
 30
0.0
  0
VERTEX
  5
AA
330
A9
100
AcDbEntity
  8
_U+5207_U+65AD_U+30D1_U+30B9
 62
     1
420
 16711680
370
     9
100
AcDbVertex
100
AcDb2dVertex
 10
131.3880059528937
 20
207.6949747244088
 30
0.0
  0
VERTEX
  5
AB
330
A9
100
AcDbEntity
  8
_U+5207_U+65AD_U+30D1_U+30B9
 62
     1
420
 16711680
370
     9
100
AcDbVertex
100
AcDb2dVertex
 10
131.3880059528937
 20
193.8439990512353
 30
0.0
  0
VERTEX
  5
AC
330
A9
100
AcDbEntity
  8
_U+5207_U+65AD_U+30D1_U+30B9
 62
     1
420
 16711680
370
     9
100
AcDbVertex
100
AcDb2dVertex
 10
145.2389816260688
 20
193.8439990512353
 30
0.0
  0
VERTEX
  5
AD
330
A9
100
AcDbEntity
  8
_U+5207_U+65AD_U+30D1_U+30B9
 62
     1
420
 16711680
370
     9
100
AcDbVertex
100
AcDb2dVertex
 10
145.2389816260688
 20
207.6949747244088
 30
0.0
  0
VERTEX
  5
AE
330
A9
100
AcDbEntity
  8
_U+5207_U+65AD_U+30D1_U+30B9
 62
     1
420
 16711680
370
     9
100
AcDbVertex
100
AcDb2dVertex
 10
131.3880059528937
 20
207.6949747244088
 30
0.0
  0
SEQEND
  5
AF
330
A9
100
AcDbEntity
  8
_U+5207_U+65AD_U+30D1_U+30B9
 62
     1
420
 16711680
370
     9
  0
ENDBLK
  5
A8
330
A5
100
AcDbEntity
  8
0
100
AcDbBlockEnd
  0
BLOCK
  5
B2
330
B0
100
AcDbEntity
  8
0
100
AcDbBlockBegin
  2
block 17
 70
     0
 10
0.0
 20
0.0
 30
0.0
  3
block 17
  1

  0
POLYLINE
  5
B4
330
B0
100
AcDbEntity
  8
_U+5207_U+65AD_U+30D1_U+30B9
 62
     1
420
 16711680
370
     9
100
AcDb2dPolyline
 66
     1
 10
0.0
 20
0.0
 30
0.0
  0
VERTEX
  5
B5
330
B4
100
AcDbEntity
  8
_U+5207_U+65AD_U+30D1_U+30B9
 62
     1
420
 16711680
370
     9
100
AcDbVertex
100
AcDb2dVertex
 10
131.3880059528937
 20
188.6936362557873
 30
0.0
  0
VERTEX
  5
B6
330
B4
100
AcDbEntity
  8
_U+5207_U+65AD_U+30D1_U+30B9
 62
     1
420
 16711680
370
     9
100
AcDbVertex
100
AcDb2dVertex
 10
131.3880059528937
 20
174.8426605826142
 30
0.0
  0
VERTEX
  5
B7
330
B4
100
AcDbEntity
  8
_U+5207_U+65AD_U+30D1_U+30B9
 62
     1
420
 16711680
370
     9
100
AcDbVertex
100
AcDb2dVertex
 10
145.2389816260688
 20
174.8426605826142
 30
0.0
  0
VERTEX
  5
B8
330
B4
100
AcDbEntity
  8
_U+5207_U+65AD_U+30D1_U+30B9
 62
     1
420
 16711680
370
     9
100
AcDbVertex
100
AcDb2dVertex
 10
145.2389816260688
 20
188.6936362557873
 30
0.0
  0
VERTEX
  5
B9
330
B4
100
AcDbEntity
  8
_U+5207_U+65AD_U+30D1_U+30B9
 62
     1
420
 16711680
370
     9
100
AcDbVertex
100
AcDb2dVertex
 10
131.3880059528937
 20
188.6936362557873
 30
0.0
  0
SEQEND
  5
BA
330
B4
100
AcDbEntity
  8
_U+5207_U+65AD_U+30D1_U+30B9
 62
     1
420
 16711680
370
     9
  0
ENDBLK
  5
B3
330
B0
100
AcDbEntity
  8
0
100
AcDbBlockEnd
  0
BLOCK
  5
BD
330
BB
100
AcDbEntity
  8
0
100
AcDbBlockBegin
  2
block 18
 70
     0
 10
0.0
 20
0.0
 30
0.0
  3
block 18
  1

  0
POLYLINE
  5
BF
330
BB
100
AcDbEntity
  8
_U+5207_U+65AD_U+30D1_U+30B9
 62
     1
420
 16711680
370
     9
100
AcDb2dPolyline
 66
     1
 10
0.0
 20
0.0
 30
0.0
  0
VERTEX
  5
C0
330
BF
100
AcDbEntity
  8
_U+5207_U+65AD_U+30D1_U+30B9
 62
     1
420
 16711680
370
     9
100
AcDbVertex
100
AcDb2dVertex
 10
150.3893444215078
 20
229.0714805015982
 30
0.0
  0
VERTEX
  5
C1
330
BF
100
AcDbEntity
  8
_U+5207_U+65AD_U+30D1_U+30B9
 62
     1
420
 16711680
370
     9
100
AcDbVertex
100
AcDb2dVertex
 10
150.3893444215078
 20
215.2205048284261
 30
0.0
  0
VERTEX
  5
C2
330
BF
100
AcDbEntity
  8
_U+5207_U+65AD_U+30D1_U+30B9
 62
     1
420
 16711680
370
     9
100
AcDbVertex
100
AcDb2dVertex
 10
164.2403200946835
 20
215.2205048284261
 30
0.0
  0
VERTEX
  5
C3
330
BF
100
AcDbEntity
  8
_U+5207_U+65AD_U+30D1_U+30B9
 62
     1
420
 16711680
370
     9
100
AcDbVertex
100
AcDb2dVertex
 10
164.2403200946835
 20
229.0714805015982
 30
0.0
  0
VERTEX
  5
C4
330
BF
100
AcDbEntity
  8
_U+5207_U+65AD_U+30D1_U+30B9
 62
     1
420
 16711680
370
     9
100
AcDbVertex
100
AcDb2dVertex
 10
150.3893444215078
 20
229.0714805015982
 30
0.0
  0
SEQEND
  5
C5
330
BF
100
AcDbEntity
  8
_U+5207_U+65AD_U+30D1_U+30B9
 62
     1
420
 16711680
370
     9
  0
ENDBLK
  5
BE
330
BB
100
AcDbEntity
  8
0
100
AcDbBlockEnd
  0
BLOCK
  5
C8
330
C6
100
AcDbEntity
  8
0
100
AcDbBlockBegin
  2
block 19
 70
     0
 10
0.0
 20
0.0
 30
0.0
  3
block 19
  1

  0
POLYLINE
  5
CA
330
C6
100
AcDbEntity
  8
_U+5207_U+65AD_U+30D1_U+30B9
 62
     1
420
 16711680
370
     9
100
AcDb2dPolyline
 66
     1
 10
0.0
 20
0.0
 30
0.0
  0
VERTEX
  5
CB
330
CA
100
AcDbEntity
  8
_U+5207_U+65AD_U+30D1_U+30B9
 62
     1
420
 16711680
370
     9
100
AcDbVertex
100
AcDb2dVertex
 10
150.3893444215078
 20
210.0701420329874
 30
0.0
  0
VERTEX
  5
CC
330
CA
100
AcDbEntity
  8
_U+5207_U+65AD_U+30D1_U+30B9
 62
     1
420
 16711680
370
     9
100
AcDbVertex
100
AcDb2dVertex
 10
150.3893444215078
 20
196.2191663598117
 30
0.0
  0
VERTEX
  5
CD
330
CA
100
AcDbEntity
  8
_U+5207_U+65AD_U+30D1_U+30B9
 62
     1
420
 16711680
370
     9
100
AcDbVertex
100
AcDb2dVertex
 10
164.2403200946835
 20
196.2191663598117
 30
0.0
  0
VERTEX
  5
CE
330
CA
100
AcDbEntity
  8
_U+5207_U+65AD_U+30D1_U+30B9
 62
     1
420
 16711680
370
     9
100
AcDbVertex
100
AcDb2dVertex
 10
164.2403200946835
 20
210.0701420329874
 30
0.0
  0
VERTEX
  5
CF
330
CA
100
AcDbEntity
  8
_U+5207_U+65AD_U+30D1_U+30B9
 62
     1
420
 16711680
370
     9
100
AcDbVertex
100
AcDb2dVertex
 10
150.3893444215078
 20
210.0701420329874
 30
0.0
  0
SEQEND
  5
D0
330
CA
100
AcDbEntity
  8
_U+5207_U+65AD_U+30D1_U+30B9
 62
     1
420
 16711680
370
     9
  0
ENDBLK
  5
C9
330
C6
100
AcDbEntity
  8
0
100
AcDbBlockEnd
  0
BLOCK
  5
D3
330
D1
100
AcDbEntity
  8
0
100
AcDbBlockBegin
  2
block 20
 70
     0
 10
0.0
 20
0.0
 30
0.0
  3
block 20
  1

  0
POLYLINE
  5
D5
330
D1
100
AcDbEntity
  8
_U+5207_U+65AD_U+30D1_U+30B9
 62
     1
420
 16711680
370
     9
100
AcDb2dPolyline
 66
     1
 10
0.0
 20
0.0
 30
0.0
  0
VERTEX
  5
D6
330
D5
100
AcDbEntity
  8
_U+5207_U+65AD_U+30D1_U+30B9
 62
     1
420
 16711680
370
     9
100
AcDbVertex
100
AcDb2dVertex
 10
150.3893444215078
 20
191.0688035643726
 30
0.0
  0
VERTEX
  5
D7
330
D5
100
AcDbEntity
  8
_U+5207_U+65AD_U+30D1_U+30B9
 62
     1
420
 16711680
370
     9
100
AcDbVertex
100
AcDb2dVertex
 10
150.3893444215078
 20
177.2178278911928
 30
0.0
  0
VERTEX
  5
D8
330
D5
100
AcDbEntity
  8
_U+5207_U+65AD_U+30D1_U+30B9
 62
     1
420
 16711680
370
     9
100
AcDbVertex
100
AcDb2dVertex
 10
164.2403200946835
 20
177.2178278911928
 30
0.0
  0
VERTEX
  5
D9
330
D5
100
AcDbEntity
  8
_U+5207_U+65AD_U+30D1_U+30B9
 62
     1
420
 16711680
370
     9
100
AcDbVertex
100
AcDb2dVertex
 10
164.2403200946835
 20
191.0688035643726
 30
0.0
  0
VERTEX
  5
DA
330
D5
100
AcDbEntity
  8
_U+5207_U+65AD_U+30D1_U+30B9
 62
     1
420
 16711680
370
     9
100
AcDbVertex
100
AcDb2dVertex
 10
150.3893444215078
 20
191.0688035643726
 30
0.0
  0
SEQEND
  5
DB
330
D5
100
AcDbEntity
  8
_U+5207_U+65AD_U+30D1_U+30B9
 62
     1
420
 16711680
370
     9
  0
ENDBLK
  5
D4
330
D1
100
AcDbEntity
  8
0
100
AcDbBlockEnd
  0
BLOCK
  5
DE
330
DC
100
AcDbEntity
  8
0
100
AcDbBlockBegin
  2
block 21
 70
     0
 10
0.0
 20
0.0
 30
0.0
  3
block 21
  1

  0
POLYLINE
  5
E0
330
DC
100
AcDbEntity
  8
_U+5207_U+65AD_U+30D1_U+30B9
 62
     1
420
 16711680
370
     9
100
AcDb2dPolyline
 66
     1
 10
0.0
 20
0.0
 30
0.0
  0
VERTEX
  5
E1
330
E0
100
AcDbEntity
  8
_U+5207_U+65AD_U+30D1_U+30B9
 62
     1
420
 16711680
370
     9
100
AcDbVertex
100
AcDb2dVertex
 10
169.3906828901232
 20
226.6963131930235
 30
0.0
  0
VERTEX
  5
E2
330
E0
100
AcDbEntity
  8
_U+5207_U+65AD_U+30D1_U+30B9
 62
     1
420
 16711680
370
     9
100
AcDbVertex
100
AcDb2dVertex
 10
169.3906828901232
 20
212.8453375198503
 30
0.0
  0
VERTEX
  5
E3
330
E0
100
AcDbEntity
  8
_U+5207_U+65AD_U+30D1_U+30B9
 62
     1
420
 16711680
370
     9
100
AcDbVertex
100
AcDb2dVertex
 10
183.2416585633008
 20
212.8453375198503
 30
0.0
  0
VERTEX
  5
E4
330
E0
100
AcDbEntity
  8
_U+5207_U+65AD_U+30D1_U+30B9
 62
     1
420
 16711680
370
     9
100
AcDbVertex
100
AcDb2dVertex
 10
183.2416585633008
 20
226.6963131930235
 30
0.0
  0
VERTEX
  5
E5
330
E0
100
AcDbEntity
  8
_U+5207_U+65AD_U+30D1_U+30B9
 62
     1
420
 16711680
370
     9
100
AcDbVertex
100
AcDb2dVertex
 10
169.3906828901232
 20
226.6963131930235
 30
0.0
  0
SEQEND
  5
E6
330
E0
100
AcDbEntity
  8
_U+5207_U+65AD_U+30D1_U+30B9
 62
     1
420
 16711680
370
     9
  0
ENDBLK
  5
DF
330
DC
100
AcDbEntity
  8
0
100
AcDbBlockEnd
  0
BLOCK
  5
E9
330
E7
100
AcDbEntity
  8
0
100
AcDbBlockBegin
  2
block 22
 70
     0
 10
0.0
 20
0.0
 30
0.0
  3
block 22
  1

  0
POLYLINE
  5
EB
330
E7
100
AcDbEntity
  8
_U+5207_U+65AD_U+30D1_U+30B9
 62
     1
420
 16711680
370
     9
100
AcDb2dPolyline
 66
     1
 10
0.0
 20
0.0
 30
0.0
  0
VERTEX
  5
EC
330
EB
100
AcDbEntity
  8
_U+5207_U+65AD_U+30D1_U+30B9
 62
     1
420
 16711680
370
     9
100
AcDbVertex
100
AcDb2dVertex
 10
169.3906828901232
 20
207.6949747244088
 30
0.0
  0
VERTEX
  5
ED
330
EB
100
AcDbEntity
  8
_U+5207_U+65AD_U+30D1_U+30B9
 62
     1
420
 16711680
370
     9
100
AcDbVertex
100
AcDb2dVertex
 10
169.3906828901232
 20
193.8439990512353
 30
0.0
  0
VERTEX
  5
EE
330
EB
100
AcDbEntity
  8
_U+5207_U+65AD_U+30D1_U+30B9
 62
     1
420
 16711680
370
     9
100
AcDbVertex
100
AcDb2dVertex
 10
183.2416585633008
 20
193.8439990512353
 30
0.0
  0
VERTEX
  5
EF
330
EB
100
AcDbEntity
  8
_U+5207_U+65AD_U+30D1_U+30B9
 62
     1
420
 16711680
370
     9
100
AcDbVertex
100
AcDb2dVertex
 10
183.2416585633008
 20
207.6949747244088
 30
0.0
  0
VERTEX
  5
F0
330
EB
100
AcDbEntity
  8
_U+5207_U+65AD_U+30D1_U+30B9
 62
     1
420
 16711680
370
     9
100
AcDbVertex
100
AcDb2dVertex
 10
169.3906828901232
 20
207.6949747244088
 30
0.0
  0
SEQEND
  5
F1
330
EB
100
AcDbEntity
  8
_U+5207_U+65AD_U+30D1_U+30B9
 62
     1
420
 16711680
370
     9
  0
ENDBLK
  5
EA
330
E7
100
AcDbEntity
  8
0
100
AcDbBlockEnd
  0
BLOCK
  5
F4
330
F2
100
AcDbEntity
  8
0
100
AcDbBlockBegin
  2
block 23
 70
     0
 10
0.0
 20
0.0
 30
0.0
  3
block 23
  1

  0
POLYLINE
  5
F6
330
F2
100
AcDbEntity
  8
_U+5207_U+65AD_U+30D1_U+30B9
 62
     1
420
 16711680
370
     9
100
AcDb2dPolyline
 66
     1
 10
0.0
 20
0.0
 30
0.0
  0
VERTEX
  5
F7
330
F6
100
AcDbEntity
  8
_U+5207_U+65AD_U+30D1_U+30B9
 62
     1
420
 16711680
370
     9
100
AcDbVertex
100
AcDb2dVertex
 10
169.3906828901232
 20
188.6936362557873
 30
0.0
  0
VERTEX
  5
F8
330
F6
100
AcDbEntity
  8
_U+5207_U+65AD_U+30D1_U+30B9
 62
     1
420
 16711680
370
     9
100
AcDbVertex
100
AcDb2dVertex
 10
169.3906828901232
 20
174.8426605826142
 30
0.0
  0
VERTEX
  5
F9
330
F6
100
AcDbEntity
  8
_U+5207_U+65AD_U+30D1_U+30B9
 62
     1
420
 16711680
370
     9
100
AcDbVertex
100
AcDb2dVertex
 10
183.2416585633008
 20
174.8426605826142
 30
0.0
  0
VERTEX
  5
FA
330
F6
100
AcDbEntity
  8
_U+5207_U+65AD_U+30D1_U+30B9
 62
     1
420
 16711680
370
     9
100
AcDbVertex
100
AcDb2dVertex
 10
183.2416585633008
 20
188.6936362557873
 30
0.0
  0
VERTEX
  5
FB
330
F6
100
AcDbEntity
  8
_U+5207_U+65AD_U+30D1_U+30B9
 62
     1
420
 16711680
370
     9
100
AcDbVertex
100
AcDb2dVertex
 10
169.3906828901232
 20
188.6936362557873
 30
0.0
  0
SEQEND
  5
FC
330
F6
100
AcDbEntity
  8
_U+5207_U+65AD_U+30D1_U+30B9
 62
     1
420
 16711680
370
     9
  0
ENDBLK
  5
F5
330
F2
100
AcDbEntity
  8
0
100
AcDbBlockEnd
  0
BLOCK
  5
FF
330
FD
100
AcDbEntity
  8
0
100
AcDbBlockBegin
  2
block 24
 70
     0
 10
0.0
 20
0.0
 30
0.0
  3
block 24
  1

  0
POLYLINE
  5
101
330
FD
100
AcDbEntity
  8
_U+5207_U+65AD_U+30D1_U+30B9
 62
     1
420
 16711680
370
     9
100
AcDb2dPolyline
 66
     1
 10
0.0
 20
0.0
 30
0.0
  0
VERTEX
  5
102
330
101
100
AcDbEntity
  8
_U+5207_U+65AD_U+30D1_U+30B9
 62
     1
420
 16711680
370
     9
100
AcDbVertex
100
AcDb2dVertex
 10
188.3920213587437
 20
224.3211458844487
 30
0.0
  0
VERTEX
  5
103
330
101
100
AcDbEntity
  8
_U+5207_U+65AD_U+30D1_U+30B9
 62
     1
420
 16711680
370
     9
100
AcDbVertex
100
AcDb2dVertex
 10
188.3920213587437
 20
210.4701702112753
 30
0.0
  0
VERTEX
  5
104
330
101
100
AcDbEntity
  8
_U+5207_U+65AD_U+30D1_U+30B9
 62
     1
420
 16711680
370
     9
100
AcDbVertex
100
AcDb2dVertex
 10
202.2429970319219
 20
210.4701702112753
 30
0.0
  0
VERTEX
  5
105
330
101
100
AcDbEntity
  8
_U+5207_U+65AD_U+30D1_U+30B9
 62
     1
420
 16711680
370
     9
100
AcDbVertex
100
AcDb2dVertex
 10
202.2429970319219
 20
224.3211458844487
 30
0.0
  0
VERTEX
  5
106
330
101
100
AcDbEntity
  8
_U+5207_U+65AD_U+30D1_U+30B9
 62
     1
420
 16711680
370
     9
100
AcDbVertex
100
AcDb2dVertex
 10
188.3920213587437
 20
224.3211458844487
 30
0.0
  0
SEQEND
  5
107
330
101
100
AcDbEntity
  8
_U+5207_U+65AD_U+30D1_U+30B9
 62
     1
420
 16711680
370
     9
  0
ENDBLK
  5
100
330
FD
100
AcDbEntity
  8
0
100
AcDbBlockEnd
  0
BLOCK
  5
10A
330
108
100
AcDbEntity
  8
0
100
AcDbBlockBegin
  2
block 25
 70
     0
 10
0.0
 20
0.0
 30
0.0
  3
block 25
  1

  0
POLYLINE
  5
10C
330
108
100
AcDbEntity
  8
_U+5207_U+65AD_U+30D1_U+30B9
 62
     1
420
 16711680
370
     9
100
AcDb2dPolyline
 66
     1
 10
0.0
 20
0.0
 30
0.0
  0
VERTEX
  5
10D
330
10C
100
AcDbEntity
  8
_U+5207_U+65AD_U+30D1_U+30B9
 62
     1
420
 16711680
370
     9
100
AcDbVertex
100
AcDb2dVertex
 10
188.3920213587437
 20
205.3198074158302
 30
0.0
  0
VERTEX
  5
10E
330
10C
100
AcDbEntity
  8
_U+5207_U+65AD_U+30D1_U+30B9
 62
     1
420
 16711680
370
     9
100
AcDbVertex
100
AcDb2dVertex
 10
188.3920213587437
 20
191.46883174265
 30
0.0
  0
VERTEX
  5
10F
330
10C
100
AcDbEntity
  8
_U+5207_U+65AD_U+30D1_U+30B9
 62
     1
420
 16711680
370
     9
100
AcDbVertex
100
AcDb2dVertex
 10
202.2429970319219
 20
191.4688317426503
 30
0.0
  0
VERTEX
  5
110
330
10C
100
AcDbEntity
  8
_U+5207_U+65AD_U+30D1_U+30B9
 62
     1
420
 16711680
370
     9
100
AcDbVertex
100
AcDb2dVertex
 10
202.2429970319219
 20
205.3198074158302
 30
0.0
  0
VERTEX
  5
111
330
10C
100
AcDbEntity
  8
_U+5207_U+65AD_U+30D1_U+30B9
 62
     1
420
 16711680
370
     9
100
AcDbVertex
100
AcDb2dVertex
 10
188.3920213587437
 20
205.3198074158302
 30
0.0
  0
SEQEND
  5
112
330
10C
100
AcDbEntity
  8
_U+5207_U+65AD_U+30D1_U+30B9
 62
     1
420
 16711680
370
     9
  0
ENDBLK
  5
10B
330
108
100
AcDbEntity
  8
0
100
AcDbBlockEnd
  0
BLOCK
  5
115
330
113
100
AcDbEntity
  8
0
100
AcDbBlockBegin
  2
block 26
 70
     0
 10
0.0
 20
0.0
 30
0.0
  3
block 26
  1

  0
POLYLINE
  5
117
330
113
100
AcDbEntity
  8
_U+5207_U+65AD_U+30D1_U+30B9
 62
     1
420
 16711680
370
     9
100
AcDb2dPolyline
 66
     1
 10
0.0
 20
0.0
 30
0.0
  0
VERTEX
  5
118
330
117
100
AcDbEntity
  8
_U+5207_U+65AD_U+30D1_U+30B9
 62
     1
420
 16711680
370
     9
100
AcDbVertex
100
AcDb2dVertex
 10
188.3920213587437
 20
186.3184689472116
 30
0.0
  0
VERTEX
  5
119
330
117
100
AcDbEntity
  8
_U+5207_U+65AD_U+30D1_U+30B9
 62
     1
420
 16711680
370
     9
100
AcDbVertex
100
AcDb2dVertex
 10
188.3920213587437
 20
172.4674932740394
 30
0.0
  0
VERTEX
  5
11A
330
117
100
AcDbEntity
  8
_U+5207_U+65AD_U+30D1_U+30B9
 62
     1
420
 16711680
370
     9
100
AcDbVertex
100
AcDb2dVertex
 10
202.2429970319219
 20
172.4674932740394
 30
0.0
  0
VERTEX
  5
11B
330
117
100
AcDbEntity
  8
_U+5207_U+65AD_U+30D1_U+30B9
 62
     1
420
 16711680
370
     9
100
AcDbVertex
100
AcDb2dVertex
 10
202.2429970319219
 20
186.3184689472116
 30
0.0
  0
VERTEX
  5
11C
330
117
100
AcDbEntity
  8
_U+5207_U+65AD_U+30D1_U+30B9
 62
     1
420
 16711680
370
     9
100
AcDbVertex
100
AcDb2dVertex
 10
188.3920213587437
 20
186.3184689472116
 30
0.0
  0
SEQEND
  5
11D
330
117
100
AcDbEntity
  8
_U+5207_U+65AD_U+30D1_U+30B9
 62
     1
420
 16711680
370
     9
  0
ENDBLK
  5
116
330
113
100
AcDbEntity
  8
0
100
AcDbBlockEnd
  0
BLOCK
  5
120
330
11E
100
AcDbEntity
  8
0
100
AcDbBlockBegin
  2
block 27
 70
     0
 10
0.0
 20
0.0
 30
0.0
  3
block 27
  1

  0
POLYLINE
  5
122
330
11E
100
AcDbEntity
  8
_U+5207_U+65AD_U+30D1_U+30B9
 62
     1
420
 16711680
370
     9
100
AcDb2dPolyline
 66
     1
 10
0.0
 20
0.0
 30
0.0
  0
VERTEX
  5
123
330
122
100
AcDbEntity
  8
_U+5207_U+65AD_U+30D1_U+30B9
 62
     1
420
 16711680
370
     9
100
AcDbVertex
100
AcDb2dVertex
 10
159.8900136558171
 20
169.0672537586029
 30
0.0
  0
VERTEX
  5
124
330
122
100
AcDbEntity
  8
_U+5207_U+65AD_U+30D1_U+30B9
 62
     1
420
 16711680
370
     9
100
AcDbVertex
100
AcDb2dVertex
 10
159.8900136558171
 20
155.2162780854253
 30
0.0
  0
VERTEX
  5
125
330
122
100
AcDbEntity
  8
_U+5207_U+65AD_U+30D1_U+30B9
 62
     1
420
 16711680
370
     9
100
AcDbVertex
100
AcDb2dVertex
 10
173.7409893289928
 20
155.2162780854253
 30
0.0
  0
VERTEX
  5
126
330
122
100
AcDbEntity
  8
_U+5207_U+65AD_U+30D1_U+30B9
 62
     1
420
 16711680
370
     9
100
AcDbVertex
100
AcDb2dVertex
 10
173.7409893289928
 20
169.0672537586029
 30
0.0
  0
VERTEX
  5
127
330
122
100
AcDbEntity
  8
_U+5207_U+65AD_U+30D1_U+30B9
 62
     1
420
 16711680
370
     9
100
AcDbVertex
100
AcDb2dVertex
 10
159.8900136558171
 20
169.0672537586029
 30
0.0
  0
SEQEND
  5
128
330
122
100
AcDbEntity
  8
_U+5207_U+65AD_U+30D1_U+30B9
 62
     1
420
 16711680
370
     9
  0
ENDBLK
  5
121
330
11E
100
AcDbEntity
  8
0
100
AcDbBlockEnd
  0
BLOCK
  5
12B
330
129
100
AcDbEntity
  8
0
100
AcDbBlockBegin
  2
block 28
 70
     0
 10
0.0
 20
0.0
 30
0.0
  3
block 28
  1

  0
POLYLINE
  5
12D
330
129
100
AcDbEntity
  8
_U+5207_U+65AD_U+30D1_U+30B9
 62
     1
420
 16711680
370
     9
100
AcDb2dPolyline
 66
     1
 10
0.0
 20
0.0
 30
0.0
  0
VERTEX
  5
12E
330
12D
100
AcDbEntity
  8
_U+5207_U+65AD_U+30D1_U+30B9
 62
     1
420
 16711680
370
     9
100
AcDbVertex
100
AcDb2dVertex
 10
182.9191455729815
 20
167.8677129878827
 30
0.0
  0
VERTEX
  5
12F
330
12D
100
AcDbEntity
  8
_U+5207_U+65AD_U+30D1_U+30B9
 62
     1
420
 16711680
370
     9
100
AcDbVertex
100
AcDb2dVertex
 10
179.3478440204379
 20
154.4850625657968
 30
0.0
  0
VERTEX
  5
130
330
12D
100
AcDbEntity
  8
_U+5207_U+65AD_U+30D1_U+30B9
 62
     1
420
 16711680
370
     9
100
AcDbVertex
100
AcDb2dVertex
 10
192.7304944425209
 20
150.91376101325
 30
0.0
  0
VERTEX
  5
131
330
12D
100
AcDbEntity
  8
_U+5207_U+65AD_U+30D1_U+30B9
 62
     1
420
 16711680
370
     9
100
AcDbVertex
100
AcDb2dVertex
 10
196.3017959950645
 20
164.2964114353375
 30
0.0
  0
VERTEX
  5
132
330
12D
100
AcDbEntity
  8
_U+5207_U+65AD_U+30D1_U+30B9
 62
     1
420
 16711680
370
     9
100
AcDbVertex
100
AcDb2dVertex
 10
182.9191455729815
 20
167.8677129878827
 30
0.0
  0
SEQEND
  5
133
330
12D
100
AcDbEntity
  8
_U+5207_U+65AD_U+30D1_U+30B9
 62
     1
420
 16711680
370
     9
  0
ENDBLK
  5
12C
330
129
100
AcDbEntity
  8
0
100
AcDbBlockEnd
  0
BLOCK
  5
136
330
134
100
AcDbEntity
  8
0
100
AcDbBlockBegin
  2
block 29
 70
     0
 10
0.0
 20
0.0
 30
0.0
  3
block 29
  1

  0
POLYLINE
  5
138
330
134
100
AcDbEntity
  8
_U+5207_U+65AD_U+30D1_U+30B9
 62
     1
420
 16711680
370
     9
100
AcDb2dPolyline
 66
     1
 10
0.0
 20
0.0
 30
0.0
  0
VERTEX
  5
139
330
138
100
AcDbEntity
  8
_U+5207_U+65AD_U+30D1_U+30B9
 62
     1
420
 16711680
370
     9
100
AcDbVertex
100
AcDb2dVertex
 10
207.5317256298199
 20
165.1060772814271
 30
0.0
  0
VERTEX
  5
13A
330
138
100
AcDbEntity
  8
_U+5207_U+65AD_U+30D1_U+30B9
 62
     1
420
 16711680
370
     9
100
AcDbVertex
100
AcDb2dVertex
 10
200.614424326347
 20
153.1060577074492
 30
0.0
  0
VERTEX
  5
13B
330
138
100
AcDbEntity
  8
_U+5207_U+65AD_U+30D1_U+30B9
 62
     1
420
 16711680
370
     9
100
AcDbVertex
100
AcDb2dVertex
 10
212.6144439003326
 20
146.1887564039782
 30
0.0
  0
VERTEX
  5
13C
330
138
100
AcDbEntity
  8
_U+5207_U+65AD_U+30D1_U+30B9
 62
     1
420
 16711680
370
     9
100
AcDbVertex
100
AcDb2dVertex
 10
219.5317452038036
 20
158.1887759779641
 30
0.0
  0
VERTEX
  5
13D
330
138
100
AcDbEntity
  8
_U+5207_U+65AD_U+30D1_U+30B9
 62
     1
420
 16711680
370
     9
100
AcDbVertex
100
AcDb2dVertex
 10
207.5317256298199
 20
165.1060772814271
 30
0.0
  0
SEQEND
  5
13E
330
138
100
AcDbEntity
  8
_U+5207_U+65AD_U+30D1_U+30B9
 62
     1
420
 16711680
370
     9
  0
ENDBLK
  5
137
330
134
100
AcDbEntity
  8
0
100
AcDbBlockEnd
  0
BLOCK
  5
141
330
13F
100
AcDbEntity
  8
0
100
AcDbBlockBegin
  2
block 30
 70
     0
 10
0.0
 20
0.0
 30
0.0
  3
block 30
  1

  0
POLYLINE
  5
143
330
13F
100
AcDbEntity
  8
_U+5207_U+65AD_U+30D1_U+30B9
 62
     1
420
 16711680
370
     9
100
AcDb2dPolyline
 66
     1
 10
0.0
 20
0.0
 30
0.0
  0
VERTEX
  5
144
330
143
100
AcDbEntity
  8
_U+5207_U+65AD_U+30D1_U+30B9
 62
     1
420
 16711680
370
     9
100
AcDbVertex
100
AcDb2dVertex
 10
131.3880059528937
 20
188.6936362557873
 30
0.0
  0
VERTEX
  5
3E3
330
143
100
AcDbEntity
  8
0
100
AcDbVertex
100
AcDb2dVertex
 10
131.3880059528937
 20
188.6936362557873
 30
0.0
  0
SEQEND
  5
145
330
143
100
AcDbEntity
  8
_U+5207_U+65AD_U+30D1_U+30B9
 62
     1
420
 16711680
370
     9
  0
ENDBLK
  5
142
330
13F
100
AcDbEntity
  8
0
100
AcDbBlockEnd
  0
BLOCK
  5
148
330
146
100
AcDbEntity
  8
0
100
AcDbBlockBegin
  2
block 31
 70
     0
 10
0.0
 20
0.0
 30
0.0
  3
block 31
  1

  0
INSERT
  5
14B
330
146
100
AcDbEntity
  8
_U+5207_U+65AD_U+30D1_U+30B9
100
AcDbBlockReference
  2
block 32
 10
0.0
 20
0.0
 30
0.0
  0
INSERT
  5
154
330
146
100
AcDbEntity
  8
_U+5207_U+65AD_U+30D1_U+30B9
100
AcDbBlockReference
  2
block 34
 10
0.0
 20
0.0
 30
0.0
  0
INSERT
  5
15D
330
146
100
AcDbEntity
  8
_U+5207_U+65AD_U+30D1_U+30B9
100
AcDbBlockReference
  2
block 36
 10
0.0
 20
0.0
 30
0.0
  0
INSERT
  5
166
330
146
100
AcDbEntity
  8
_U+5207_U+65AD_U+30D1_U+30B9
100
AcDbBlockReference
  2
block 38
 10
0.0
 20
0.0
 30
0.0
  0
SPLINE
  5
16A
330
146
100
AcDbEntity
  8
_U+5207_U+65AD_U+30D1_U+30B9
 62
     1
420
 16711680
370
     9
100
AcDbSpline
210
0.0
220
0.0
230
1.0
 70
    11
 71
     3
 72
   209
 73
   205
 74
     0
 42
0.0000000001
 43
0.0000000001
 12
1.0
 22
0.0
 32
0.0
 13
1.0
 23
0.0
 33
0.0
 40
0.0
 40
0.0
 40
0.0
 40
0.0
 40
1.0
 40
1.0
 40
1.0
 40
2.0
 40
2.0
 40
2.0
 40
3.0
 40
3.0
 40
3.0
 40
4.0
 40
4.0
 40
4.0
 40
5.0
 40
5.0
 40
5.0
 40
6.0
 40
6.0
 40
6.0
 40
7.0
 40
7.0
 40
7.0
 40
8.0
 40
8.0
 40
8.0
 40
9.0
 40
9.0
 40
9.0
 40
10.0
 40
10.0
 40
10.0
 40
11.0
 40
11.0
 40
11.0
 40
12.0
 40
12.0
 40
12.0
 40
13.0
 40
13.0
 40
13.0
 40
14.0
 40
14.0
 40
14.0
 40
15.0
 40
15.0
 40
15.0
 40
16.0
 40
16.0
 40
16.0
 40
17.0
 40
17.0
 40
17.0
 40
18.0
 40
18.0
 40
18.0
 40
19.0
 40
19.0
 40
19.0
 40
20.0
 40
20.0
 40
20.0
 40
21.0
 40
21.0
 40
21.0
 40
22.0
 40
22.0
 40
22.0
 40
23.0
 40
23.0
 40
23.0
 40
24.0
 40
24.0
 40
24.0
 40
25.0
 40
25.0
 40
25.0
 40
26.0
 40
26.0
 40
26.0
 40
27.0
 40
27.0
 40
27.0
 40
28.0
 40
28.0
 40
28.0
 40
29.0
 40
29.0
 40
29.0
 40
30.0
 40
30.0
 40
30.0
 40
31.0
 40
31.0
 40
31.0
 40
32.0
 40
32.0
 40
32.0
 40
33.0
 40
33.0
 40
33.0
 40
34.0
 40
34.0
 40
34.0
 40
35.0
 40
35.0
 40
35.0
 40
36.0
 40
36.0
 40
36.0
 40
37.0
 40
37.0
 40
37.0
 40
38.0
 40
38.0
 40
38.0
 40
39.0
 40
39.0
 40
39.0
 40
40.0
 40
40.0
 40
40.0
 40
41.0
 40
41.0
 40
41.0
 40
42.0
 40
42.0
 40
42.0
 40
43.0
 40
43.0
 40
43.0
 40
44.0
 40
44.0
 40
44.0
 40
45.0
 40
45.0
 40
45.0
 40
46.0
 40
46.0
 40
46.0
 40
47.0
 40
47.0
 40
47.0
 40
48.0
 40
48.0
 40
48.0
 40
49.0
 40
49.0
 40
49.0
 40
50.0
 40
50.0
 40
50.0
 40
51.0
 40
51.0
 40
51.0
 40
52.0
 40
52.0
 40
52.0
 40
53.0
 40
53.0
 40
53.0
 40
54.0
 40
54.0
 40
54.0
 40
55.0
 40
55.0
 40
55.0
 40
56.0
 40
56.0
 40
56.0
 40
57.0
 40
57.0
 40
57.0
 40
58.0
 40
58.0
 40
58.0
 40
59.0
 40
59.0
 40
59.0
 40
60.0
 40
60.0
 40
60.0
 40
61.0
 40
61.0
 40
61.0
 40
62.0
 40
62.0
 40
62.0
 40
63.0
 40
63.0
 40
63.0
 40
64.0
 40
64.0
 40
64.0
 40
65.0
 40
65.0
 40
65.0
 40
66.0
 40
66.0
 40
66.0
 40
67.0
 40
67.0
 40
67.0
 40
68.0
 40
68.0
 40
68.0
 40
68.0
 10
105.1329880103464
 20
54.37328518939843
 30
0.0
 10
105.9523375587279
 20
52.93424464787299
 30
0.0
 10
105.5213003746982
 20
51.10348187983691
 30
0.0
 10
104.0828925036594
 20
50.28302215558465
 30
0.0
 10
104.0828925036594
 20
50.28302215558465
 30
0.0
 10
102.446088090263
 20
49.34939816428829
 30
0.0
 10
102.446088090263
 20
49.34939816428829
 30
0.0
 10
99.97781888311123
 20
47.94151135083864
 30
0.0
 10
99.16489583164305
 20
44.74893126904085
 30
0.0
 10
100.7049595572633
 20
42.32181634564132
 30
0.0
 10
102.1474050298633
 20
40.04854617214438
 30
0.0
 10
105.1847799861309
 20
39.39914381159368
 30
0.0
 10
107.5233795429365
 20
40.73306972259356
 30
0.0
 10
107.5233795429365
 20
40.73306972259356
 30
0.0
 10
109.0370623865468
 20
41.59646711794949
 30
0.0
 10
109.0370623865468
 20
41.59646711794949
 30
0.0
 10
110.4756443771238
 20
42.41702734885539
 30
0.0
 10
112.3070217931408
 20
41.91661747237142
 30
0.0
 10
113.128445045765
 20
40.47852808842899
 30
0.0
 10
113.128445045765
 20
40.47852808842899
 30
0.0
 10
115.654636066134
 20
36.02826085457191
 30
0.0
 10
115.654636066134
 20
36.02826085457191
 30
0.0
 10
115.6593808195195
 20
36.02110927103218
 30
0.0
 10
115.6642308838381
 20
36.01402811766079
 30
0.0
 10
115.6691846739673
 20
36.00701970876583
 30
0.0
 10
115.9471918217054
 20
35.613707171206
 30
0.0
 10
116.4914039531154
 20
35.52023368407693
 30
0.0
 10
116.8847164906797
 20
35.79824083181828
 30
0.0
 10
116.8847164906797
 20
35.79824083181828
 30
0.0
 10
131.6343785621248
 20
44.28776105221038
 30
0.0
 10
131.6343785621248
 20
44.28776105221038
 30
0.0
 10
131.7256116393312
 20
44.31948003089619
 30
0.0
 10
131.8193131463576
 20
44.3435946418833
 30
0.0
 10
131.9145238117422
 20
44.35985801124472
 30
0.0
 10
131.9145238117422
 20
44.35985801124472
 30
0.0
 10
168.7083732131737
 20
49.82923300338167
 30
0.0
 10
168.7083732131737
 20
49.82923300338167
 30
0.0
 10
168.8376205146205
 20
49.84235349859903
 30
0.0
 10
168.9597607509586
 20
49.89469931416775
 30
0.0
 10
169.0583978691905
 20
49.97924357022676
 30
0.0
 10
169.0583978691905
 20
49.97924357022676
 30
0.0
 10
179.6091410723786
 20
64.43848896573978
 30
0.0
 10
179.6055874314628
 20
64.43381515158634
 30
0.0
 10
179.6993622262627
 20
64.5275899463747
 30
0.0
 10
179.8265481417866
 20
64.58027207751948
 30
0.0
 10
179.9591657283954
 20
64.58027207751306
 30
0.0
 10
179.9591657283954
 20
64.58027207751306
 30
0.0
 10
216.4622078267345
 20
64.58027207587416
 30
0.0
 10
216.4622078267345
 20
64.58027207587416
 30
0.0
 10
216.7383696547034
 20
64.58027207586133
 30
0.0
 10
216.9622430496137
 20
64.80414547075752
 30
0.0
 10
216.9622430496266
 20
65.08030729872065
 30
0.0
 10
216.9622430496266
 20
65.08030729872065
 30
0.0
 10
216.9726982873456
 20
65.9595356660068
 30
0.0
 10
216.9726982873456
 20
65.9595356660068
 30
0.0
 10
216.9739760834925
 20
67.61548546289741
 30
0.0
 10
218.3167471041529
 20
68.95722074800005
 30
0.0
 10
219.9726973940429
 20
68.95722074767535
 30
0.0
 10
219.9726973940429
 20
68.95722074767535
 30
0.0
 10
221.8570493900451
 20
68.95722074730702
 30
0.0
 10
221.8570493900451
 20
68.95722074730702
 30
0.0
 10
224.6986155354062
 20
68.95722074730702
 30
0.0
 10
226.9865455012049
 20
71.32761901297741
 30
0.0
 10
226.851342322408
 20
74.19892589849273
 30
0.0
 10
226.7247091124365
 20
76.88823254766189
 30
0.0
 10
224.4081084357874
 20
78.9572253837549
 30
0.0
 10
221.7158220054225
 20
78.95722370412692
 30
0.0
 10
221.7158220054225
 20
78.95722370412692
 30
0.0
 10
219.9732116607549
 20
78.95722261697067
 30
0.0
 10
219.9732116607549
 20
78.95722261697067
 30
0.0
 10
218.3170603282506
 20
78.95722158375308
 30
0.0
 10
216.9742050783611
 20
80.29926966866911
 30
0.0
 10
216.9732103310537
 20
81.95542070243238
 30
0.0
 10
216.9732103310537
 20
81.95542070243238
 30
0.0
 10
216.9622430504126
 20
82.58247726687783
 30
0.0
 10
216.9622430504126
 20
82.58247726687783
 30
0.0
 10
216.9622430504126
 20
82.58247726687783
 30
0.0
 10
216.9622430513514
 20
103.4997451042775
 30
0.0
 10
216.9622430513514
 20
103.4997451042775
 30
0.0
 10
216.9622430513514
 20
103.4997451042775
 30
0.0
 10
216.9570707652776
 20
103.9823303742604
 30
0.0
 10
216.9570707652776
 20
103.9823303742604
 30
0.0
 10
216.9583485614246
 20
105.638280171151
 30
0.0
 10
218.3011195820849
 20
106.9800154562536
 30
0.0
 10
219.9570698719749
 20
106.9800154559289
 30
0.0
 10
219.9570698719749
 20
106.9800154559289
 30
0.0
 10
221.8414218679771
 20
106.9800154555606
 30
0.0
 10
221.8414218679771
 20
106.9800154555606
 30
0.0
 10
224.6829880133382
 20
106.9800154555606
 30
0.0
 10
226.970917979137
 20
109.350413721231
 30
0.0
 10
226.8357148003401
 20
112.2217206067463
 30
0.0
 10
226.7090815903686
 20
114.9110272559155
 30
0.0
 10
224.3924809137195
 20
116.9800200920085
 30
0.0
 10
221.7001944833546
 20
116.9800184123805
 30
0.0
 10
221.7001944833546
 20
116.9800184123805
 30
0.0
 10
219.957584138687
 20
116.9800173252242
 30
0.0
 10
219.957584138687
 20
116.9800173252242
 30
0.0
 10
218.3014328061826
 20
116.9800162920067
 30
0.0
 10
216.9585775562932
 20
118.3220643769227
 30
0.0
 10
216.9575828089857
 20
119.9782154106859
 30
0.0
 10
216.9575828089857
 20
119.9782154106859
 30
0.0
 10
216.9622430521073
 20
120.334199425768
 30
0.0
 10
216.9622430521073
 20
120.334199425768
 30
0.0
 10
216.9622430521195
 20
120.610361253737
 30
0.0
 10
216.7383696572285
 20
120.8342346486498
 30
0.0
 10
216.4622078292608
 20
120.834234648662
 30
0.0
 10
216.4622078292608
 20
120.834234648662
 30
0.0
 10
197.9604337542093
 20
120.8342346494917
 30
0.0
 10
197.9604337542093
 20
120.8342346494917
 30
0.0
 10
197.6842719262423
 20
120.8342346495046
 30
0.0
 10
197.4603985313532
 20
121.0581080444136
 30
0.0
 10
197.460398531366
 20
121.3342698723864
 30
0.0
 10
197.460398531366
 20
121.3342698723864
 30
0.0
 10
197.4603985315341
 20
125.0845340439032
 30
0.0
 10
197.4603985315341
 20
125.0845340439032
 30
0.0
 10
197.460398531545
 20
125.3606958718702
 30
0.0
 10
197.2365251366559
 20
125.5845692667844
 30
0.0
 10
196.9603633086844
 20
125.5845692667972
 30
0.0
 10
196.9603633086844
 20
125.5845692667972
 30
0.0
 10
178.959095285395
 20
125.5845692676057
 30
0.0
 10
178.959095285395
 20
125.5845692676057
 30
0.0
 10
178.6829334574254
 20
125.5845692676179
 30
0.0
 10
178.4590600625357
 20
125.8084426625225
 30
0.0
 10
178.4590600625485
 20
126.0846044904939
 30
0.0
 10
178.4590600625485
 20
126.0846044904939
 30
0.0
 10
178.4590600626037
 20
127.3346925476711
 30
0.0
 10
178.4590600626037
 20
127.3346925476711
 30
0.0
 10
178.4590600626165
 20
127.6108543756375
 30
0.0
 10
178.2351866677274
 20
127.8347277705465
 30
0.0
 10
177.9590248397578
 20
127.8347277705587
 30
0.0
 10
177.9590248397578
 20
127.8347277705587
 30
0.0
 10
160.957827262205
 20
127.834727771321
 30
0.0
 10
160.957827262205
 20
127.834727771321
 30
0.0
 10
160.6816654342348
 20
127.8347277713339
 30
0.0
 10
160.4577920393239
 20
127.6108543764454
 30
0.0
 10
160.4577920393104
 20
127.334692548479
 30
0.0
 10
160.4577920393104
 20
127.334692548479
 30
0.0
 10
160.4577920392552
 20
126.0846044913012
 30
0.0
 10
160.4577920392552
 20
126.0846044913012
 30
0.0
 10
160.4577920392424
 20
125.8084426633316
 30
0.0
 10
160.2339186443353
 20
125.584569268447
 30
0.0
 10
159.9577568163651
 20
125.5845692684592
 30
0.0
 10
159.9577568163651
 20
125.5845692684592
 30
0.0
 10
141.9564887930738
 20
125.5845692692671
 30
0.0
 10
141.9564887930738
 20
125.5845692692671
 30
0.0
 10
141.6803269651029
 20
125.5845692692793
 30
0.0
 10
141.4564535701932
 20
125.360695874385
 30
0.0
 10
141.4564535701798
 20
125.084534046418
 30
0.0
 10
141.4564535701798
 20
125.084534046418
 30
0.0
 10
141.4564535701137
 20
123.5844283778124
 30
0.0
 10
141.4564535701137
 20
123.5844283778124
 30
0.0
 10
141.4564535701047
 20
123.3082665498384
 30
0.0
 10
141.2325801751912
 20
123.0843931549525
 30
0.0
 10
140.9564183472223
 20
123.084393154966
 30
0.0
 10
140.9564183472223
 20
123.084393154966
 30
0.0
 10
139.4871784275535
 20
123.0880728833132
 30
0.0
 10
139.4871784275535
 20
123.0880728833132
 30
0.0
 10
137.8312286306628
 20
123.0893506794602
 30
0.0
 10
136.4894933455602
 20
124.4321217001205
 30
0.0
 10
136.4894933458849
 20
126.0880719900105
 30
0.0
 10
136.4894933458849
 20
126.0880719900105
 30
0.0
 10
136.4894933462532
 20
127.9724239860127
 30
0.0
 10
136.4894933462532
 20
127.9724239860127
 30
0.0
 10
136.4894933462532
 20
130.8139901313738
 30
0.0
 10
134.1190950805828
 20
133.1019200971725
 30
0.0
 10
131.2477881950675
 20
132.9667169183757
 30
0.0
 10
128.5584815458984
 20
132.8400837084041
 30
0.0
 10
126.4894887098054
 20
130.523483031755
 30
0.0
 10
126.4894903894333
 20
127.8311966013901
 30
0.0
 10
126.4894903894333
 20
127.8311966013901
 30
0.0
 10
126.4894914765896
 20
126.0885862567225
 30
0.0
 10
126.4894914765896
 20
126.0885862567225
 30
0.0
 10
126.4894925098072
 20
124.4324349242182
 30
0.0
 10
125.1474444248911
 20
123.0895796743287
 30
0.0
 10
123.4912933911279
 20
123.0885849270213
 30
0.0
 10
123.4912933911279
 20
123.0885849270213
 30
0.0
 10
122.9551503239328
 20
123.0843931557739
 30
0.0
 10
122.9551503239328
 20
123.0843931557739
 30
0.0
 10
122.6789884959646
 20
123.0843931557867
 30
0.0
 10
122.4551151010536
 20
122.8605197608911
 30
0.0
 10
122.4551151010414
 20
122.5843579329254
 30
0.0
 10
122.4551151010414
 20
122.5843579329254
 30
0.0
 10
122.4551151009856
 20
121.3497646917398
 30
0.0
 10
122.4551151009856
 20
121.3497646917398
 30
0.0
 10
122.4266984997431
 20
121.0816428005195
 30
0.0
 10
122.2208759639812
 20
120.8664972446777
 30
0.0
 10
121.9542750030436
 20
120.8262383399762
 30
0.0
 10
121.9542750030436
 20
120.8262383399762
 30
0.0
 10
102.2028836997113
 20
120.826238340863
 30
0.0
 10
102.2028836997113
 20
120.826238340863
 30
0.0
 10
101.9267218717456
 20
120.8262383408752
 30
0.0
 10
101.702848476834
 20
120.6023649459835
 30
0.0
 10
101.7028484768218
 20
120.3262031180127
 30
0.0
 10
101.7028484768218
 20
120.3262031180127
 30
0.0
 10
101.7027935009366
 20
61.36545046558626
 30
0.0
 10
101.7027935009366
 20
61.36545046558626
 30
0.0
 10
101.7461125030657
 20
60.5521389837586
 30
0.0
 10
101.9917216771692
 20
59.76249673054763
 30
0.0
 10
102.417357843835
 20
59.0681006216624
 30
0.0
 10
102.417357843835
 20
59.0681006216624
 30
0.0
 10
104.4338475841519
 20
55.55834584211721
 30
0.0
 10
104.4338475841519
 20
55.55834584211721
 30
0.0
 10
104.4338475841519
 20
55.55834584211721
 30
0.0
 10
105.1329880103464
 20
54.37328518939843
 30
0.0
 10
105.1329880103464
 20
54.37328518939843
 30
0.0
  0
INSERT
  5
16C
330
146
100
AcDbEntity
  8
_U+5207_U+65AD_U+30D1_U+30B9
100
AcDbBlockReference
  2
block 39
 10
0.0
 20
0.0
 30
0.0
  0
INSERT
  5
171
330
146
100
AcDbEntity
  8
_U+5207_U+65AD_U+30D1_U+30B9
100
AcDbBlockReference
  2
block 40
 10
0.0
 20
0.0
 30
0.0
  0
INSERT
  5
176
330
146
100
AcDbEntity
  8
_U+5207_U+65AD_U+30D1_U+30B9
100
AcDbBlockReference
  2
block 41
 10
0.0
 20
0.0
 30
0.0
  0
INSERT
  5
17B
330
146
100
AcDbEntity
  8
_U+5207_U+65AD_U+30D1_U+30B9
100
AcDbBlockReference
  2
block 42
 10
0.0
 20
0.0
 30
0.0
  0
INSERT
  5
180
330
146
100
AcDbEntity
  8
_U+5207_U+65AD_U+30D1_U+30B9
100
AcDbBlockReference
  2
block 43
 10
0.0
 20
0.0
 30
0.0
  0
ENDBLK
  5
149
330
146
100
AcDbEntity
  8
0
100
AcDbBlockEnd
  0
BLOCK
  5
14C
330
14A
100
AcDbEntity
  8
0
100
AcDbBlockBegin
  2
block 32
 70
     0
 10
0.0
 20
0.0
 30
0.0
  3
block 32
  1

  0
INSERT
  5
14F
330
14A
100
AcDbEntity
  8
_U+5207_U+65AD_U+30D1_U+30B9
100
AcDbBlockReference
  2
block 33
 10
0.0
 20
0.0
 30
0.0
  0
ENDBLK
  5
14D
330
14A
100
AcDbEntity
  8
0
100
AcDbBlockEnd
  0
BLOCK
  5
150
330
14E
100
AcDbEntity
  8
0
100
AcDbBlockBegin
  2
block 33
 70
     0
 10
0.0
 20
0.0
 30
0.0
  3
block 33
  1

  0
SPLINE
  5
152
330
14E
100
AcDbEntity
  8
_U+5207_U+65AD_U+30D1_U+30B9
 62
     1
420
 16711680
370
     9
100
AcDbSpline
210
0.0
220
0.0
230
1.0
 70
    11
 71
     3
 72
    20
 73
    16
 74
     0
 42
0.0000000001
 43
0.0000000001
 12
1.0
 22
0.0
 32
0.0
 13
1.0
 23
0.0
 33
0.0
 40
0.0
 40
0.0
 40
0.0
 40
0.0
 40
1.0
 40
1.0
 40
1.0
 40
2.0
 40
2.0
 40
2.0
 40
3.0
 40
3.0
 40
3.0
 40
4.0
 40
4.0
 40
4.0
 40
5.0
 40
5.0
 40
5.0
 40
5.0
 10
221.8414218679893
 20
114.5800154536601
 30
0.0
 10
223.2773622171949
 20
114.5800154536601
 30
0.0
 10
224.4414218673528
 20
113.415955803517
 30
0.0
 10
224.4414218673528
 20
111.9800154543101
 30
0.0
 10
224.4414218673528
 20
110.5440751051102
 30
0.0
 10
223.2773622171949
 20
109.38001545496
 30
0.0
 10
221.8414218679893
 20
109.38001545496
 30
0.0
 10
220.4054815188049
 20
109.38001545496
 30
0.0
 10
219.2414218686527
 20
110.5440751051102
 30
0.0
 10
219.2414218686527
 20
111.9800154543101
 30
0.0
 10
219.2414218686527
 20
113.415955803517
 30
0.0
 10
220.4054815188049
 20
114.5800154536601
 30
0.0
 10
221.8414218679893
 20
114.5800154536601
 30
0.0
 10
221.8414218679893
 20
114.5800154536601
 30
0.0
 10
221.8414218679893
 20
114.5800154536601
 30
0.0
 10
221.8414218679893
 20
114.5800154536601
 30
0.0
  0
ENDBLK
  5
151
330
14E
100
AcDbEntity
  8
0
100
AcDbBlockEnd
  0
BLOCK
  5
155
330
153
100
AcDbEntity
  8
0
100
AcDbBlockBegin
  2
block 34
 70
     0
 10
0.0
 20
0.0
 30
0.0
  3
block 34
  1

  0
INSERT
  5
158
330
153
100
AcDbEntity
  8
_U+5207_U+65AD_U+30D1_U+30B9
100
AcDbBlockReference
  2
block 35
 10
0.0
 20
0.0
 30
0.0
  0
ENDBLK
  5
156
330
153
100
AcDbEntity
  8
0
100
AcDbBlockEnd
  0
BLOCK
  5
159
330
157
100
AcDbEntity
  8
0
100
AcDbBlockBegin
  2
block 35
 70
     0
 10
0.0
 20
0.0
 30
0.0
  3
block 35
  1

  0
SPLINE
  5
15B
330
157
100
AcDbEntity
  8
_U+5207_U+65AD_U+30D1_U+30B9
 62
     1
420
 16711680
370
     9
100
AcDbSpline
210
0.0
220
0.0
230
1.0
 70
    11
 71
     3
 72
    20
 73
    16
 74
     0
 42
0.0000000001
 43
0.0000000001
 12
1.0
 22
0.0
 32
0.0
 13
1.0
 23
0.0
 33
0.0
 40
0.0
 40
0.0
 40
0.0
 40
0.0
 40
1.0
 40
1.0
 40
1.0
 40
2.0
 40
2.0
 40
2.0
 40
3.0
 40
3.0
 40
3.0
 40
4.0
 40
4.0
 40
4.0
 40
5.0
 40
5.0
 40
5.0
 40
5.0
 10
221.8570493900573
 20
76.55722074540657
 30
0.0
 10
223.2929897392629
 20
76.55722074540657
 30
0.0
 10
224.4570493894208
 20
75.39316109526342
 30
0.0
 10
224.4570493894208
 20
73.95722074605652
 30
0.0
 10
224.4570493894208
 20
72.52128039685667
 30
0.0
 10
223.2929897392629
 20
71.35722074670646
 30
0.0
 10
221.8570493900573
 20
71.35722074670646
 30
0.0
 10
220.4211090408728
 20
71.35722074670646
 30
0.0
 10
219.2570493907207
 20
72.52128039685667
 30
0.0
 10
219.2570493907207
 20
73.95722074605652
 30
0.0
 10
219.2570493907207
 20
75.39316109526342
 30
0.0
 10
220.4211090408728
 20
76.55722074540657
 30
0.0
 10
221.8570493900573
 20
76.55722074540657
 30
0.0
 10
221.8570493900573
 20
76.55722074540657
 30
0.0
 10
221.8570493900573
 20
76.55722074540657
 30
0.0
 10
221.8570493900573
 20
76.55722074540657
 30
0.0
  0
ENDBLK
  5
15A
330
157
100
AcDbEntity
  8
0
100
AcDbBlockEnd
  0
BLOCK
  5
15E
330
15C
100
AcDbEntity
  8
0
100
AcDbBlockBegin
  2
block 36
 70
     0
 10
0.0
 20
0.0
 30
0.0
  3
block 36
  1

  0
INSERT
  5
161
330
15C
100
AcDbEntity
  8
_U+5207_U+65AD_U+30D1_U+30B9
100
AcDbBlockReference
  2
block 37
 10
0.0
 20
0.0
 30
0.0
  0
ENDBLK
  5
15F
330
15C
100
AcDbEntity
  8
0
100
AcDbBlockEnd
  0
BLOCK
  5
162
330
160
100
AcDbEntity
  8
0
100
AcDbBlockBegin
  2
block 37
 70
     0
 10
0.0
 20
0.0
 30
0.0
  3
block 37
  1

  0
SPLINE
  5
164
330
160
100
AcDbEntity
  8
_U+5207_U+65AD_U+30D1_U+30B9
 62
     1
420
 16711680
370
     9
100
AcDbSpline
210
0.0
220
0.0
230
1.0
 70
    11
 71
     3
 72
    20
 73
    16
 74
     0
 42
0.0000000001
 43
0.0000000001
 12
1.0
 22
0.0
 32
0.0
 13
1.0
 23
0.0
 33
0.0
 40
0.0
 40
0.0
 40
0.0
 40
0.0
 40
1.0
 40
1.0
 40
1.0
 40
2.0
 40
2.0
 40
2.0
 40
3.0
 40
3.0
 40
3.0
 40
4.0
 40
4.0
 40
4.0
 40
5.0
 40
5.0
 40
5.0
 40
5.0
 10
128.8894933481537
 20
127.9724239860249
 30
0.0
 10
128.8894933481537
 20
129.4083643352305
 30
0.0
 10
130.0535529982968
 20
130.5724239853884
 30
0.0
 10
131.4894933475037
 20
130.5724239853884
 30
0.0
 10
132.9254336967036
 20
130.5724239853884
 30
0.0
 10
134.0894933468538
 20
129.4083643352305
 30
0.0
 10
134.0894933468538
 20
127.9724239860249
 30
0.0
 10
134.0894933468538
 20
126.5364836368404
 30
0.0
 10
132.9254336967036
 20
125.3724239866883
 30
0.0
 10
131.4894933475037
 20
125.3724239866883
 30
0.0
 10
130.0535529982968
 20
125.3724239866883
 30
0.0
 10
128.8894933481537
 20
126.5364836368404
 30
0.0
 10
128.8894933481537
 20
127.9724239860249
 30
0.0
 10
128.8894933481537
 20
127.9724239860249
 30
0.0
 10
128.8894933481537
 20
127.9724239860249
 30
0.0
 10
128.8894933481537
 20
127.9724239860249
 30
0.0
  0
ENDBLK
  5
163
330
160
100
AcDbEntity
  8
0
100
AcDbBlockEnd
  0
BLOCK
  5
167
330
165
100
AcDbEntity
  8
0
100
AcDbBlockBegin
  2
block 38
 70
     0
 10
0.0
 20
0.0
 30
0.0
  3
block 38
  1

  0
SPLINE
  5
169
330
165
100
AcDbEntity
  8
_U+5207_U+65AD_U+30D1_U+30B9
 62
     1
420
 16711680
370
     9
100
AcDbSpline
210
0.0
220
0.0
230
1.0
 70
    11
 71
     3
 72
    20
 73
    16
 74
     0
 42
0.0000000001
 43
0.0000000001
 12
1.0
 22
0.0
 32
0.0
 13
1.0
 23
0.0
 33
0.0
 40
0.0
 40
0.0
 40
0.0
 40
0.0
 40
1.0
 40
1.0
 40
1.0
 40
2.0
 40
2.0
 40
2.0
 40
3.0
 40
3.0
 40
3.0
 40
4.0
 40
4.0
 40
4.0
 40
5.0
 40
5.0
 40
5.0
 40
5.0
 10
106.2115959940616
 20
42.74781121890027
 30
0.0
 10
104.9642953274773
 20
42.03635796420443
 30
0.0
 10
103.376411537179
 20
42.4707481191632
 30
0.0
 10
102.6649582824832
 20
43.71804878574623
 30
0.0
 10
101.9535050277909
 20
44.96534945232604
 30
0.0
 10
102.3878951827663
 20
46.55323324262494
 30
0.0
 10
103.6351958493503
 20
47.26468649732142
 30
0.0
 10
104.8824965159141
 20
47.97613975200442
 30
0.0
 10
106.4703803062117
 20
47.54174959703795
 30
0.0
 10
107.1818335609044
 20
46.29444893045877
 30
0.0
 10
107.8932868156002
 20
45.04714826387382
 30
0.0
 10
107.4588966606266
 20
43.45926447358455
 30
0.0
 10
106.2115959940616
 20
42.74781121890027
 30
0.0
 10
106.2115959940616
 20
42.74781121890027
 30
0.0
 10
106.2115959940616
 20
42.74781121890027
 30
0.0
 10
106.2115959940616
 20
42.74781121890027
 30
0.0
  0
ENDBLK
  5
168
330
165
100
AcDbEntity
  8
0
100
AcDbBlockEnd
  0
BLOCK
  5
16D
330
16B
100
AcDbEntity
  8
0
100
AcDbBlockBegin
  2
block 39
 70
     0
 10
0.0
 20
0.0
 30
0.0
  3
block 39
  1

  0
SPLINE
  5
16F
330
16B
100
AcDbEntity
  8
_U+5207_U+65AD_U+30D1_U+30B9
 62
     1
420
 16711680
370
     9
100
AcDbSpline
210
0.0
220
0.0
230
1.0
 70
    11
 71
     3
 72
    17
 73
    13
 74
     0
 42
0.0000000001
 43
0.0000000001
 12
1.0
 22
0.0
 32
0.0
 13
1.0
 23
0.0
 33
0.0
 40
0.0
 40
0.0
 40
0.0
 40
0.0
 40
1.0
 40
1.0
 40
1.0
 40
2.0
 40
2.0
 40
2.0
 40
3.0
 40
3.0
 40
3.0
 40
4.0
 40
4.0
 40
4.0
 40
4.0
 10
174.8154698519986
 20
66.08465278449458
 30
0.0
 10
174.8154698520256
 20
66.69220880602748
 30
0.0
 10
174.3229483832668
 20
67.18473027483438
 30
0.0
 10
173.7153923617326
 20
67.18473027486262
 30
0.0
 10
173.1078363402029
 20
67.18473027488957
 30
0.0
 10
172.6153148713992
 20
66.6922088061263
 30
0.0
 10
172.6153148713722
 20
66.08465278459276
 30
0.0
 10
172.6153148713453
 20
65.4770967630605
 30
0.0
 10
173.1078363401054
 20
64.98457529426514
 30
0.0
 10
173.7153923616351
 20
64.9845752942382
 30
0.0
 10
174.3229483831686
 20
64.98457529420996
 30
0.0
 10
174.8154698519704
 20
65.47709676296104
 30
0.0
 10
174.8154698519986
 20
66.08465278449458
 30
0.0
  0
ENDBLK
  5
16E
330
16B
100
AcDbEntity
  8
0
100
AcDbBlockEnd
  0
BLOCK
  5
172
330
170
100
AcDbEntity
  8
0
100
AcDbBlockBegin
  2
block 40
 70
     0
 10
0.0
 20
0.0
 30
0.0
  3
block 40
  1

  0
SPLINE
  5
174
330
170
100
AcDbEntity
  8
_U+5207_U+65AD_U+30D1_U+30B9
 62
     1
420
 16711680
370
     9
100
AcDbSpline
210
0.0
220
0.0
230
1.0
 70
    11
 71
     3
 72
    17
 73
    13
 74
     0
 42
0.0000000001
 43
0.0000000001
 12
1.0
 22
0.0
 32
0.0
 13
1.0
 23
0.0
 33
0.0
 40
0.0
 40
0.0
 40
0.0
 40
0.0
 40
1.0
 40
1.0
 40
1.0
 40
2.0
 40
2.0
 40
2.0
 40
3.0
 40
3.0
 40
3.0
 40
4.0
 40
4.0
 40
4.0
 40
4.0
 10
142.037204661208
 20
105.8319068671429
 30
0.0
 10
142.0372046612368
 20
106.4394628886764
 30
0.0
 10
141.5446831924781
 20
106.9319843574724
 30
0.0
 10
140.9371271709439
 20
106.9319843575
 30
0.0
 10
140.3295711494142
 20
106.9319843575276
 30
0.0
 10
139.837049680613
 20
106.4394628887752
 30
0.0
 10
139.8370496805842
 20
105.8319068672417
 30
0.0
 10
139.8370496805572
 20
105.2243508457094
 30
0.0
 10
140.329571149316
 20
104.7318293769019
 30
0.0
 10
140.9371271708457
 20
104.7318293768749
 30
0.0
 10
141.5446831923792
 20
104.731829376848
 30
0.0
 10
142.037204661181
 20
105.2243508456106
 30
0.0
 10
142.037204661208
 20
105.8319068671429
 30
0.0
  0
ENDBLK
  5
173
330
170
100
AcDbEntity
  8
0
100
AcDbBlockEnd
  0
BLOCK
  5
177
330
175
100
AcDbEntity
  8
0
100
AcDbBlockBegin
  2
block 41
 70
     0
 10
0.0
 20
0.0
 30
0.0
  3
block 41
  1

  0
SPLINE
  5
179
330
175
100
AcDbEntity
  8
_U+5207_U+65AD_U+30D1_U+30B9
 62
     1
420
 16711680
370
     9
100
AcDbSpline
210
0.0
220
0.0
230
1.0
 70
    11
 71
     3
 72
    17
 73
    13
 74
     0
 42
0.0000000001
 43
0.0000000001
 12
1.0
 22
0.0
 32
0.0
 13
1.0
 23
0.0
 33
0.0
 40
0.0
 40
0.0
 40
0.0
 40
0.0
 40
1.0
 40
1.0
 40
1.0
 40
2.0
 40
2.0
 40
2.0
 40
3.0
 40
3.0
 40
3.0
 40
4.0
 40
4.0
 40
4.0
 40
4.0
 10
199.0501021957519
 20
102.2095098969913
 30
0.0
 10
199.0501021957802
 20
102.817065918521
 30
0.0
 10
198.5575807270195
 20
103.3095873873291
 30
0.0
 10
197.9500247054898
 20
103.3095873873561
 30
0.0
 10
197.3424686839556
 20
103.3095873873837
 30
0.0
 10
196.8499472151545
 20
102.8170659186204
 30
0.0
 10
196.8499472151275
 20
102.2095098970907
 30
0.0
 10
196.8499472150986
 20
101.6019538755617
 30
0.0
 10
197.3424686838574
 20
101.1094324067586
 30
0.0
 10
197.9500247053916
 20
101.109432406731
 30
0.0
 10
198.5575807269213
 20
101.1094324067041
 30
0.0
 10
199.050102195725
 20
101.6019538754635
 30
0.0
 10
199.0501021957519
 20
102.2095098969913
 30
0.0
  0
ENDBLK
  5
178
330
175
100
AcDbEntity
  8
0
100
AcDbBlockEnd
  0
BLOCK
  5
17C
330
17A
100
AcDbEntity
  8
0
100
AcDbBlockBegin
  2
block 42
 70
     0
 10
0.0
 20
0.0
 30
0.0
  3
block 42
  1

  0
SPLINE
  5
17E
330
17A
100
AcDbEntity
  8
_U+5207_U+65AD_U+30D1_U+30B9
 62
     1
420
 16711680
370
     9
100
AcDbSpline
210
0.0
220
0.0
230
1.0
 70
    11
 71
     3
 72
    17
 73
    13
 74
     0
 42
0.0000000001
 43
0.0000000001
 12
1.0
 22
0.0
 32
0.0
 13
1.0
 23
0.0
 33
0.0
 40
0.0
 40
0.0
 40
0.0
 40
0.0
 40
1.0
 40
1.0
 40
1.0
 40
2.0
 40
2.0
 40
2.0
 40
3.0
 40
3.0
 40
3.0
 40
4.0
 40
4.0
 40
4.0
 40
4.0
 10
199.0588975996775
 20
83.19437346933117
 30
0.0
 10
199.0588975997045
 20
83.80192949086343
 30
0.0
 10
198.5663761309476
 20
84.29445095966713
 30
0.0
 10
197.9588201094134
 20
84.29445095969407
 30
0.0
 10
197.3512640878857
 20
84.29445095972103
 30
0.0
 10
196.8587426190788
 20
83.80192949096225
 30
0.0
 10
196.8587426190518
 20
83.19437346942999
 30
0.0
 10
196.8587426190248
 20
82.58681744789581
 30
0.0
 10
197.3512640877862
 20
82.0942959790966
 30
0.0
 10
197.9588201093159
 20
82.09429597906964
 30
0.0
 10
198.5663761308488
 20
82.0942959790427
 30
0.0
 10
199.0588975996505
 20
82.58681744779699
 30
0.0
 10
199.0588975996775
 20
83.19437346933117
 30
0.0
  0
ENDBLK
  5
17D
330
17A
100
AcDbEntity
  8
0
100
AcDbBlockEnd
  0
BLOCK
  5
181
330
17F
100
AcDbEntity
  8
0
100
AcDbBlockBegin
  2
block 43
 70
     0
 10
0.0
 20
0.0
 30
0.0
  3
block 43
  1

  0
SPLINE
  5
183
330
17F
100
AcDbEntity
  8
_U+5207_U+65AD_U+30D1_U+30B9
 62
     1
420
 16711680
370
     9
100
AcDbSpline
210
0.0
220
0.0
230
1.0
 70
    11
 71
     3
 72
    17
 73
    13
 74
     0
 42
0.0000000001
 43
0.0000000001
 12
1.0
 22
0.0
 32
0.0
 13
1.0
 23
0.0
 33
0.0
 40
0.0
 40
0.0
 40
0.0
 40
0.0
 40
1.0
 40
1.0
 40
1.0
 40
2.0
 40
2.0
 40
2.0
 40
3.0
 40
3.0
 40
3.0
 40
4.0
 40
4.0
 40
4.0
 40
4.0
 10
128.2955134946272
 20
58.33014691133007
 30
0.0
 10
128.2955134946541
 20
58.93770293286361
 30
0.0
 10
127.8029920258973
 20
59.43022440167051
 30
0.0
 10
127.1954360043637
 20
59.43022440169875
 30
0.0
 10
126.5878799828321
 20
59.4302244017257
 30
0.0
 10
126.0953585140297
 20
58.93770293296243
 30
0.0
 10
126.0953585140021
 20
58.33014691142824
 30
0.0
 10
126.0953585139745
 20
57.72259088990305
 30
0.0
 10
126.5878799827339
 20
57.23006942109999
 30
0.0
 10
127.1954360042649
 20
57.2300694210724
 30
0.0
 10
127.8029920257984
 20
57.2300694210448
 30
0.0
 10
128.2955134946002
 20
57.72259088980615
 30
0.0
 10
128.2955134946272
 20
58.33014691133007
 30
0.0
  0
ENDBLK
  5
182
330
17F
100
AcDbEntity
  8
0
100
AcDbBlockEnd
  0
BLOCK
  5
186
330
184
100
AcDbEntity
  8
0
100
AcDbBlockBegin
  2
block 44
 70
     0
 10
0.0
 20
0.0
 30
0.0
  3
block 44
  1

  0
ENDBLK
  5
187
330
184
100
AcDbEntity
  8
0
100
AcDbBlockEnd
  0
BLOCK
  5
18A
330
188
100
AcDbEntity
  8
0
100
AcDbBlockBegin
  2
block 45
 70
     0
 10
0.0
 20
0.0
 30
0.0
  3
block 45
  1

  0
INSERT
  5
18D
330
188
100
AcDbEntity
  8
_U+5207_U+65AD_U+30D1_U+30B9
100
AcDbBlockReference
  2
block 46
 10
0.0
 20
0.0
 30
0.0
  0
ENDBLK
  5
18B
330
188
100
AcDbEntity
  8
0
100
AcDbBlockEnd
  0
BLOCK
  5
18E
330
18C
100
AcDbEntity
  8
0
100
AcDbBlockBegin
  2
block 46
 70
     0
 10
0.0
 20
0.0
 30
0.0
  3
block 46
  1

  0
ENDBLK
  5
18F
330
18C
100
AcDbEntity
  8
0
100
AcDbBlockEnd
  0
BLOCK
  5
192
330
190
100
AcDbEntity
  8
0
100
AcDbBlockBegin
  2
block 47
 70
     0
 10
0.0
 20
0.0
 30
0.0
  3
block 47
  1

  0
INSERT
  5
195
330
190
100
AcDbEntity
  8
_U+5207_U+65AD_U+30D1_U+30B9
100
AcDbBlockReference
  2
block 48
 10
0.0
 20
0.0
 30
0.0
  0
INSERT
  5
1A3
330
190
100
AcDbEntity
  8
_U+5207_U+65AD_U+30D1_U+30B9
100
AcDbBlockReference
  2
block 51
 10
0.0
 20
0.0
 30
0.0
  0
INSERT
  5
1B1
330
190
100
AcDbEntity
  8
_U+5207_U+65AD_U+30D1_U+30B9
100
AcDbBlockReference
  2
block 54
 10
0.0
 20
0.0
 30
0.0
  0
INSERT
  5
1BF
330
190
100
AcDbEntity
  8
_U+5207_U+65AD_U+30D1_U+30B9
100
AcDbBlockReference
  2
block 57
 10
0.0
 20
0.0
 30
0.0
  0
INSERT
  5
1CD
330
190
100
AcDbEntity
  8
_U+5207_U+65AD_U+30D1_U+30B9
100
AcDbBlockReference
  2
block 60
 10
0.0
 20
0.0
 30
0.0
  0
INSERT
  5
1DB
330
190
100
AcDbEntity
  8
_U+5207_U+65AD_U+30D1_U+30B9
100
AcDbBlockReference
  2
block 63
 10
0.0
 20
0.0
 30
0.0
  0
INSERT
  5
1E9
330
190
100
AcDbEntity
  8
_U+5207_U+65AD_U+30D1_U+30B9
100
AcDbBlockReference
  2
block 66
 10
0.0
 20
0.0
 30
0.0
  0
INSERT
  5
1F7
330
190
100
AcDbEntity
  8
_U+5207_U+65AD_U+30D1_U+30B9
100
AcDbBlockReference
  2
block 69
 10
0.0
 20
0.0
 30
0.0
  0
ENDBLK
  5
193
330
190
100
AcDbEntity
  8
0
100
AcDbBlockEnd
  0
BLOCK
  5
196
330
194
100
AcDbEntity
  8
0
100
AcDbBlockBegin
  2
block 48
 70
     0
 10
0.0
 20
0.0
 30
0.0
  3
block 48
  1

  0
INSERT
  5
199
330
194
100
AcDbEntity
  8
_U+5207_U+65AD_U+30D1_U+30B9
100
AcDbBlockReference
  2
block 49
 10
0.0
 20
0.0
 30
0.0
  0
INSERT
  5
19E
330
194
100
AcDbEntity
  8
_U+5207_U+65AD_U+30D1_U+30B9
100
AcDbBlockReference
  2
block 50
 10
0.0
 20
0.0
 30
0.0
  0
ENDBLK
  5
197
330
194
100
AcDbEntity
  8
0
100
AcDbBlockEnd
  0
BLOCK
  5
19A
330
198
100
AcDbEntity
  8
0
100
AcDbBlockBegin
  2
block 49
 70
     0
 10
0.0
 20
0.0
 30
0.0
  3
block 49
  1

  0
SPLINE
  5
19C
330
198
100
AcDbEntity
  8
_U+5207_U+65AD_U+30D1_U+30B9
 62
     1
420
 16711680
370
     9
100
AcDbSpline
210
0.0
220
0.0
230
1.0
 70
    11
 71
     3
 72
    20
 73
    16
 74
     0
 42
0.0000000001
 43
0.0000000001
 12
1.0
 22
0.0
 32
0.0
 13
1.0
 23
0.0
 33
0.0
 40
0.0
 40
0.0
 40
0.0
 40
0.0
 40
1.0
 40
1.0
 40
1.0
 40
2.0
 40
2.0
 40
2.0
 40
3.0
 40
3.0
 40
3.0
 40
4.0
 40
4.0
 40
4.0
 40
5.0
 40
5.0
 40
5.0
 40
5.0
 10
100.3237368055402
 20
155.587991545993
 30
0.0
 10
100.3237360356727
 20
157.0362506482576
 30
0.0
 10
101.5078533793222
 20
158.2079448101223
 30
0.0
 10
102.9607560605692
 20
158.1877304567139
 30
0.0
 10
104.3415314481442
 20
158.1685196162206
 30
0.0
 10
105.5042619855619
 20
157.0057903150303
 30
0.0
 10
105.523474294124
 20
155.6250149478826
 30
0.0
 10
105.5436901922899
 20
154.172112288078
 30
0.0
 10
104.3719972893104
 20
152.9879936986358
 30
0.0
 10
102.9237381870009
 20
152.9879929287683
 30
0.0
 10
101.4877978377953
 20
152.9879921654494
 30
0.0
 10
100.3237375688592
 20
154.1520511968092
 30
0.0
 10
100.3237368055402
 20
155.587991545993
 30
0.0
 10
100.3237368055402
 20
155.587991545993
 30
0.0
 10
100.3237368055402
 20
155.587991545993
 30
0.0
 10
100.3237368055402
 20
155.587991545993
 30
0.0
  0
ENDBLK
  5
19B
330
198
100
AcDbEntity
  8
0
100
AcDbBlockEnd
  0
BLOCK
  5
19F
330
19D
100
AcDbEntity
  8
0
100
AcDbBlockBegin
  2
block 50
 70
     0
 10
0.0
 20
0.0
 30
0.0
  3
block 50
  1

  0
SPLINE
  5
1A1
330
19D
100
AcDbEntity
  8
_U+5207_U+65AD_U+30D1_U+30B9
 62
     1
420
 16711680
370
     9
100
AcDbSpline
210
0.0
220
0.0
230
1.0
 70
    11
 71
     3
 72
    38
 73
    34
 74
     0
 42
0.0000000001
 43
0.0000000001
 12
1.0
 22
0.0
 32
0.0
 13
1.0
 23
0.0
 33
0.0
 40
0.0
 40
0.0
 40
0.0
 40
0.0
 40
1.0
 40
1.0
 40
1.0
 40
2.0
 40
2.0
 40
2.0
 40
3.0
 40
3.0
 40
3.0
 40
4.0
 40
4.0
 40
4.0
 40
5.0
 40
5.0
 40
5.0
 40
6.0
 40
6.0
 40
6.0
 40
7.0
 40
7.0
 40
7.0
 40
8.0
 40
8.0
 40
8.0
 40
9.0
 40
9.0
 40
9.0
 40
10.0
 40
10.0
 40
10.0
 40
11.0
 40
11.0
 40
11.0
 40
11.0
 10
108.0318637048568
 20
151.2556908952031
 30
0.0
 10
108.4306659850047
 20
151.2555609488246
 30
0.0
 10
108.678430669065
 20
151.7054740407851
 30
0.0
 10
108.4484928304232
 20
152.031314286762
 30
0.0
 10
108.2921311685299
 20
152.2528912254418
 30
0.0
 10
108.1542155741452
 20
152.5116956597882
 30
0.0
 10
108.0586808976879
 20
152.8109277776346
 30
0.0
 10
107.9525154356444
 20
153.143454853425
 30
0.0
 10
107.9225888600972
 20
153.4510372847174
 30
0.0
 10
107.9237381224186
 20
153.7032505720079
 30
0.0
 10
107.9237381224186
 20
153.7032505720079
 30
0.0
 10
107.9237422352333
 20
155.4566135401683
 30
0.0
 10
107.9237422352333
 20
155.4566135401683
 30
0.0
 10
107.9237482556427
 20
158.0232168638865
 30
0.0
 10
106.0434827019321
 20
160.2750722773822
 30
0.0
 10
103.492358638457
 20
160.5565303277477
 30
0.0
 10
100.4763086444582
 20
160.8892822951141
 30
0.0
 10
97.92373471733627
 20
158.5367282133669
 30
0.0
 10
97.92373751032909
 20
155.5879869505243
 30
0.0
 10
97.92373751032909
 20
155.5879869505243
 30
0.0
 10
97.92373751032909
 20
153.7056298410774
 30
0.0
 10
97.92373751032909
 20
153.7056298410774
 30
0.0
 10
97.92356256407398
 20
153.449347034745
 30
0.0
 10
97.8903335415264
 20
152.6645865809753
 30
0.0
 10
97.32779251247868
 20
151.910756625109
 30
0.0
 10
97.32779251247868
 20
151.910756625109
 30
0.0
 10
97.3277920245795
 20
151.9107559736902
 30
0.0
 10
97.3277920245795
 20
151.9107559736902
 30
0.0
 10
97.12663068720322
 20
151.6421753178279
 30
0.0
 10
97.31820588205484
 20
151.2591818507542
 30
0.0
 10
97.65376726444158
 20
151.2590725108919
 30
0.0
 10
97.65376726444158
 20
151.2590725108919
 30
0.0
 10
108.0318637048568
 20
151.2556908952031
 30
0.0
 10
108.0318637048568
 20
151.2556908952031
 30
0.0
  0
ENDBLK
  5
1A0
330
19D
100
AcDbEntity
  8
0
100
AcDbBlockEnd
  0
BLOCK
  5
1A4
330
1A2
100
AcDbEntity
  8
0
100
AcDbBlockBegin
  2
block 51
 70
     0
 10
0.0
 20
0.0
 30
0.0
  3
block 51
  1

  0
INSERT
  5
1A7
330
1A2
100
AcDbEntity
  8
_U+5207_U+65AD_U+30D1_U+30B9
100
AcDbBlockReference
  2
block 52
 10
0.0
 20
0.0
 30
0.0
  0
INSERT
  5
1AC
330
1A2
100
AcDbEntity
  8
_U+5207_U+65AD_U+30D1_U+30B9
100
AcDbBlockReference
  2
block 53
 10
0.0
 20
0.0
 30
0.0
  0
ENDBLK
  5
1A5
330
1A2
100
AcDbEntity
  8
0
100
AcDbBlockEnd
  0
BLOCK
  5
1A8
330
1A6
100
AcDbEntity
  8
0
100
AcDbBlockBegin
  2
block 52
 70
     0
 10
0.0
 20
0.0
 30
0.0
  3
block 52
  1

  0
SPLINE
  5
1AA
330
1A6
100
AcDbEntity
  8
_U+5207_U+65AD_U+30D1_U+30B9
 62
     1
420
 16711680
370
     9
100
AcDbSpline
210
0.0
220
0.0
230
1.0
 70
    11
 71
     3
 72
    20
 73
    16
 74
     0
 42
0.0000000001
 43
0.0000000001
 12
1.0
 22
0.0
 32
0.0
 13
1.0
 23
0.0
 33
0.0
 40
0.0
 40
0.0
 40
0.0
 40
0.0
 40
1.0
 40
1.0
 40
1.0
 40
2.0
 40
2.0
 40
2.0
 40
3.0
 40
3.0
 40
3.0
 40
4.0
 40
4.0
 40
4.0
 40
5.0
 40
5.0
 40
5.0
 40
5.0
 10
114.8475722364106
 20
155.2541511353216
 30
0.0
 10
114.8475714665431
 20
156.7024102375862
 30
0.0
 10
116.0316888101927
 20
157.8741043994509
 30
0.0
 10
117.4845914914396
 20
157.8538900460425
 30
0.0
 10
118.8653668790146
 20
157.8346792055492
 30
0.0
 10
120.0280974164316
 20
156.671949904359
 30
0.0
 10
120.0473097249944
 20
155.2911745372112
 30
0.0
 10
120.0675256231604
 20
153.8382718774066
 30
0.0
 10
118.8958327201808
 20
152.6541532879645
 30
0.0
 10
117.4475736178713
 20
152.6541525180969
 30
0.0
 10
116.0116332686657
 20
152.654151754778
 30
0.0
 10
114.8475729997296
 20
153.8182107861378
 30
0.0
 10
114.8475722364106
 20
155.2541511353216
 30
0.0
 10
114.8475722364106
 20
155.2541511353216
 30
0.0
 10
114.8475722364106
 20
155.2541511353216
 30
0.0
 10
114.8475722364106
 20
155.2541511353216
 30
0.0
  0
ENDBLK
  5
1A9
330
1A6
100
AcDbEntity
  8
0
100
AcDbBlockEnd
  0
BLOCK
  5
1AD
330
1AB
100
AcDbEntity
  8
0
100
AcDbBlockBegin
  2
block 53
 70
     0
 10
0.0
 20
0.0
 30
0.0
  3
block 53
  1

  0
SPLINE
  5
1AF
330
1AB
100
AcDbEntity
  8
_U+5207_U+65AD_U+30D1_U+30B9
 62
     1
420
 16711680
370
     9
100
AcDbSpline
210
0.0
220
0.0
230
1.0
 70
    11
 71
     3
 72
    38
 73
    34
 74
     0
 42
0.0000000001
 43
0.0000000001
 12
1.0
 22
0.0
 32
0.0
 13
1.0
 23
0.0
 33
0.0
 40
0.0
 40
0.0
 40
0.0
 40
0.0
 40
1.0
 40
1.0
 40
1.0
 40
2.0
 40
2.0
 40
2.0
 40
3.0
 40
3.0
 40
3.0
 40
4.0
 40
4.0
 40
4.0
 40
5.0
 40
5.0
 40
5.0
 40
6.0
 40
6.0
 40
6.0
 40
7.0
 40
7.0
 40
7.0
 40
8.0
 40
8.0
 40
8.0
 40
9.0
 40
9.0
 40
9.0
 40
10.0
 40
10.0
 40
10.0
 40
11.0
 40
11.0
 40
11.0
 40
11.0
 10
122.5556991357272
 20
150.9218504845317
 30
0.0
 10
122.9545014158751
 20
150.9217205381532
 30
0.0
 10
123.2022660999354
 20
151.3716336301137
 30
0.0
 10
122.9723282612937
 20
151.6974738760906
 30
0.0
 10
122.8159665994004
 20
151.9190508147704
 30
0.0
 10
122.6780510050156
 20
152.1778552491169
 30
0.0
 10
122.5825163285584
 20
152.4770873669632
 30
0.0
 10
122.4763508665148
 20
152.8096144427536
 30
0.0
 10
122.4464242909676
 20
153.117196874046
 30
0.0
 10
122.4475735532896
 20
153.3694101613365
 30
0.0
 10
122.4475735532896
 20
153.3694101613365
 30
0.0
 10
122.4475776661037
 20
155.1227731294969
 30
0.0
 10
122.4475776661037
 20
155.1227731294969
 30
0.0
 10
122.4475836865132
 20
157.6893764532151
 30
0.0
 10
120.5673181328026
 20
159.9412318667108
 30
0.0
 10
118.0161940693274
 20
160.2226899170763
 30
0.0
 10
115.0001440753286
 20
160.5554418844427
 30
0.0
 10
112.4475701482064
 20
158.2028878026955
 30
0.0
 10
112.4475729411995
 20
155.254146539853
 30
0.0
 10
112.4475729411995
 20
155.254146539853
 30
0.0
 10
112.4475729411995
 20
153.371789430406
 30
0.0
 10
112.4475729411995
 20
153.371789430406
 30
0.0
 10
112.4473979949444
 20
153.1155066240736
 30
0.0
 10
112.4141689723968
 20
152.3307461703039
 30
0.0
 10
111.8516279433491
 20
151.5769162144376
 30
0.0
 10
111.8516279433491
 20
151.5769162144376
 30
0.0
 10
111.8516274554499
 20
151.5769155630188
 30
0.0
 10
111.8516274554499
 20
151.5769155630188
 30
0.0
 10
111.6504661180736
 20
151.3083349071565
 30
0.0
 10
111.8420413129253
 20
150.9253414400828
 30
0.0
 10
112.1776026953117
 20
150.9252321002205
 30
0.0
 10
112.1776026953117
 20
150.9252321002205
 30
0.0
 10
122.5556991357272
 20
150.9218504845317
 30
0.0
 10
122.5556991357272
 20
150.9218504845317
 30
0.0
  0
ENDBLK
  5
1AE
330
1AB
100
AcDbEntity
  8
0
100
AcDbBlockEnd
  0
BLOCK
  5
1B2
330
1B0
100
AcDbEntity
  8
0
100
AcDbBlockBegin
  2
block 54
 70
     0
 10
0.0
 20
0.0
 30
0.0
  3
block 54
  1

  0
INSERT
  5
1B5
330
1B0
100
AcDbEntity
  8
_U+5207_U+65AD_U+30D1_U+30B9
100
AcDbBlockReference
  2
block 55
 10
0.0
 20
0.0
 30
0.0
  0
INSERT
  5
1BA
330
1B0
100
AcDbEntity
  8
_U+5207_U+65AD_U+30D1_U+30B9
100
AcDbBlockReference
  2
block 56
 10
0.0
 20
0.0
 30
0.0
  0
ENDBLK
  5
1B3
330
1B0
100
AcDbEntity
  8
0
100
AcDbBlockEnd
  0
BLOCK
  5
1B6
330
1B4
100
AcDbEntity
  8
0
100
AcDbBlockBegin
  2
block 55
 70
     0
 10
0.0
 20
0.0
 30
0.0
  3
block 55
  1

  0
SPLINE
  5
1B8
330
1B4
100
AcDbEntity
  8
_U+5207_U+65AD_U+30D1_U+30B9
 62
     1
420
 16711680
370
     9
100
AcDbSpline
210
0.0
220
0.0
230
1.0
 70
    11
 71
     3
 72
    20
 73
    16
 74
     0
 42
0.0000000001
 43
0.0000000001
 12
1.0
 22
0.0
 32
0.0
 13
1.0
 23
0.0
 33
0.0
 40
0.0
 40
0.0
 40
0.0
 40
0.0
 40
1.0
 40
1.0
 40
1.0
 40
2.0
 40
2.0
 40
2.0
 40
3.0
 40
3.0
 40
3.0
 40
4.0
 40
4.0
 40
4.0
 40
5.0
 40
5.0
 40
5.0
 40
5.0
 10
129.5100156397121
 20
155.0872309299849
 30
0.0
 10
129.5100148698452
 20
156.5354900322495
 30
0.0
 10
130.6941322134941
 20
157.7071841941142
 30
0.0
 10
132.1470348947411
 20
157.6869698407059
 30
0.0
 10
133.5278102823161
 20
157.6677590002126
 30
0.0
 10
134.6905408197337
 20
156.5050296990223
 30
0.0
 10
134.7097531282959
 20
155.1242543318745
 30
0.0
 10
134.7299690264618
 20
153.6713516720699
 30
0.0
 10
133.5582761234823
 20
152.4872330826278
 30
0.0
 10
132.1100170211728
 20
152.4872323127603
 30
0.0
 10
130.6740766719672
 20
152.4872315494413
 30
0.0
 10
129.5100164030311
 20
153.6512905808011
 30
0.0
 10
129.5100156397121
 20
155.0872309299849
 30
0.0
 10
129.5100156397121
 20
155.0872309299849
 30
0.0
 10
129.5100156397121
 20
155.0872309299849
 30
0.0
 10
129.5100156397121
 20
155.0872309299849
 30
0.0
  0
ENDBLK
  5
1B7
330
1B4
100
AcDbEntity
  8
0
100
AcDbBlockEnd
  0
BLOCK
  5
1BB
330
1B9
100
AcDbEntity
  8
0
100
AcDbBlockBegin
  2
block 56
 70
     0
 10
0.0
 20
0.0
 30
0.0
  3
block 56
  1

  0
SPLINE
  5
1BD
330
1B9
100
AcDbEntity
  8
_U+5207_U+65AD_U+30D1_U+30B9
 62
     1
420
 16711680
370
     9
100
AcDbSpline
210
0.0
220
0.0
230
1.0
 70
    11
 71
     3
 72
    38
 73
    34
 74
     0
 42
0.0000000001
 43
0.0000000001
 12
1.0
 22
0.0
 32
0.0
 13
1.0
 23
0.0
 33
0.0
 40
0.0
 40
0.0
 40
0.0
 40
0.0
 40
1.0
 40
1.0
 40
1.0
 40
2.0
 40
2.0
 40
2.0
 40
3.0
 40
3.0
 40
3.0
 40
4.0
 40
4.0
 40
4.0
 40
5.0
 40
5.0
 40
5.0
 40
6.0
 40
6.0
 40
6.0
 40
7.0
 40
7.0
 40
7.0
 40
8.0
 40
8.0
 40
8.0
 40
9.0
 40
9.0
 40
9.0
 40
10.0
 40
10.0
 40
10.0
 40
11.0
 40
11.0
 40
11.0
 40
11.0
 10
137.2181425390287
 20
150.754930279195
 30
0.0
 10
137.6169448191772
 20
150.7548003328166
 30
0.0
 10
137.8647095032369
 20
151.2047134247771
 30
0.0
 10
137.6347716645951
 20
151.530553670754
 30
0.0
 10
137.4784100027018
 20
151.7521306094337
 30
0.0
 10
137.3404944083171
 20
152.0109350437802
 30
0.0
 10
137.2449597318605
 20
152.3101671616266
 30
0.0
 10
137.1387942698163
 20
152.6426942374169
 30
0.0
 10
137.1088676942697
 20
152.9502766687094
 30
0.0
 10
137.1100169565917
 20
153.2024899559999
 30
0.0
 10
137.1100169565917
 20
153.2024899559999
 30
0.0
 10
137.1100210694051
 20
154.9558529241603
 30
0.0
 10
137.1100210694051
 20
154.9558529241603
 30
0.0
 10
137.1100270898153
 20
157.5224562478784
 30
0.0
 10
135.229761536104
 20
159.7743116613742
 30
0.0
 10
132.6786374726289
 20
160.0557697117397
 30
0.0
 10
129.6625874786301
 20
160.388521679106
 30
0.0
 10
127.1100135515078
 20
158.0359675973588
 30
0.0
 10
127.1100163445016
 20
155.0872263345163
 30
0.0
 10
127.1100163445016
 20
155.0872263345163
 30
0.0
 10
127.1100163445016
 20
153.2048692250694
 30
0.0
 10
127.1100163445016
 20
153.2048692250694
 30
0.0
 10
127.1098413982465
 20
152.9485864187369
 30
0.0
 10
127.0766123756976
 20
152.1638259649672
 30
0.0
 10
126.5140713466512
 20
151.409996009101
 30
0.0
 10
126.5140713466512
 20
151.409996009101
 30
0.0
 10
126.514070858752
 20
151.4099953576821
 30
0.0
 10
126.514070858752
 20
151.4099953576821
 30
0.0
 10
126.3129095213757
 20
151.1414147018199
 30
0.0
 10
126.5044847162267
 20
150.7584212347462
 30
0.0
 10
126.8400460986131
 20
150.7583118948839
 30
0.0
 10
126.8400460986131
 20
150.7583118948839
 30
0.0
 10
137.2181425390287
 20
150.754930279195
 30
0.0
 10
137.2181425390287
 20
150.754930279195
 30
0.0
  0
ENDBLK
  5
1BC
330
1B9
100
AcDbEntity
  8
0
100
AcDbBlockEnd
  0
BLOCK
  5
1C0
330
1BE
100
AcDbEntity
  8
0
100
AcDbBlockBegin
  2
block 57
 70
     0
 10
0.0
 20
0.0
 30
0.0
  3
block 57
  1

  0
INSERT
  5
1C3
330
1BE
100
AcDbEntity
  8
_U+5207_U+65AD_U+30D1_U+30B9
100
AcDbBlockReference
  2
block 58
 10
0.0
 20
0.0
 30
0.0
  0
INSERT
  5
1C8
330
1BE
100
AcDbEntity
  8
_U+5207_U+65AD_U+30D1_U+30B9
100
AcDbBlockReference
  2
block 59
 10
0.0
 20
0.0
 30
0.0
  0
ENDBLK
  5
1C1
330
1BE
100
AcDbEntity
  8
0
100
AcDbBlockEnd
  0
BLOCK
  5
1C4
330
1C2
100
AcDbEntity
  8
0
100
AcDbBlockBegin
  2
block 58
 70
     0
 10
0.0
 20
0.0
 30
0.0
  3
block 58
  1

  0
SPLINE
  5
1C6
330
1C2
100
AcDbEntity
  8
_U+5207_U+65AD_U+30D1_U+30B9
 62
     1
420
 16711680
370
     9
100
AcDbSpline
210
0.0
220
0.0
230
1.0
 70
    11
 71
     3
 72
    20
 73
    16
 74
     0
 42
0.0000000001
 43
0.0000000001
 12
1.0
 22
0.0
 32
0.0
 13
1.0
 23
0.0
 33
0.0
 40
0.0
 40
0.0
 40
0.0
 40
0.0
 40
1.0
 40
1.0
 40
1.0
 40
2.0
 40
2.0
 40
2.0
 40
3.0
 40
3.0
 40
3.0
 40
4.0
 40
4.0
 40
4.0
 40
5.0
 40
5.0
 40
5.0
 40
5.0
 10
144.0338510705825
 20
154.7533905193135
 30
0.0
 10
144.0338503007156
 20
156.2016496215781
 30
0.0
 10
145.2179676443652
 20
157.3733437834428
 30
0.0
 10
146.6708703256115
 20
157.3531294300345
 30
0.0
 10
148.0516457131865
 20
157.3339185895412
 30
0.0
 10
149.2143762506035
 20
156.1711892883509
 30
0.0
 10
149.2335885591663
 20
154.7904139212031
 30
0.0
 10
149.2538044573323
 20
153.3375112613986
 30
0.0
 10
148.0821115543527
 20
152.1533926719564
 30
0.0
 10
146.6338524520432
 20
152.1533919020889
 30
0.0
 10
145.1979121028376
 20
152.1533911387699
 30
0.0
 10
144.0338518339015
 20
153.3174501701297
 30
0.0
 10
144.0338510705825
 20
154.7533905193135
 30
0.0
 10
144.0338510705825
 20
154.7533905193135
 30
0.0
 10
144.0338510705825
 20
154.7533905193135
 30
0.0
 10
144.0338510705825
 20
154.7533905193135
 30
0.0
  0
ENDBLK
  5
1C5
330
1C2
100
AcDbEntity
  8
0
100
AcDbBlockEnd
  0
BLOCK
  5
1C9
330
1C7
100
AcDbEntity
  8
0
100
AcDbBlockBegin
  2
block 59
 70
     0
 10
0.0
 20
0.0
 30
0.0
  3
block 59
  1

  0
SPLINE
  5
1CB
330
1C7
100
AcDbEntity
  8
_U+5207_U+65AD_U+30D1_U+30B9
 62
     1
420
 16711680
370
     9
100
AcDbSpline
210
0.0
220
0.0
230
1.0
 70
    11
 71
     3
 72
    38
 73
    34
 74
     0
 42
0.0000000001
 43
0.0000000001
 12
1.0
 22
0.0
 32
0.0
 13
1.0
 23
0.0
 33
0.0
 40
0.0
 40
0.0
 40
0.0
 40
0.0
 40
1.0
 40
1.0
 40
1.0
 40
2.0
 40
2.0
 40
2.0
 40
3.0
 40
3.0
 40
3.0
 40
4.0
 40
4.0
 40
4.0
 40
5.0
 40
5.0
 40
5.0
 40
6.0
 40
6.0
 40
6.0
 40
7.0
 40
7.0
 40
7.0
 40
8.0
 40
8.0
 40
8.0
 40
9.0
 40
9.0
 40
9.0
 40
10.0
 40
10.0
 40
10.0
 40
11.0
 40
11.0
 40
11.0
 40
11.0
 10
151.7419779698991
 20
150.4210898685236
 30
0.0
 10
152.1407802500476
 20
150.4209599221452
 30
0.0
 10
152.3885449341079
 20
150.8708730141057
 30
0.0
 10
152.1586070954662
 20
151.1967132600826
 30
0.0
 10
152.0022454335722
 20
151.4182901987623
 30
0.0
 10
151.8643298391875
 20
151.6770946331088
 30
0.0
 10
151.7687951627309
 20
151.9763267509552
 30
0.0
 10
151.6626297006874
 20
152.3088538267455
 30
0.0
 10
151.6327031251401
 20
152.616436258038
 30
0.0
 10
151.6338523874622
 20
152.8686495453285
 30
0.0
 10
151.6338523874622
 20
152.8686495453285
 30
0.0
 10
151.6338565002756
 20
154.6220125134889
 30
0.0
 10
151.6338565002756
 20
154.6220125134889
 30
0.0
 10
151.6338625206857
 20
157.188615837207
 30
0.0
 10
149.7535969669744
 20
159.4404712507028
 30
0.0
 10
147.2024729035
 20
159.7219293010683
 30
0.0
 10
144.1864229095005
 20
160.0546812684346
 30
0.0
 10
141.6338489823783
 20
157.7021271866875
 30
0.0
 10
141.633851775372
 20
154.7533859238449
 30
0.0
 10
141.633851775372
 20
154.7533859238449
 30
0.0
 10
141.633851775372
 20
152.871028814398
 30
0.0
 10
141.633851775372
 20
152.871028814398
 30
0.0
 10
141.6336768291169
 20
152.6147460080656
 30
0.0
 10
141.6004478065693
 20
151.8299855542958
 30
0.0
 10
141.0379067775216
 20
151.0761555984296
 30
0.0
 10
141.0379067775216
 20
151.0761555984296
 30
0.0
 10
141.0379062896224
 20
151.0761549470107
 30
0.0
 10
141.0379062896224
 20
151.0761549470107
 30
0.0
 10
140.8367449522461
 20
150.8075742911485
 30
0.0
 10
141.0283201470978
 20
150.4245808240748
 30
0.0
 10
141.3638815294836
 20
150.4244714842125
 30
0.0
 10
141.3638815294836
 20
150.4244714842125
 30
0.0
 10
151.7419779698991
 20
150.4210898685236
 30
0.0
 10
151.7419779698991
 20
150.4210898685236
 30
0.0
  0
ENDBLK
  5
1CA
330
1C7
100
AcDbEntity
  8
0
100
AcDbBlockEnd
  0
BLOCK
  5
1CE
330
1CC
100
AcDbEntity
  8
0
100
AcDbBlockBegin
  2
block 60
 70
     0
 10
0.0
 20
0.0
 30
0.0
  3
block 60
  1

  0
INSERT
  5
1D1
330
1CC
100
AcDbEntity
  8
_U+5207_U+65AD_U+30D1_U+30B9
100
AcDbBlockReference
  2
block 61
 10
0.0
 20
0.0
 30
0.0
  0
INSERT
  5
1D6
330
1CC
100
AcDbEntity
  8
_U+5207_U+65AD_U+30D1_U+30B9
100
AcDbBlockReference
  2
block 62
 10
0.0
 20
0.0
 30
0.0
  0
ENDBLK
  5
1CF
330
1CC
100
AcDbEntity
  8
0
100
AcDbBlockEnd
  0
BLOCK
  5
1D2
330
1D0
100
AcDbEntity
  8
0
100
AcDbBlockBegin
  2
block 61
 70
     0
 10
0.0
 20
0.0
 30
0.0
  3
block 61
  1

  0
SPLINE
  5
1D4
330
1D0
100
AcDbEntity
  8
_U+5207_U+65AD_U+30D1_U+30B9
 62
     1
420
 16711680
370
     9
100
AcDbSpline
210
0.0
220
0.0
230
1.0
 70
    11
 71
     3
 72
    20
 73
    16
 74
     0
 42
0.0000000001
 43
0.0000000001
 12
1.0
 22
0.0
 32
0.0
 13
1.0
 23
0.0
 33
0.0
 40
0.0
 40
0.0
 40
0.0
 40
0.0
 40
1.0
 40
1.0
 40
1.0
 40
2.0
 40
2.0
 40
2.0
 40
3.0
 40
3.0
 40
3.0
 40
4.0
 40
4.0
 40
4.0
 40
5.0
 40
5.0
 40
5.0
 40
5.0
 10
100.0751003899182
 20
141.689537544032
 30
0.0
 10
100.0750996200501
 20
143.1377966462962
 30
0.0
 10
101.2592169636996
 20
144.3094908081609
 30
0.0
 10
102.7121196449472
 20
144.2892764547526
 30
0.0
 10
104.0928950325222
 20
144.2700656142593
 30
0.0
 10
105.2556255699392
 20
143.107336313069
 30
0.0
 10
105.274837878502
 20
141.7265609459209
 30
0.0
 10
105.295053776668
 20
140.2736582861163
 30
0.0
 10
104.1233608736884
 20
139.0895396966748
 30
0.0
 10
102.6751017713789
 20
139.0895389268067
 30
0.0
 10
101.2391614221733
 20
139.0895381634877
 30
0.0
 10
100.0751011532372
 20
140.2535971948482
 30
0.0
 10
100.0751003899182
 20
141.689537544032
 30
0.0
 10
100.0751003899182
 20
141.689537544032
 30
0.0
 10
100.0751003899182
 20
141.689537544032
 30
0.0
 10
100.0751003899182
 20
141.689537544032
 30
0.0
  0
ENDBLK
  5
1D3
330
1D0
100
AcDbEntity
  8
0
100
AcDbBlockEnd
  0
BLOCK
  5
1D7
330
1D5
100
AcDbEntity
  8
0
100
AcDbBlockBegin
  2
block 62
 70
     0
 10
0.0
 20
0.0
 30
0.0
  3
block 62
  1

  0
SPLINE
  5
1D9
330
1D5
100
AcDbEntity
  8
_U+5207_U+65AD_U+30D1_U+30B9
 62
     1
420
 16711680
370
     9
100
AcDbSpline
210
0.0
220
0.0
230
1.0
 70
    11
 71
     3
 72
    38
 73
    34
 74
     0
 42
0.0000000001
 43
0.0000000001
 12
1.0
 22
0.0
 32
0.0
 13
1.0
 23
0.0
 33
0.0
 40
0.0
 40
0.0
 40
0.0
 40
0.0
 40
1.0
 40
1.0
 40
1.0
 40
2.0
 40
2.0
 40
2.0
 40
3.0
 40
3.0
 40
3.0
 40
4.0
 40
4.0
 40
4.0
 40
5.0
 40
5.0
 40
5.0
 40
6.0
 40
6.0
 40
6.0
 40
7.0
 40
7.0
 40
7.0
 40
8.0
 40
8.0
 40
8.0
 40
9.0
 40
9.0
 40
9.0
 40
10.0
 40
10.0
 40
10.0
 40
11.0
 40
11.0
 40
11.0
 40
11.0
 10
107.7832272892336
 20
137.3572368932414
 30
0.0
 10
108.182029569382
 20
137.357106946863
 30
0.0
 10
108.429794253443
 20
137.8070200388235
 30
0.0
 10
108.1998564148013
 20
138.1328602848003
 30
0.0
 10
108.043494752908
 20
138.3544372234801
 30
0.0
 10
107.9055791585232
 20
138.6132416578272
 30
0.0
 10
107.8100444820653
 20
138.9124737756736
 30
0.0
 10
107.7038790200218
 20
139.245000851464
 30
0.0
 10
107.6739524444746
 20
139.5525832827564
 30
0.0
 10
107.6751017067966
 20
139.8047965700469
 30
0.0
 10
107.6751017067966
 20
139.8047965700469
 30
0.0
 10
107.6751058196113
 20
141.5581595382073
 30
0.0
 10
107.6751058196113
 20
141.5581595382073
 30
0.0
 10
107.6751118400201
 20
144.1247628619251
 30
0.0
 10
105.7948462863102
 20
146.3766182754209
 30
0.0
 10
103.2437222228351
 20
146.6580763257864
 30
0.0
 10
100.2276722288362
 20
146.9908282931527
 30
0.0
 10
97.67509830171366
 20
144.6382742114056
 30
0.0
 10
97.6751010947068
 20
141.6895329485633
 30
0.0
 10
97.6751010947068
 20
141.6895329485633
 30
0.0
 10
97.6751010947068
 20
139.8071758391164
 30
0.0
 10
97.6751010947068
 20
139.8071758391164
 30
0.0
 10
97.67492614845169
 20
139.550893032784
 30
0.0
 10
97.6416971259038
 20
138.7661325790142
 30
0.0
 10
97.07915609685638
 20
138.012302623148
 30
0.0
 10
97.07915609685638
 20
138.012302623148
 30
0.0
 10
97.07915560895721
 20
138.0123019717285
 30
0.0
 10
97.07915560895721
 20
138.0123019717285
 30
0.0
 10
96.87799427158092
 20
137.7437213158669
 30
0.0
 10
97.06956946643255
 20
137.3607278487932
 30
0.0
 10
97.40513084881897
 20
137.3606185089303
 30
0.0
 10
97.40513084881897
 20
137.3606185089303
 30
0.0
 10
107.7832272892336
 20
137.3572368932414
 30
0.0
 10
107.7832272892336
 20
137.3572368932414
 30
0.0
  0
ENDBLK
  5
1D8
330
1D5
100
AcDbEntity
  8
0
100
AcDbBlockEnd
  0
BLOCK
  5
1DC
330
1DA
100
AcDbEntity
  8
0
100
AcDbBlockBegin
  2
block 63
 70
     0
 10
0.0
 20
0.0
 30
0.0
  3
block 63
  1

  0
INSERT
  5
1DF
330
1DA
100
AcDbEntity
  8
_U+5207_U+65AD_U+30D1_U+30B9
100
AcDbBlockReference
  2
block 64
 10
0.0
 20
0.0
 30
0.0
  0
INSERT
  5
1E4
330
1DA
100
AcDbEntity
  8
_U+5207_U+65AD_U+30D1_U+30B9
100
AcDbBlockReference
  2
block 65
 10
0.0
 20
0.0
 30
0.0
  0
ENDBLK
  5
1DD
330
1DA
100
AcDbEntity
  8
0
100
AcDbBlockEnd
  0
BLOCK
  5
1E0
330
1DE
100
AcDbEntity
  8
0
100
AcDbBlockBegin
  2
block 64
 70
     0
 10
0.0
 20
0.0
 30
0.0
  3
block 64
  1

  0
SPLINE
  5
1E2
330
1DE
100
AcDbEntity
  8
_U+5207_U+65AD_U+30D1_U+30B9
 62
     1
420
 16711680
370
     9
100
AcDbSpline
210
0.0
220
0.0
230
1.0
 70
    11
 71
     3
 72
    20
 73
    16
 74
     0
 42
0.0000000001
 43
0.0000000001
 12
1.0
 22
0.0
 32
0.0
 13
1.0
 23
0.0
 33
0.0
 40
0.0
 40
0.0
 40
0.0
 40
0.0
 40
1.0
 40
1.0
 40
1.0
 40
2.0
 40
2.0
 40
2.0
 40
3.0
 40
3.0
 40
3.0
 40
4.0
 40
4.0
 40
4.0
 40
5.0
 40
5.0
 40
5.0
 40
5.0
 10
114.5989358207887
 20
141.3556971333599
 30
0.0
 10
114.5989350509205
 20
142.8039562356248
 30
0.0
 10
115.78305239457
 20
143.9756503974895
 30
0.0
 10
117.2359550758176
 20
143.9554360440812
 30
0.0
 10
118.6167304633926
 20
143.9362252035879
 30
0.0
 10
119.7794610008097
 20
142.7734959023976
 30
0.0
 10
119.7986733093724
 20
141.3927205352502
 30
0.0
 10
119.8188892075378
 20
139.9398178754456
 30
0.0
 10
118.6471963045589
 20
138.7556992860028
 30
0.0
 10
117.1989372022494
 20
138.7556985161359
 30
0.0
 10
115.7629968530437
 20
138.755697752817
 30
0.0
 10
114.5989365841076
 20
139.9197567841761
 30
0.0
 10
114.5989358207887
 20
141.3556971333599
 30
0.0
 10
114.5989358207887
 20
141.3556971333599
 30
0.0
 10
114.5989358207887
 20
141.3556971333599
 30
0.0
 10
114.5989358207887
 20
141.3556971333599
 30
0.0
  0
ENDBLK
  5
1E1
330
1DE
100
AcDbEntity
  8
0
100
AcDbBlockEnd
  0
BLOCK
  5
1E5
330
1E3
100
AcDbEntity
  8
0
100
AcDbBlockBegin
  2
block 65
 70
     0
 10
0.0
 20
0.0
 30
0.0
  3
block 65
  1

  0
SPLINE
  5
1E7
330
1E3
100
AcDbEntity
  8
_U+5207_U+65AD_U+30D1_U+30B9
 62
     1
420
 16711680
370
     9
100
AcDbSpline
210
0.0
220
0.0
230
1.0
 70
    11
 71
     3
 72
    38
 73
    34
 74
     0
 42
0.0000000001
 43
0.0000000001
 12
1.0
 22
0.0
 32
0.0
 13
1.0
 23
0.0
 33
0.0
 40
0.0
 40
0.0
 40
0.0
 40
0.0
 40
1.0
 40
1.0
 40
1.0
 40
2.0
 40
2.0
 40
2.0
 40
3.0
 40
3.0
 40
3.0
 40
4.0
 40
4.0
 40
4.0
 40
5.0
 40
5.0
 40
5.0
 40
6.0
 40
6.0
 40
6.0
 40
7.0
 40
7.0
 40
7.0
 40
8.0
 40
8.0
 40
8.0
 40
9.0
 40
9.0
 40
9.0
 40
10.0
 40
10.0
 40
10.0
 40
11.0
 40
11.0
 40
11.0
 40
11.0
 10
122.3070627201053
 20
137.0233964825707
 30
0.0
 10
122.7058650002525
 20
137.0232665361922
 30
0.0
 10
122.9536296843134
 20
137.4731796281527
 30
0.0
 10
122.7236918456717
 20
137.7990198741296
 30
0.0
 10
122.5673301837784
 20
138.0205968128094
 30
0.0
 10
122.4294145893936
 20
138.2794012471552
 30
0.0
 10
122.3338799129357
 20
138.5786333650016
 30
0.0
 10
122.2277144508922
 20
138.9111604407919
 30
0.0
 10
122.197787875345
 20
139.2187428720844
 30
0.0
 10
122.198937137667
 20
139.4709561593749
 30
0.0
 10
122.198937137667
 20
139.4709561593749
 30
0.0
 10
122.1989412504811
 20
141.2243191275353
 30
0.0
 10
122.1989412504811
 20
141.2243191275353
 30
0.0
 10
122.1989472708906
 20
143.7909224512537
 30
0.0
 10
120.3186817171806
 20
146.0427778647495
 30
0.0
 10
117.7675576537055
 20
146.324235915115
 30
0.0
 10
114.7515076597067
 20
146.6569878824814
 30
0.0
 10
112.1989337325844
 20
144.3044338007342
 30
0.0
 10
112.1989365255769
 20
141.3556925378913
 30
0.0
 10
112.1989365255769
 20
141.3556925378913
 30
0.0
 10
112.1989365255769
 20
139.4733354284444
 30
0.0
 10
112.1989365255769
 20
139.4733354284444
 30
0.0
 10
112.1987615793218
 20
139.2170526221119
 30
0.0
 10
112.1655325567742
 20
138.4322921683422
 30
0.0
 10
111.6029915277265
 20
137.678462212476
 30
0.0
 10
111.6029915277265
 20
137.678462212476
 30
0.0
 10
111.6029910398273
 20
137.6784615610578
 30
0.0
 10
111.6029910398273
 20
137.6784615610578
 30
0.0
 10
111.401829702451
 20
137.4098809051949
 30
0.0
 10
111.5934048973033
 20
137.0268874381212
 30
0.0
 10
111.9289662796891
 20
137.0267780982595
 30
0.0
 10
111.9289662796891
 20
137.0267780982595
 30
0.0
 10
122.3070627201053
 20
137.0233964825707
 30
0.0
 10
122.3070627201053
 20
137.0233964825707
 30
0.0
  0
ENDBLK
  5
1E6
330
1E3
100
AcDbEntity
  8
0
100
AcDbBlockEnd
  0
BLOCK
  5
1EA
330
1E8
100
AcDbEntity
  8
0
100
AcDbBlockBegin
  2
block 66
 70
     0
 10
0.0
 20
0.0
 30
0.0
  3
block 66
  1

  0
INSERT
  5
1ED
330
1E8
100
AcDbEntity
  8
_U+5207_U+65AD_U+30D1_U+30B9
100
AcDbBlockReference
  2
block 67
 10
0.0
 20
0.0
 30
0.0
  0
INSERT
  5
1F2
330
1E8
100
AcDbEntity
  8
_U+5207_U+65AD_U+30D1_U+30B9
100
AcDbBlockReference
  2
block 68
 10
0.0
 20
0.0
 30
0.0
  0
ENDBLK
  5
1EB
330
1E8
100
AcDbEntity
  8
0
100
AcDbBlockEnd
  0
BLOCK
  5
1EE
330
1EC
100
AcDbEntity
  8
0
100
AcDbBlockBegin
  2
block 67
 70
     0
 10
0.0
 20
0.0
 30
0.0
  3
block 67
  1

  0
SPLINE
  5
1F0
330
1EC
100
AcDbEntity
  8
_U+5207_U+65AD_U+30D1_U+30B9
 62
     1
420
 16711680
370
     9
100
AcDbSpline
210
0.0
220
0.0
230
1.0
 70
    11
 71
     3
 72
    20
 73
    16
 74
     0
 42
0.0000000001
 43
0.0000000001
 12
1.0
 22
0.0
 32
0.0
 13
1.0
 23
0.0
 33
0.0
 40
0.0
 40
0.0
 40
0.0
 40
0.0
 40
1.0
 40
1.0
 40
1.0
 40
2.0
 40
2.0
 40
2.0
 40
3.0
 40
3.0
 40
3.0
 40
4.0
 40
4.0
 40
4.0
 40
5.0
 40
5.0
 40
5.0
 40
5.0
 10
129.2613792240901
 20
141.1887769280239
 30
0.0
 10
129.2613784542233
 20
142.6370360302882
 30
0.0
 10
130.4454957978728
 20
143.8087301921529
 30
0.0
 10
131.8983984791191
 20
143.7885158387445
 30
0.0
 10
133.2791738666941
 20
143.7693049982512
 30
0.0
 10
134.4419044041111
 20
142.606575697061
 30
0.0
 10
134.4611167126739
 20
141.2258003299129
 30
0.0
 10
134.4813326108398
 20
139.7728976701083
 30
0.0
 10
133.3096397078603
 20
138.5887790806668
 30
0.0
 10
131.8613806055508
 20
138.5887783107986
 30
0.0
 10
130.4254402563452
 20
138.5887775474797
 30
0.0
 10
129.2613799874091
 20
139.7528365788401
 30
0.0
 10
129.2613792240901
 20
141.1887769280239
 30
0.0
 10
129.2613792240901
 20
141.1887769280239
 30
0.0
 10
129.2613792240901
 20
141.1887769280239
 30
0.0
 10
129.2613792240901
 20
141.1887769280239
 30
0.0
  0
ENDBLK
  5
1EF
330
1EC
100
AcDbEntity
  8
0
100
AcDbBlockEnd
  0
BLOCK
  5
1F3
330
1F1
100
AcDbEntity
  8
0
100
AcDbBlockBegin
  2
block 68
 70
     0
 10
0.0
 20
0.0
 30
0.0
  3
block 68
  1

  0
SPLINE
  5
1F5
330
1F1
100
AcDbEntity
  8
_U+5207_U+65AD_U+30D1_U+30B9
 62
     1
420
 16711680
370
     9
100
AcDbSpline
210
0.0
220
0.0
230
1.0
 70
    11
 71
     3
 72
    38
 73
    34
 74
     0
 42
0.0000000001
 43
0.0000000001
 12
1.0
 22
0.0
 32
0.0
 13
1.0
 23
0.0
 33
0.0
 40
0.0
 40
0.0
 40
0.0
 40
0.0
 40
1.0
 40
1.0
 40
1.0
 40
2.0
 40
2.0
 40
2.0
 40
3.0
 40
3.0
 40
3.0
 40
4.0
 40
4.0
 40
4.0
 40
5.0
 40
5.0
 40
5.0
 40
6.0
 40
6.0
 40
6.0
 40
7.0
 40
7.0
 40
7.0
 40
8.0
 40
8.0
 40
8.0
 40
9.0
 40
9.0
 40
9.0
 40
10.0
 40
10.0
 40
10.0
 40
11.0
 40
11.0
 40
11.0
 40
11.0
 10
136.9695061234067
 20
136.8564762772334
 30
0.0
 10
137.3683084035539
 20
136.8563463308549
 30
0.0
 10
137.6160730876149
 20
137.3062594228154
 30
0.0
 10
137.3861352489731
 20
137.6320996687923
 30
0.0
 10
137.2297735870798
 20
137.8536766074721
 30
0.0
 10
137.0918579926951
 20
138.1124810418192
 30
0.0
 10
136.9963233162378
 20
138.4117131596656
 30
0.0
 10
136.890157854195
 20
138.7442402354559
 30
0.0
 10
136.8602312786477
 20
139.0518226667484
 30
0.0
 10
136.8613805409697
 20
139.3040359540389
 30
0.0
 10
136.8613805409697
 20
139.3040359540389
 30
0.0
 10
136.8613846537832
 20
141.0573989221993
 30
0.0
 10
136.8613846537832
 20
141.0573989221993
 30
0.0
 10
136.8613906741926
 20
143.6240022459171
 30
0.0
 10
134.981125120482
 20
145.8758576594128
 30
0.0
 10
132.4300010570069
 20
146.1573157097783
 30
0.0
 10
129.4139510630081
 20
146.4900676771447
 30
0.0
 10
126.8613771358859
 20
144.1375135953975
 30
0.0
 10
126.8613799288796
 20
141.1887723325553
 30
0.0
 10
126.8613799288796
 20
141.1887723325553
 30
0.0
 10
126.8613799288796
 20
139.3064152231083
 30
0.0
 10
126.8613799288796
 20
139.3064152231083
 30
0.0
 10
126.8612049826245
 20
139.0501324167759
 30
0.0
 10
126.827975960077
 20
138.2653719630062
 30
0.0
 10
126.2654349310292
 20
137.51154200714
 30
0.0
 10
126.2654349310292
 20
137.51154200714
 30
0.0
 10
126.2654344431294
 20
137.5115413557205
 30
0.0
 10
126.2654344431294
 20
137.5115413557205
 30
0.0
 10
126.0642731057538
 20
137.2429606998588
 30
0.0
 10
126.2558483006048
 20
136.8599672327852
 30
0.0
 10
126.5914096829912
 20
136.8598578929222
 30
0.0
 10
126.5914096829912
 20
136.8598578929222
 30
0.0
 10
136.9695061234067
 20
136.8564762772334
 30
0.0
 10
136.9695061234067
 20
136.8564762772334
 30
0.0
  0
ENDBLK
  5
1F4
330
1F1
100
AcDbEntity
  8
0
100
AcDbBlockEnd
  0
BLOCK
  5
1F8
330
1F6
100
AcDbEntity
  8
0
100
AcDbBlockBegin
  2
block 69
 70
     0
 10
0.0
 20
0.0
 30
0.0
  3
block 69
  1

  0
INSERT
  5
1FB
330
1F6
100
AcDbEntity
  8
_U+5207_U+65AD_U+30D1_U+30B9
100
AcDbBlockReference
  2
block 70
 10
0.0
 20
0.0
 30
0.0
  0
INSERT
  5
200
330
1F6
100
AcDbEntity
  8
_U+5207_U+65AD_U+30D1_U+30B9
100
AcDbBlockReference
  2
block 71
 10
0.0
 20
0.0
 30
0.0
  0
ENDBLK
  5
1F9
330
1F6
100
AcDbEntity
  8
0
100
AcDbBlockEnd
  0
BLOCK
  5
1FC
330
1FA
100
AcDbEntity
  8
0
100
AcDbBlockBegin
  2
block 70
 70
     0
 10
0.0
 20
0.0
 30
0.0
  3
block 70
  1

  0
SPLINE
  5
1FE
330
1FA
100
AcDbEntity
  8
_U+5207_U+65AD_U+30D1_U+30B9
 62
     1
420
 16711680
370
     9
100
AcDbSpline
210
0.0
220
0.0
230
1.0
 70
    11
 71
     3
 72
    20
 73
    16
 74
     0
 42
0.0000000001
 43
0.0000000001
 12
1.0
 22
0.0
 32
0.0
 13
1.0
 23
0.0
 33
0.0
 40
0.0
 40
0.0
 40
0.0
 40
0.0
 40
1.0
 40
1.0
 40
1.0
 40
2.0
 40
2.0
 40
2.0
 40
3.0
 40
3.0
 40
3.0
 40
4.0
 40
4.0
 40
4.0
 40
5.0
 40
5.0
 40
5.0
 40
5.0
 10
143.7852146549599
 20
140.8549365173519
 30
0.0
 10
143.7852138850937
 20
142.3031956196168
 30
0.0
 10
144.9693312287432
 20
143.4748897814815
 30
0.0
 10
146.4222339099895
 20
143.4546754280731
 30
0.0
 10
147.8030092975645
 20
143.4354645875798
 30
0.0
 10
148.9657398349815
 20
142.2727352863896
 30
0.0
 10
148.9849521435443
 20
140.8919599192421
 30
0.0
 10
149.0051680417096
 20
139.4390572594375
 30
0.0
 10
147.8334751387307
 20
138.2549386699947
 30
0.0
 10
146.3852160364212
 20
138.2549379001279
 30
0.0
 10
144.9492756872156
 20
138.2549371368089
 30
0.0
 10
143.7852154182795
 20
139.4189961681681
 30
0.0
 10
143.7852146549599
 20
140.8549365173519
 30
0.0
 10
143.7852146549599
 20
140.8549365173519
 30
0.0
 10
143.7852146549599
 20
140.8549365173519
 30
0.0
 10
143.7852146549599
 20
140.8549365173519
 30
0.0
  0
ENDBLK
  5
1FD
330
1FA
100
AcDbEntity
  8
0
100
AcDbBlockEnd
  0
BLOCK
  5
201
330
1FF
100
AcDbEntity
  8
0
100
AcDbBlockBegin
  2
block 71
 70
     0
 10
0.0
 20
0.0
 30
0.0
  3
block 71
  1

  0
SPLINE
  5
203
330
1FF
100
AcDbEntity
  8
_U+5207_U+65AD_U+30D1_U+30B9
 62
     1
420
 16711680
370
     9
100
AcDbSpline
210
0.0
220
0.0
230
1.0
 70
    11
 71
     3
 72
    38
 73
    34
 74
     0
 42
0.0000000001
 43
0.0000000001
 12
1.0
 22
0.0
 32
0.0
 13
1.0
 23
0.0
 33
0.0
 40
0.0
 40
0.0
 40
0.0
 40
0.0
 40
1.0
 40
1.0
 40
1.0
 40
2.0
 40
2.0
 40
2.0
 40
3.0
 40
3.0
 40
3.0
 40
4.0
 40
4.0
 40
4.0
 40
5.0
 40
5.0
 40
5.0
 40
6.0
 40
6.0
 40
6.0
 40
7.0
 40
7.0
 40
7.0
 40
8.0
 40
8.0
 40
8.0
 40
9.0
 40
9.0
 40
9.0
 40
10.0
 40
10.0
 40
10.0
 40
11.0
 40
11.0
 40
11.0
 40
11.0
 10
151.4933415542771
 20
136.5226358665626
 30
0.0
 10
151.8921438344256
 20
136.5225059201842
 30
0.0
 10
152.1399085184853
 20
136.9724190121447
 30
0.0
 10
151.9099706798436
 20
137.2982592581216
 30
0.0
 10
151.7536090179503
 20
137.5198361968013
 30
0.0
 10
151.6156934235655
 20
137.7786406311472
 30
0.0
 10
151.5201587471089
 20
138.0778727489935
 30
0.0
 10
151.4139932850654
 20
138.4103998247839
 30
0.0
 10
151.3840667095182
 20
138.7179822560763
 30
0.0
 10
151.3852159718402
 20
138.9701955433668
 30
0.0
 10
151.3852159718402
 20
138.9701955433668
 30
0.0
 10
151.3852200846536
 20
140.7235585115272
 30
0.0
 10
151.3852200846536
 20
140.7235585115272
 30
0.0
 10
151.3852261050637
 20
143.2901618352457
 30
0.0
 10
149.5049605513525
 20
145.5420172487415
 30
0.0
 10
146.9538364878774
 20
145.8234752991069
 30
0.0
 10
143.9377864938785
 20
146.1562272664733
 30
0.0
 10
141.3852125667563
 20
143.8036731847261
 30
0.0
 10
141.38521535975
 20
140.8549319218833
 30
0.0
 10
141.38521535975
 20
140.8549319218833
 30
0.0
 10
141.38521535975
 20
138.9725748124363
 30
0.0
 10
141.38521535975
 20
138.9725748124363
 30
0.0
 10
141.3850404134949
 20
138.7162920061039
 30
0.0
 10
141.3518113909474
 20
137.9315315523341
 30
0.0
 10
140.7892703618996
 20
137.1777015964679
 30
0.0
 10
140.7892703618996
 20
137.1777015964679
 30
0.0
 10
140.7892698740005
 20
137.1777009450497
 30
0.0
 10
140.7892698740005
 20
137.1777009450497
 30
0.0
 10
140.5881085366242
 20
136.9091202891868
 30
0.0
 10
140.7796837314752
 20
136.5261268221131
 30
0.0
 10
141.1152451138609
 20
136.5260174822515
 30
0.0
 10
141.1152451138609
 20
136.5260174822515
 30
0.0
 10
151.4933415542771
 20
136.5226358665626
 30
0.0
 10
151.4933415542771
 20
136.5226358665626
 30
0.0
  0
ENDBLK
  5
202
330
1FF
100
AcDbEntity
  8
0
100
AcDbBlockEnd
  0
BLOCK
  5
206
330
204
100
AcDbEntity
  8
0
100
AcDbBlockBegin
  2
block 72
 70
     0
 10
0.0
 20
0.0
 30
0.0
  3
block 72
  1

  0
INSERT
  5
209
330
204
100
AcDbEntity
  8
_U+5207_U+65AD_U+30D1_U+30B9
100
AcDbBlockReference
  2
block 73
 10
0.0
 20
0.0
 30
0.0
  0
INSERT
  5
20E
330
204
100
AcDbEntity
  8
_U+5207_U+65AD_U+30D1_U+30B9
100
AcDbBlockReference
  2
block 74
 10
0.0
 20
0.0
 30
0.0
  0
INSERT
  5
213
330
204
100
AcDbEntity
  8
_U+5207_U+65AD_U+30D1_U+30B9
100
AcDbBlockReference
  2
block 75
 10
0.0
 20
0.0
 30
0.0
  0
ENDBLK
  5
207
330
204
100
AcDbEntity
  8
0
100
AcDbBlockEnd
  0
BLOCK
  5
20A
330
208
100
AcDbEntity
  8
0
100
AcDbBlockBegin
  2
block 73
 70
     0
 10
0.0
 20
0.0
 30
0.0
  3
block 73
  1

  0
SPLINE
  5
20C
330
208
100
AcDbEntity
  8
_U+5207_U+65AD_U+30D1_U+30B9
 62
     1
420
 16711680
370
     9
100
AcDbSpline
210
0.0
220
0.0
230
1.0
 70
    11
 71
     3
 72
    32
 73
    28
 74
     0
 42
0.0000000001
 43
0.0000000001
 12
1.0
 22
0.0
 32
0.0
 13
1.0
 23
0.0
 33
0.0
 40
0.0
 40
0.0
 40
0.0
 40
0.0
 40
1.0
 40
1.0
 40
1.0
 40
2.0
 40
2.0
 40
2.0
 40
3.0
 40
3.0
 40
3.0
 40
4.0
 40
4.0
 40
4.0
 40
5.0
 40
5.0
 40
5.0
 40
6.0
 40
6.0
 40
6.0
 40
7.0
 40
7.0
 40
7.0
 40
8.0
 40
8.0
 40
8.0
 40
9.0
 40
9.0
 40
9.0
 40
9.0
 10
225.7300687799803
 20
57.8927791475238
 30
0.0
 10
225.7300687799803
 20
57.8927791475238
 30
0.0
 10
178.3734820590508
 20
57.8927791475238
 30
0.0
 10
178.3734820590508
 20
57.8927791475238
 30
0.0
 10
177.850731136162
 20
57.83292955510413
 30
0.0
 10
177.5923311472004
 20
57.59857297935772
 30
0.0
 10
177.2917179643727
 20
57.25388864814414
 30
0.0
 10
177.2917179643727
 20
57.25388864814414
 30
0.0
 10
166.4353029249779
 20
38.41409857854733
 30
0.0
 10
166.4353029249779
 20
38.41409857854733
 30
0.0
 10
166.2651860598481
 20
38.00939475456889
 30
0.0
 10
166.4553563641955
 20
37.54341051598586
 30
0.0
 10
166.8600601881784
 20
37.37329365085484
 30
0.0
 10
166.919678773045
 20
37.34823303575045
 30
0.0
 10
166.9821328884288
 20
37.33054176719392
 30
0.0
 10
167.0460376051988
 20
37.32061215164373
 30
0.0
 10
167.0460376051988
 20
37.32061215164373
 30
0.0
 10
225.719759895704
 20
37.32178197469602
 30
0.0
 10
225.719759895704
 20
37.32178197469602
 30
0.0
 10
225.9959218571938
 20
37.32178214435868
 30
0.0
 10
226.2197952227977
 20
37.54565578503907
 30
0.0
 10
226.2197950531344
 20
37.82181774652759
 30
0.0
 10
226.2197950531344
 20
37.82181774652759
 30
0.0
 10
226.2306022179937
 20
57.3925516984418
 30
0.0
 10
226.2306022179937
 20
57.3925516984418
 30
0.0
 10
226.2302392714435
 20
57.66878866674561
 30
0.0
 10
226.0063059185833
 20
57.89258512340736
 30
0.0
 10
225.7300687799803
 20
57.8927791475238
 30
0.0
  0
ENDBLK
  5
20B
330
208
100
AcDbEntity
  8
0
100
AcDbBlockEnd
  0
BLOCK
  5
20F
330
20D
100
AcDbEntity
  8
0
100
AcDbBlockBegin
  2
block 74
 70
     0
 10
0.0
 20
0.0
 30
0.0
  3
block 74
  1

  0
SPLINE
  5
211
330
20D
100
AcDbEntity
  8
_U+5207_U+65AD_U+30D1_U+30B9
 62
     1
420
 16711680
370
     9
100
AcDbSpline
210
0.0
220
0.0
230
1.0
 70
    11
 71
     3
 72
    20
 73
    16
 74
     0
 42
0.0000000001
 43
0.0000000001
 12
1.0
 22
0.0
 32
0.0
 13
1.0
 23
0.0
 33
0.0
 40
0.0
 40
0.0
 40
0.0
 40
0.0
 40
1.0
 40
1.0
 40
1.0
 40
2.0
 40
2.0
 40
2.0
 40
3.0
 40
3.0
 40
3.0
 40
4.0
 40
4.0
 40
4.0
 40
5.0
 40
5.0
 40
5.0
 40
5.0
 10
178.7566772152481
 20
55.4155635579659
 30
0.0
 10
179.36423353052
 20
55.41556393122362
 30
0.0
 10
179.8567555400141
 20
54.92304252689976
 30
0.0
 10
179.8567559132719
 20
54.31548621162271
 30
0.0
 10
179.856756286529
 20
53.70792989634823
 30
0.0
 10
179.3642348822051
 20
53.21540788685277
 30
0.0
 10
178.7566785669345
 20
53.2154075135944
 30
0.0
 10
178.1491222516555
 20
53.21540714033668
 30
0.0
 10
177.6566002421607
 20
53.70792854466246
 30
0.0
 10
177.656599868903
 20
54.3154848599363
 30
0.0
 10
177.6565994956452
 20
54.92304117521336
 30
0.0
 10
178.1491208999691
 20
55.41556318470817
 30
0.0
 10
178.7566772152481
 20
55.4155635579659
 30
0.0
 10
178.7566772152481
 20
55.4155635579659
 30
0.0
 10
178.7566772152481
 20
55.4155635579659
 30
0.0
 10
178.7566772152481
 20
55.4155635579659
 30
0.0
  0
ENDBLK
  5
210
330
20D
100
AcDbEntity
  8
0
100
AcDbBlockEnd
  0
BLOCK
  5
214
330
212
100
AcDbEntity
  8
0
100
AcDbBlockBegin
  2
block 75
 70
     0
 10
0.0
 20
0.0
 30
0.0
  3
block 75
  1

  0
SPLINE
  5
216
330
212
100
AcDbEntity
  8
_U+5207_U+65AD_U+30D1_U+30B9
 62
     1
420
 16711680
370
     9
100
AcDbSpline
210
0.0
220
0.0
230
1.0
 70
    11
 71
     3
 72
    20
 73
    16
 74
     0
 42
0.0000000001
 43
0.0000000001
 12
1.0
 22
0.0
 32
0.0
 13
1.0
 23
0.0
 33
0.0
 40
0.0
 40
0.0
 40
0.0
 40
0.0
 40
1.0
 40
1.0
 40
1.0
 40
2.0
 40
2.0
 40
2.0
 40
3.0
 40
3.0
 40
3.0
 40
4.0
 40
4.0
 40
4.0
 40
5.0
 40
5.0
 40
5.0
 40
5.0
 10
170.2560832253765
 20
40.9145298612707
 30
0.0
 10
170.8636395406549
 20
40.91453023452907
 30
0.0
 10
171.3561615501413
 20
40.422008830202
 30
0.0
 10
171.3561619233991
 20
39.81445251493073
 30
0.0
 10
171.3561622966574
 20
39.20689619965238
 30
0.0
 10
170.8636408923406
 20
38.71437419015501
 30
0.0
 10
170.2560845770629
 20
38.71437381689793
 30
0.0
 10
169.6485282617788
 20
38.71437344363828
 30
0.0
 10
169.1560062522847
 20
39.20689484796598
 30
0.0
 10
169.1560058790269
 20
39.81445116324432
 30
0.0
 10
169.1560055057692
 20
40.42200747851624
 30
0.0
 10
169.6485269100931
 20
40.91452948801233
 30
0.0
 10
170.2560832253765
 20
40.9145298612707
 30
0.0
 10
170.2560832253765
 20
40.9145298612707
 30
0.0
 10
170.2560832253765
 20
40.9145298612707
 30
0.0
 10
170.2560832253765
 20
40.9145298612707
 30
0.0
  0
ENDBLK
  5
215
330
212
100
AcDbEntity
  8
0
100
AcDbBlockEnd
  0
BLOCK
  5
219
330
217
100
AcDbEntity
  8
0
100
AcDbBlockBegin
  2
block 76
 70
     0
 10
0.0
 20
0.0
 30
0.0
  3
block 76
  1

  0
POLYLINE
  5
21B
330
217
100
AcDbEntity
  8
_U+5207_U+65AD_U+30D1_U+30B9
 62
     1
420
 16711680
370
     9
100
AcDb2dPolyline
 66
     1
 10
0.0
 20
0.0
 30
0.0
  0
VERTEX
  5
21C
330
21B
100
AcDbEntity
  8
_U+5207_U+65AD_U+30D1_U+30B9
 62
     1
420
 16711680
370
     9
100
AcDbVertex
100
AcDb2dVertex
 10
263.501509751555
 20
122.0645838788844
 30
0.0
  0
VERTEX
  5
3E4
330
21B
100
AcDbEntity
  8
0
100
AcDbVertex
100
AcDb2dVertex
 10
263.501509751555
 20
122.0645838788844
 30
0.0
  0
SEQEND
  5
21D
330
21B
100
AcDbEntity
  8
_U+5207_U+65AD_U+30D1_U+30B9
 62
     1
420
 16711680
370
     9
  0
POLYLINE
  5
21E
330
217
100
AcDbEntity
  8
_U+5207_U+65AD_U+30D1_U+30B9
 62
     1
420
 16711680
370
     9
100
AcDb2dPolyline
 66
     1
 10
0.0
 20
0.0
 30
0.0
  0
VERTEX
  5
21F
330
21E
100
AcDbEntity
  8
_U+5207_U+65AD_U+30D1_U+30B9
 62
     1
420
 16711680
370
     9
100
AcDbVertex
100
AcDb2dVertex
 10
263.501509751555
 20
122.0645838788844
 30
0.0
  0
VERTEX
  5
3E5
330
21E
100
AcDbEntity
  8
0
100
AcDbVertex
100
AcDb2dVertex
 10
263.501509751555
 20
122.0645838788844
 30
0.0
  0
SEQEND
  5
220
330
21E
100
AcDbEntity
  8
_U+5207_U+65AD_U+30D1_U+30B9
 62
     1
420
 16711680
370
     9
  0
INSERT
  5
222
330
217
100
AcDbEntity
  8
_U+5207_U+65AD_U+30D1_U+30B9
100
AcDbBlockReference
  2
block 77
 10
0.0
 20
0.0
 30
0.0
  0
SPLINE
  5
22B
330
217
100
AcDbEntity
  8
_U+5207_U+65AD_U+30D1_U+30B9
 62
     1
420
 16711680
370
     9
100
AcDbSpline
210
0.0
220
0.0
230
1.0
 70
    11
 71
     3
 72
    17
 73
    13
 74
     0
 42
0.0000000001
 43
0.0000000001
 12
1.0
 22
0.0
 32
0.0
 13
1.0
 23
0.0
 33
0.0
 40
0.0
 40
0.0
 40
0.0
 40
0.0
 40
1.0
 40
1.0
 40
1.0
 40
2.0
 40
2.0
 40
2.0
 40
3.0
 40
3.0
 40
3.0
 40
4.0
 40
4.0
 40
4.0
 40
4.0
 10
233.1116522209709
 20
48.12435113822559
 30
0.0
 10
234.3552240319442
 20
48.84233056914326
 30
0.0
 10
235.9453509168356
 20
48.41625838493312
 30
0.0
 10
236.6633303477526
 20
47.17268657395975
 30
0.0
 10
237.3812882468229
 20
45.92913629483317
 30
0.0
 10
236.9552160626133
 20
44.3390094099418
 30
0.0
 10
235.7116657834868
 20
43.62102997902413
 30
0.0
 10
234.4680939725134
 20
42.90305054810775
 30
0.0
 10
232.8779670876214
 20
43.32912273231725
 30
0.0
 10
232.1599876567044
 20
44.57269454329062
 30
0.0
 10
231.4420297576341
 20
45.81624482241784
 30
0.0
 10
231.8681019418443
 20
47.406393239156
 30
0.0
 10
233.1116522209709
 20
48.12435113822559
 30
0.0
  0
INSERT
  5
22D
330
217
100
AcDbEntity
  8
_U+5207_U+65AD_U+30D1_U+30B9
100
AcDbBlockReference
  2
block 79
 10
0.0
 20
0.0
 30
0.0
  0
INSERT
  5
232
330
217
100
AcDbEntity
  8
_U+5207_U+65AD_U+30D1_U+30B9
100
AcDbBlockReference
  2
block 80
 10
0.0
 20
0.0
 30
0.0
  0
INSERT
  5
237
330
217
100
AcDbEntity
  8
_U+5207_U+65AD_U+30D1_U+30B9
100
AcDbBlockReference
  2
block 81
 10
0.0
 20
0.0
 30
0.0
  0
INSERT
  5
23C
330
217
100
AcDbEntity
  8
_U+5207_U+65AD_U+30D1_U+30B9
100
AcDbBlockReference
  2
block 82
 10
0.0
 20
0.0
 30
0.0
  0
INSERT
  5
241
330
217
100
AcDbEntity
  8
_U+5207_U+65AD_U+30D1_U+30B9
100
AcDbBlockReference
  2
block 83
 10
0.0
 20
0.0
 30
0.0
  0
INSERT
  5
246
330
217
100
AcDbEntity
  8
_U+5207_U+65AD_U+30D1_U+30B9
100
AcDbBlockReference
  2
block 84
 10
0.0
 20
0.0
 30
0.0
  0
INSERT
  5
24B
330
217
100
AcDbEntity
  8
_U+5207_U+65AD_U+30D1_U+30B9
100
AcDbBlockReference
  2
block 85
 10
0.0
 20
0.0
 30
0.0
  0
INSERT
  5
250
330
217
100
AcDbEntity
  8
_U+5207_U+65AD_U+30D1_U+30B9
100
AcDbBlockReference
  2
block 86
 10
0.0
 20
0.0
 30
0.0
  0
INSERT
  5
25B
330
217
100
AcDbEntity
  8
_U+5207_U+65AD_U+30D1_U+30B9
100
AcDbBlockReference
  2
block 87
 10
0.0
 20
0.0
 30
0.0
  0
INSERT
  5
266
330
217
100
AcDbEntity
  8
_U+5207_U+65AD_U+30D1_U+30B9
100
AcDbBlockReference
  2
block 88
 10
0.0
 20
0.0
 30
0.0
  0
INSERT
  5
271
330
217
100
AcDbEntity
  8
_U+5207_U+65AD_U+30D1_U+30B9
100
AcDbBlockReference
  2
block 89
 10
0.0
 20
0.0
 30
0.0
  0
INSERT
  5
27C
330
217
100
AcDbEntity
  8
_U+5207_U+65AD_U+30D1_U+30B9
100
AcDbBlockReference
  2
block 90
 10
0.0
 20
0.0
 30
0.0
  0
INSERT
  5
287
330
217
100
AcDbEntity
  8
_U+5207_U+65AD_U+30D1_U+30B9
100
AcDbBlockReference
  2
block 91
 10
0.0
 20
0.0
 30
0.0
  0
INSERT
  5
292
330
217
100
AcDbEntity
  8
_U+5207_U+65AD_U+30D1_U+30B9
100
AcDbBlockReference
  2
block 92
 10
0.0
 20
0.0
 30
0.0
  0
INSERT
  5
29D
330
217
100
AcDbEntity
  8
_U+5207_U+65AD_U+30D1_U+30B9
100
AcDbBlockReference
  2
block 93
 10
0.0
 20
0.0
 30
0.0
  0
INSERT
  5
2A8
330
217
100
AcDbEntity
  8
_U+5207_U+65AD_U+30D1_U+30B9
100
AcDbBlockReference
  2
block 94
 10
0.0
 20
0.0
 30
0.0
  0
INSERT
  5
2B3
330
217
100
AcDbEntity
  8
_U+5207_U+65AD_U+30D1_U+30B9
100
AcDbBlockReference
  2
block 95
 10
0.0
 20
0.0
 30
0.0
  0
INSERT
  5
2BE
330
217
100
AcDbEntity
  8
_U+5207_U+65AD_U+30D1_U+30B9
100
AcDbBlockReference
  2
block 96
 10
0.0
 20
0.0
 30
0.0
  0
INSERT
  5
2C9
330
217
100
AcDbEntity
  8
_U+5207_U+65AD_U+30D1_U+30B9
100
AcDbBlockReference
  2
block 97
 10
0.0
 20
0.0
 30
0.0
  0
INSERT
  5
2D4
330
217
100
AcDbEntity
  8
_U+5207_U+65AD_U+30D1_U+30B9
100
AcDbBlockReference
  2
block 98
 10
0.0
 20
0.0
 30
0.0
  0
INSERT
  5
2DF
330
217
100
AcDbEntity
  8
_U+5207_U+65AD_U+30D1_U+30B9
100
AcDbBlockReference
  2
block 99
 10
0.0
 20
0.0
 30
0.0
  0
INSERT
  5
2EA
330
217
100
AcDbEntity
  8
_U+5207_U+65AD_U+30D1_U+30B9
100
AcDbBlockReference
  2
block 100
 10
0.0
 20
0.0
 30
0.0
  0
INSERT
  5
2F5
330
217
100
AcDbEntity
  8
_U+5207_U+65AD_U+30D1_U+30B9
100
AcDbBlockReference
  2
block 101
 10
0.0
 20
0.0
 30
0.0
  0
INSERT
  5
300
330
217
100
AcDbEntity
  8
_U+5207_U+65AD_U+30D1_U+30B9
100
AcDbBlockReference
  2
block 102
 10
0.0
 20
0.0
 30
0.0
  0
INSERT
  5
30B
330
217
100
AcDbEntity
  8
_U+5207_U+65AD_U+30D1_U+30B9
100
AcDbBlockReference
  2
block 103
 10
0.0
 20
0.0
 30
0.0
  0
INSERT
  5
316
330
217
100
AcDbEntity
  8
_U+5207_U+65AD_U+30D1_U+30B9
100
AcDbBlockReference
  2
block 104
 10
0.0
 20
0.0
 30
0.0
  0
ENDBLK
  5
21A
330
217
100
AcDbEntity
  8
0
100
AcDbBlockEnd
  0
BLOCK
  5
223
330
221
100
AcDbEntity
  8
0
100
AcDbBlockBegin
  2
block 77
 70
     0
 10
0.0
 20
0.0
 30
0.0
  3
block 77
  1

  0
INSERT
  5
226
330
221
100
AcDbEntity
  8
_U+5207_U+65AD_U+30D1_U+30B9
100
AcDbBlockReference
  2
block 78
 10
0.0
 20
0.0
 30
0.0
  0
SPLINE
  5
22A
330
221
100
AcDbEntity
  8
_U+5207_U+65AD_U+30D1_U+30B9
 62
     1
420
 16711680
370
     9
100
AcDbSpline
210
0.0
220
0.0
230
1.0
 70
    11
 71
     3
 72
   209
 73
   205
 74
     0
 42
0.0000000001
 43
0.0000000001
 12
1.0
 22
0.0
 32
0.0
 13
1.0
 23
0.0
 33
0.0
 40
0.0
 40
0.0
 40
0.0
 40
0.0
 40
1.0
 40
1.0
 40
1.0
 40
2.0
 40
2.0
 40
2.0
 40
3.0
 40
3.0
 40
3.0
 40
4.0
 40
4.0
 40
4.0
 40
5.0
 40
5.0
 40
5.0
 40
6.0
 40
6.0
 40
6.0
 40
7.0
 40
7.0
 40
7.0
 40
8.0
 40
8.0
 40
8.0
 40
9.0
 40
9.0
 40
9.0
 40
10.0
 40
10.0
 40
10.0
 40
11.0
 40
11.0
 40
11.0
 40
12.0
 40
12.0
 40
12.0
 40
13.0
 40
13.0
 40
13.0
 40
14.0
 40
14.0
 40
14.0
 40
15.0
 40
15.0
 40
15.0
 40
16.0
 40
16.0
 40
16.0
 40
17.0
 40
17.0
 40
17.0
 40
18.0
 40
18.0
 40
18.0
 40
19.0
 40
19.0
 40
19.0
 40
20.0
 40
20.0
 40
20.0
 40
21.0
 40
21.0
 40
21.0
 40
22.0
 40
22.0
 40
22.0
 40
23.0
 40
23.0
 40
23.0
 40
24.0
 40
24.0
 40
24.0
 40
25.0
 40
25.0
 40
25.0
 40
26.0
 40
26.0
 40
26.0
 40
27.0
 40
27.0
 40
27.0
 40
28.0
 40
28.0
 40
28.0
 40
29.0
 40
29.0
 40
29.0
 40
30.0
 40
30.0
 40
30.0
 40
31.0
 40
31.0
 40
31.0
 40
32.0
 40
32.0
 40
32.0
 40
33.0
 40
33.0
 40
33.0
 40
34.0
 40
34.0
 40
34.0
 40
35.0
 40
35.0
 40
35.0
 40
36.0
 40
36.0
 40
36.0
 40
37.0
 40
37.0
 40
37.0
 40
38.0
 40
38.0
 40
38.0
 40
39.0
 40
39.0
 40
39.0
 40
40.0
 40
40.0
 40
40.0
 40
41.0
 40
41.0
 40
41.0
 40
42.0
 40
42.0
 40
42.0
 40
43.0
 40
43.0
 40
43.0
 40
44.0
 40
44.0
 40
44.0
 40
45.0
 40
45.0
 40
45.0
 40
46.0
 40
46.0
 40
46.0
 40
47.0
 40
47.0
 40
47.0
 40
48.0
 40
48.0
 40
48.0
 40
49.0
 40
49.0
 40
49.0
 40
50.0
 40
50.0
 40
50.0
 40
51.0
 40
51.0
 40
51.0
 40
52.0
 40
52.0
 40
52.0
 40
53.0
 40
53.0
 40
53.0
 40
54.0
 40
54.0
 40
54.0
 40
55.0
 40
55.0
 40
55.0
 40
56.0
 40
56.0
 40
56.0
 40
57.0
 40
57.0
 40
57.0
 40
58.0
 40
58.0
 40
58.0
 40
59.0
 40
59.0
 40
59.0
 40
60.0
 40
60.0
 40
60.0
 40
61.0
 40
61.0
 40
61.0
 40
62.0
 40
62.0
 40
62.0
 40
63.0
 40
63.0
 40
63.0
 40
64.0
 40
64.0
 40
64.0
 40
65.0
 40
65.0
 40
65.0
 40
66.0
 40
66.0
 40
66.0
 40
67.0
 40
67.0
 40
67.0
 40
68.0
 40
68.0
 40
68.0
 40
68.0
 10
270.5190841426665
 20
123.9578647003163
 30
0.0
 10
270.7952459706348
 20
123.9578647003041
 30
0.0
 10
271.0191193655354
 20
124.1817380951874
 30
0.0
 10
271.0191193655482
 20
124.4578999231544
 30
0.0
 10
271.0191193655482
 20
124.4578999231544
 30
0.0
 10
271.0191193656156
 20
125.9580055917247
 30
0.0
 10
271.0191193656156
 20
125.9580055917247
 30
0.0
 10
271.0191193656278
 20
126.2341674196898
 30
0.0
 10
271.2429927605381
 20
126.4580408145789
 30
0.0
 10
271.5191545884994
 20
126.4580408145673
 30
0.0
 10
271.5191545884994
 20
126.4580408145673
 30
0.0
 10
289.5204226114005
 20
126.4580408137588
 30
0.0
 10
289.5204226114005
 20
126.4580408137588
 30
0.0
 10
289.7965844393624
 20
126.458040813746
 30
0.0
 10
290.0204578342695
 20
126.6819142086261
 30
0.0
 10
290.0204578342824
 20
126.9580760365886
 30
0.0
 10
290.0204578342824
 20
126.9580760365886
 30
0.0
 10
290.0204578343382
 20
128.2081640937369
 30
0.0
 10
290.0204578343382
 20
128.2081640937369
 30
0.0
 10
290.0204578343503
 20
128.484325921702
 30
0.0
 10
290.2443312292536
 20
128.7081993165808
 30
0.0
 10
290.5204930572142
 20
128.7081993165687
 30
0.0
 10
290.5204930572142
 20
128.7081993165687
 30
0.0
 10
307.5216906344044
 20
128.7081993158057
 30
0.0
 10
307.5216906344044
 20
128.7081993158057
 30
0.0
 10
307.797852462363
 20
128.7081993157929
 30
0.0
 10
308.0217258572464
 20
128.4843259208935
 30
0.0
 10
308.0217258572342
 20
128.2081640929284
 30
0.0
 10
308.0217258572342
 20
128.2081640929284
 30
0.0
 10
308.0217258571784
 20
126.9580760357807
 30
0.0
 10
308.0217258571784
 20
126.9580760357807
 30
0.0
 10
308.0217258571656
 20
126.6819142078176
 30
0.0
 10
308.2455992520547
 20
126.4580408129182
 30
0.0
 10
308.5217610800165
 20
126.4580408129053
 30
0.0
 10
308.5217610800165
 20
126.4580408129053
 30
0.0
 10
326.5230291029158
 20
126.4580408120974
 30
0.0
 10
326.5230291029158
 20
126.4580408120974
 30
0.0
 10
326.7991909308802
 20
126.4580408120852
 30
0.0
 10
327.0230643257661
 20
126.2341674171749
 30
0.0
 10
327.023064325754
 20
125.9580055892105
 30
0.0
 10
327.023064325754
 20
125.9580055892105
 30
0.0
 10
327.0230643255852
 20
122.2077414177745
 30
0.0
 10
327.0230643255852
 20
122.2077414177745
 30
0.0
 10
327.023064325573
 20
121.9315795898152
 30
0.0
 10
327.2469377204557
 20
121.7077061949043
 30
0.0
 10
327.5230995484234
 20
121.7077061948921
 30
0.0
 10
327.5230995484234
 20
121.7077061948921
 30
0.0
 10
346.0297087200786
 20
121.7077061940605
 30
0.0
 10
346.0297087200786
 20
121.7077061940605
 30
0.0
 10
346.3058705480418
 20
121.7077061940489
 30
0.0
 10
346.5297439429283
 20
121.4838327991482
 30
0.0
 10
346.5297439429156
 20
121.2076709711812
 30
0.0
 10
346.5297439429156
 20
121.2076709711812
 30
0.0
 10
346.529743942886
 20
120.5415653301678
 30
0.0
 10
346.529743942886
 20
120.5415653301678
 30
0.0
 10
346.529743942886
 20
120.5415653301678
 30
0.0
 10
346.5730476182698
 20
120.3213086157263
 30
0.0
 10
346.5730476182698
 20
120.3213086157263
 30
0.0
 10
346.8039551431045
 20
118.8940055561771
 30
0.0
 10
348.0383543872681
 20
117.8029438159433
 30
0.0
 10
349.5308558788655
 20
117.8029438158759
 30
0.0
 10
349.5308558788655
 20
117.8029438158759
 30
0.0
 10
351.2743756402569
 20
117.8029438157982
 30
0.0
 10
351.2743756402569
 20
117.8029438157982
 30
0.0
 10
353.9666746982861
 20
117.802943815677
 30
0.0
 10
356.2832645617089
 20
115.7339486582126
 30
0.0
 10
356.409893352518
 20
113.0446425268805
 30
0.0
 10
356.5450918183383
 20
110.1733276946926
 30
0.0
 10
354.2571608427832
 20
107.8029297461691
 30
0.0
 10
351.4156030228561
 20
107.8029297462975
 30
0.0
 10
351.4156030228561
 20
107.8029297462975
 30
0.0
 10
349.5332459134086
 20
107.8029297463815
 30
0.0
 10
349.5332459134086
 20
107.8029297463815
 30
0.0
 10
348.0353183964219
 20
107.8029297464489
 30
0.0
 10
346.7974309929825
 20
106.703879691169
 30
0.0
 10
346.5730476175941
 20
105.2689112941856
 30
0.0
 10
346.5730476175941
 20
105.2689112941856
 30
0.0
 10
346.5730476165654
 20
82.3595215497502
 30
0.0
 10
346.5730476165654
 20
82.3595215497502
 30
0.0
 10
346.7774279061624
 20
80.90162173592384
 30
0.0
 10
348.0261673602822
 20
79.7786713306034
 30
0.0
 10
349.5403944852827
 20
79.77869286238216
 30
0.0
 10
349.5403944852827
 20
79.77869286238216
 30
0.0
 10
351.2839142466747
 20
79.77869286230387
 30
0.0
 10
351.2839142466747
 20
79.77869286230387
 30
0.0
 10
353.9762133047033
 20
79.77869286218323
 30
0.0
 10
356.2928031681268
 20
77.70969770471892
 30
0.0
 10
356.4194319589358
 20
75.02039157338741
 30
0.0
 10
356.5546304247561
 20
72.14907674119952
 30
0.0
 10
354.2666994492016
 20
69.77867879267605
 30
0.0
 10
351.425141629274
 20
69.7786787928031
 30
0.0
 10
351.425141629274
 20
69.7786787928031
 30
0.0
 10
349.5427845198271
 20
69.7786787928878
 30
0.0
 10
349.5427845198271
 20
69.7786787928878
 30
0.0
 10
348.0231313694366
 20
69.77867879295583
 30
0.0
 10
346.7705807783362
 20
68.6477400725919
 30
0.0
 10
346.5730476158839
 20
67.1821964531756
 30
0.0
 10
346.5730476158839
 20
67.1821964531756
 30
0.0
 10
346.5297439404347
 20
65.9537788453319
 30
0.0
 10
346.5297439404347
 20
65.9537788453319
 30
0.0
 10
346.5297439404225
 20
65.67761701737132
 30
0.0
 10
346.3058705455161
 20
65.45374362247962
 30
0.0
 10
346.0297087175529
 20
65.45374362249247
 30
0.0
 10
346.0297087175529
 20
65.45374362249247
 30
0.0
 10
309.5218315229958
 20
65.45374362413136
 30
0.0
 10
309.5218315229958
 20
65.45374362413136
 30
0.0
 10
309.3892139363901
 20
65.45374362413777
 30
0.0
 10
309.2620280208695
 20
65.40106149299493
 30
0.0
 10
309.1682532260747
 20
65.30728669821042
 30
0.0
 10
309.1718068669873
 20
65.31196051236579
 30
0.0
 10
298.6210636640257
 20
50.85271511716464
 30
0.0
 10
298.6210636640257
 20
50.85271511716464
 30
0.0
 10
298.5224265457983
 20
50.7681708611069
 30
0.0
 10
298.4002863094609
 20
50.7158250455369
 30
0.0
 10
298.271039008016
 20
50.70270455032018
 30
0.0
 10
298.271039008016
 20
50.70270455032018
 30
0.0
 10
261.4771896073854
 20
45.23332955830515
 30
0.0
 10
261.4771896073854
 20
45.23332955830515
 30
0.0
 10
261.3819789420027
 20
45.21706618894052
 30
0.0
 10
261.2882774349815
 20
45.19295157795598
 30
0.0
 10
261.1970443577757
 20
45.16123259926888
 30
0.0
 10
261.1970443577757
 20
45.16123259926888
 30
0.0
 10
246.447382286652
 20
36.67171237906673
 30
0.0
 10
246.447382286652
 20
36.67171237906673
 30
0.0
 10
246.054069749089
 20
36.39370523132859
 30
0.0
 10
245.5098576176951
 20
36.48717871845317
 30
0.0
 10
245.2318504699621
 20
36.8804912560085
 30
0.0
 10
245.2318504699621
 20
36.8804912560085
 30
0.0
 10
245.1256704060781
 20
37.08476383743754
 30
0.0
 10
245.1256704060781
 20
37.08476383743754
 30
0.0
 10
245.1256704060781
 20
37.08476383743754
 30
0.0
 10
242.7001061182648
 20
41.31684969243536
 30
0.0
 10
242.7001061182648
 20
41.31684969243536
 30
0.0
 10
241.8711394033097
 20
42.76121382438183
 30
0.0
 10
240.0243827414297
 20
43.2539664365369
 30
0.0
 10
238.5860596098113
 20
42.41456180871528
 30
0.0
 10
238.5860596098113
 20
42.41456180871528
 30
0.0
 10
236.9780796653506
 20
41.47614555359718
 30
0.0
 10
236.9780796653506
 20
41.47614555359718
 30
0.0
 10
234.5866177248209
 20
40.09543164201968
 30
0.0
 10
231.5286650005607
 20
40.91480481278663
 30
0.0
 10
230.147951088989
 20
43.30626675330729
 30
0.0
 10
228.7672371774108
 20
45.69772869383951
 30
0.0
 10
229.5866103482047
 20
48.75568141808238
 30
0.0
 10
231.9780722887344
 20
50.1363953296599
 30
0.0
 10
231.9780722887344
 20
50.1363953296599
 30
0.0
 10
231.9780722887344
 20
50.1363953296599
 30
0.0
 10
231.9780722887344
 20
50.1363953296599
 30
0.0
 10
231.9780722887344
 20
50.1363953296599
 30
0.0
 10
233.6303366353835
 20
51.10528721469665
 30
0.0
 10
233.6303366353835
 20
51.10528721469665
 30
0.0
 10
235.0487556375327
 20
51.93705161338467
 30
0.0
 10
235.5333050950655
 20
53.75560650347557
 30
0.0
 10
234.7167963318398
 20
55.18286188362282
 30
0.0
 10
234.7167963318398
 20
55.18286188362282
 30
0.0
 10
232.2382874290488
 20
59.508382855629
 30
0.0
 10
232.2382874290488
 20
59.508382855629
 30
0.0
 10
232.2382874290488
 20
59.508382855629
 30
0.0
 10
231.9800236401141
 20
59.94157216840006
 30
0.0
 10
231.9800236401141
 20
59.94157216840006
 30
0.0
 10
231.6732100475891
 20
60.5256533705227
 30
0.0
 10
231.8352977370308
 20
61.24604310120742
 30
0.0
 10
232.3627149366897
 20
61.64242237504372
 30
0.0
 10
232.3627149366897
 20
61.64242237504372
 30
0.0
 10
251.4396549428454
 20
72.67979476697313
 30
0.0
 10
251.4396549428454
 20
72.67979476697313
 30
0.0
 10
251.7334249391746
 20
72.93938432239675
 30
0.0
 10
251.9362237406048
 20
73.28632542667815
 30
0.0
 10
252.0182723833823
 20
73.66967326904704
 30
0.0
 10
252.0182723833823
 20
73.66967326904704
 30
0.0
 10
252.0184764210903
 20
105.9624831566587
 30
0.0
 10
252.0184764210903
 20
105.9624831566587
 30
0.0
 10
252.0184764210903
 20
105.9624831566587
 30
0.0
 10
252.0177808968321
 20
122.2232362371273
 30
0.0
 10
252.0177808968321
 20
122.2232362371273
 30
0.0
 10
252.0177808968321
 20
122.2232362371273
 30
0.0
 10
252.017780896888
 20
123.457829478286
 30
0.0
 10
252.017780896888
 20
123.457829478286
 30
0.0
 10
252.0177808969002
 20
123.7339913062504
 30
0.0
 10
252.2416542918047
 20
123.957864701137
 30
0.0
 10
252.517816119773
 20
123.9578647011242
 30
0.0
 10
252.517816119773
 20
123.9578647011242
 30
0.0
 10
253.125521008665
 20
123.9653319842446
 30
0.0
 10
253.125521008665
 20
123.9653319842446
 30
0.0
 10
254.7814708055556
 20
123.9666097803165
 30
0.0
 10
256.1232060907186
 20
125.3093808009172
 30
0.0
 10
256.1232060904683
 20
126.9653310908065
 30
0.0
 10
256.1232060904683
 20
126.9653310908065
 30
0.0
 10
256.1232060901846
 20
128.8496830868087
 30
0.0
 10
256.1232060901846
 20
128.8496830868087
 30
0.0
 10
256.1232060903124
 20
131.6912492321705
 30
0.0
 10
258.4936043560854
 20
133.9791791978627
 30
0.0
 10
261.3649112415943
 20
133.8439760189368
 30
0.0
 10
264.0542178907577
 20
133.717342808844
 30
0.0
 10
266.1232107267468
 20
131.4007421321025
 30
0.0
 10
266.1232090469981
 20
128.7084557017376
 30
0.0
 10
266.1232090469981
 20
128.7084557017376
 30
0.0
 10
266.1232079597636
 20
126.9658453570707
 30
0.0
 10
266.1232079597636
 20
126.9658453570707
 30
0.0
 10
266.1232069264715
 20
125.3096940245657
 30
0.0
 10
267.4652550113273
 20
123.9668387746159
 30
0.0
 10
269.1214060450906
 20
123.965844027234
 30
0.0
 10
269.1214060450906
 20
123.965844027234
 30
0.0
 10
270.5190841426665
 20
123.9578647003163
 30
0.0
 10
270.5190841426665
 20
123.9578647003163
 30
0.0
  0
ENDBLK
  5
224
330
221
100
AcDbEntity
  8
0
100
AcDbBlockEnd
  0
BLOCK
  5
227
330
225
100
AcDbEntity
  8
0
100
AcDbBlockBegin
  2
block 78
 70
     0
 10
0.0
 20
0.0
 30
0.0
  3
block 78
  1

  0
SPLINE
  5
229
330
225
100
AcDbEntity
  8
_U+5207_U+65AD_U+30D1_U+30B9
 62
     1
420
 16711680
370
     9
100
AcDbSpline
210
0.0
220
0.0
230
1.0
 70
    11
 71
     3
 72
    20
 73
    16
 74
     0
 42
0.0000000001
 43
0.0000000001
 12
1.0
 22
0.0
 32
0.0
 13
1.0
 23
0.0
 33
0.0
 40
0.0
 40
0.0
 40
0.0
 40
0.0
 40
1.0
 40
1.0
 40
1.0
 40
2.0
 40
2.0
 40
2.0
 40
3.0
 40
3.0
 40
3.0
 40
4.0
 40
4.0
 40
4.0
 40
5.0
 40
5.0
 40
5.0
 40
5.0
 10
263.7232060882842
 20
128.8496830864802
 30
0.0
 10
263.7232060883484
 20
130.2856234356858
 30
0.0
 10
262.5591464382579
 20
131.4496830858957
 30
0.0
 10
261.1232060890509
 20
131.4496830859598
 30
0.0
 10
259.6872657398511
 20
131.4496830860247
 30
0.0
 10
258.5232060896483
 20
130.2856234359194
 30
0.0
 10
258.5232060895841
 20
128.8496830867138
 30
0.0
 10
258.5232060895193
 20
127.4137427375287
 30
0.0
 10
259.6872657396175
 20
126.2496830873246
 30
0.0
 10
261.1232060888174
 20
126.2496830872597
 30
0.0
 10
262.5591464380242
 20
126.2496830871956
 30
0.0
 10
263.7232060882194
 20
127.4137427372957
 30
0.0
 10
263.7232060882842
 20
128.8496830864802
 30
0.0
 10
263.7232060882842
 20
128.8496830864802
 30
0.0
 10
263.7232060882842
 20
128.8496830864802
 30
0.0
 10
263.7232060882842
 20
128.8496830864802
 30
0.0
  0
ENDBLK
  5
228
330
225
100
AcDbEntity
  8
0
100
AcDbBlockEnd
  0
BLOCK
  5
22E
330
22C
100
AcDbEntity
  8
0
100
AcDbBlockBegin
  2
block 79
 70
     0
 10
0.0
 20
0.0
 30
0.0
  3
block 79
  1

  0
SPLINE
  5
230
330
22C
100
AcDbEntity
  8
_U+5207_U+65AD_U+30D1_U+30B9
 62
     1
420
 16711680
370
     9
100
AcDbSpline
210
0.0
220
0.0
230
1.0
 70
    11
 71
     3
 72
    20
 73
    16
 74
     0
 42
0.0000000001
 43
0.0000000001
 12
1.0
 22
0.0
 32
0.0
 13
1.0
 23
0.0
 33
0.0
 40
0.0
 40
0.0
 40
0.0
 40
0.0
 40
1.0
 40
1.0
 40
1.0
 40
2.0
 40
2.0
 40
2.0
 40
3.0
 40
3.0
 40
3.0
 40
4.0
 40
4.0
 40
4.0
 40
5.0
 40
5.0
 40
5.0
 40
5.0
 10
351.4477057717078
 20
110.1886111288166
 30
0.0
 10
352.8836461209135
 20
110.1886111287518
 30
0.0
 10
354.047705771124
 20
111.3526707788436
 30
0.0
 10
354.0477057711881
 20
112.7886111280505
 30
0.0
 10
354.047705771253
 20
114.2245514772497
 30
0.0
 10
352.883646121147
 20
115.3886111274519
 30
0.0
 10
351.4477057719414
 20
115.3886111275161
 30
0.0
 10
350.011765422757
 20
115.3886111275809
 30
0.0
 10
348.8477057725528
 20
114.2245514774833
 30
0.0
 10
348.847705772488
 20
112.7886111282841
 30
0.0
 10
348.8477057724239
 20
111.3526707790772
 30
0.0
 10
350.0117654225234
 20
110.1886111288814
 30
0.0
 10
351.4477057717078
 20
110.1886111288166
 30
0.0
 10
351.4477057717078
 20
110.1886111288166
 30
0.0
 10
351.4477057717078
 20
110.1886111288166
 30
0.0
 10
351.4477057717078
 20
110.1886111288166
 30
0.0
  0
ENDBLK
  5
22F
330
22C
100
AcDbEntity
  8
0
100
AcDbBlockEnd
  0
BLOCK
  5
233
330
231
100
AcDbEntity
  8
0
100
AcDbBlockBegin
  2
block 80
 70
     0
 10
0.0
 20
0.0
 30
0.0
  3
block 80
  1

  0
SPLINE
  5
235
330
231
100
AcDbEntity
  8
_U+5207_U+65AD_U+30D1_U+30B9
 62
     1
420
 16711680
370
     9
100
AcDbSpline
210
0.0
220
0.0
230
1.0
 70
    11
 71
     3
 72
    20
 73
    16
 74
     0
 42
0.0000000001
 43
0.0000000001
 12
1.0
 22
0.0
 32
0.0
 13
1.0
 23
0.0
 33
0.0
 40
0.0
 40
0.0
 40
0.0
 40
0.0
 40
1.0
 40
1.0
 40
1.0
 40
2.0
 40
2.0
 40
2.0
 40
3.0
 40
3.0
 40
3.0
 40
4.0
 40
4.0
 40
4.0
 40
5.0
 40
5.0
 40
5.0
 40
5.0
 10
351.4572440127134
 20
72.1643550401334
 30
0.0
 10
352.893184361919
 20
72.1643550400686
 30
0.0
 10
354.0572440121289
 20
73.3284146901604
 30
0.0
 10
354.0572440121937
 20
74.76435503936666
 30
0.0
 10
354.0572440122579
 20
76.20029538856652
 30
0.0
 10
352.8931843621526
 20
77.3643550387687
 30
0.0
 10
351.457244012947
 20
77.36435503883287
 30
0.0
 10
350.0213036637625
 20
77.36435503889703
 30
0.0
 10
348.8572440135571
 20
76.2002953888001
 30
0.0
 10
348.857244013493
 20
74.76435503960025
 30
0.0
 10
348.8572440134282
 20
73.32841469039398
 30
0.0
 10
350.021303663529
 20
72.16435504019822
 30
0.0
 10
351.4572440127134
 20
72.1643550401334
 30
0.0
 10
351.4572440127134
 20
72.1643550401334
 30
0.0
 10
351.4572440127134
 20
72.1643550401334
 30
0.0
 10
351.4572440127134
 20
72.1643550401334
 30
0.0
  0
ENDBLK
  5
234
330
231
100
AcDbEntity
  8
0
100
AcDbBlockEnd
  0
BLOCK
  5
238
330
236
100
AcDbEntity
  8
0
100
AcDbBlockBegin
  2
block 81
 70
     0
 10
0.0
 20
0.0
 30
0.0
  3
block 81
  1

  0
SPLINE
  5
23A
330
236
100
AcDbEntity
  8
_U+5207_U+65AD_U+30D1_U+30B9
 62
     1
420
 16711680
370
     9
100
AcDbSpline
210
0.0
220
0.0
230
1.0
 70
    11
 71
     3
 72
    17
 73
    13
 74
     0
 42
0.0000000001
 43
0.0000000001
 12
1.0
 22
0.0
 32
0.0
 13
1.0
 23
0.0
 33
0.0
 40
0.0
 40
0.0
 40
0.0
 40
0.0
 40
1.0
 40
1.0
 40
1.0
 40
2.0
 40
2.0
 40
2.0
 40
3.0
 40
3.0
 40
3.0
 40
4.0
 40
4.0
 40
4.0
 40
4.0
 10
271.5998704566335
 20
106.7067232953357
 30
0.0
 10
271.5998704566605
 20
107.3142793168526
 30
0.0
 10
271.1073489879107
 20
107.8068007856415
 30
0.0
 10
270.4997929663907
 20
107.8068007856691
 30
0.0
 10
269.8922369448699
 20
107.8068007856961
 30
0.0
 10
269.3997154760835
 20
107.3142793169514
 30
0.0
 10
269.3997154760566
 20
106.7067232954346
 30
0.0
 10
269.399715476029
 20
106.0991672739119
 30
0.0
 10
269.8922369447711
 20
105.6066458051191
 30
0.0
 10
270.4997929662918
 20
105.6066458050922
 30
0.0
 10
271.1073489878119
 20
105.6066458050646
 30
0.0
 10
271.599870456606
 20
106.0991672738131
 30
0.0
 10
271.5998704566335
 20
106.7067232953357
 30
0.0
  0
ENDBLK
  5
239
330
236
100
AcDbEntity
  8
0
100
AcDbBlockEnd
  0
BLOCK
  5
23D
330
23B
100
AcDbEntity
  8
0
100
AcDbBlockBegin
  2
block 82
 70
     0
 10
0.0
 20
0.0
 30
0.0
  3
block 82
  1

  0
SPLINE
  5
23F
330
23B
100
AcDbEntity
  8
_U+5207_U+65AD_U+30D1_U+30B9
 62
     1
420
 16711680
370
     9
100
AcDbSpline
210
0.0
220
0.0
230
1.0
 70
    11
 71
     3
 72
    17
 73
    13
 74
     0
 42
0.0000000001
 43
0.0000000001
 12
1.0
 22
0.0
 32
0.0
 13
1.0
 23
0.0
 33
0.0
 40
0.0
 40
0.0
 40
0.0
 40
0.0
 40
1.0
 40
1.0
 40
1.0
 40
2.0
 40
2.0
 40
2.0
 40
3.0
 40
3.0
 40
3.0
 40
4.0
 40
4.0
 40
4.0
 40
4.0
 10
328.6127679899365
 20
103.0843263252631
 30
0.0
 10
328.6127679899641
 20
103.6918823467799
 30
0.0
 10
328.1202465212194
 20
104.1844038155727
 30
0.0
 10
327.5126904997
 20
104.1844038155997
 30
0.0
 10
326.9051344781793
 20
104.1844038156272
 30
0.0
 10
326.4126130093865
 20
103.6918823468787
 30
0.0
 10
326.4126130093589
 20
103.0843263253612
 30
0.0
 10
326.4126130093319
 20
102.4767703038463
 30
0.0
 10
326.9051344780805
 20
101.9842488350542
 30
0.0
 10
327.5126904996012
 20
101.9842488350266
 30
0.0
 10
328.1202465211206
 20
101.9842488349996
 30
0.0
 10
328.6127679899096
 20
102.4767703037481
 30
0.0
 10
328.6127679899365
 20
103.0843263252631
 30
0.0
  0
ENDBLK
  5
23E
330
23B
100
AcDbEntity
  8
0
100
AcDbBlockEnd
  0
BLOCK
  5
242
330
240
100
AcDbEntity
  8
0
100
AcDbBlockBegin
  2
block 83
 70
     0
 10
0.0
 20
0.0
 30
0.0
  3
block 83
  1

  0
SPLINE
  5
244
330
240
100
AcDbEntity
  8
_U+5207_U+65AD_U+30D1_U+30B9
 62
     1
420
 16711680
370
     9
100
AcDbSpline
210
0.0
220
0.0
230
1.0
 70
    11
 71
     3
 72
    17
 73
    13
 74
     0
 42
0.0000000001
 43
0.0000000001
 12
1.0
 22
0.0
 32
0.0
 13
1.0
 23
0.0
 33
0.0
 40
0.0
 40
0.0
 40
0.0
 40
0.0
 40
1.0
 40
1.0
 40
1.0
 40
2.0
 40
2.0
 40
2.0
 40
3.0
 40
3.0
 40
3.0
 40
4.0
 40
4.0
 40
4.0
 40
4.0
 10
328.6215633938646
 20
84.0691898980143
 30
0.0
 10
328.6215633938916
 20
84.67674591953052
 30
0.0
 10
328.1290419251424
 20
85.16926738833037
 30
0.0
 10
327.5214859036294
 20
85.16926738835795
 30
0.0
 10
326.9139298821074
 20
85.16926738838491
 30
0.0
 10
326.4214084133146
 20
84.67674591962934
 30
0.0
 10
326.4214084132877
 20
84.06918989811312
 30
0.0
 10
326.4214084132601
 20
83.46163387659305
 30
0.0
 10
326.9139298820086
 20
82.96911240780412
 30
0.0
 10
327.5214859035306
 20
82.96911240777716
 30
0.0
 10
328.1290419250436
 20
82.96911240775022
 30
0.0
 10
328.6215633938371
 20
83.46163387649423
 30
0.0
 10
328.6215633938646
 20
84.0691898980143
 30
0.0
  0
ENDBLK
  5
243
330
240
100
AcDbEntity
  8
0
100
AcDbBlockEnd
  0
BLOCK
  5
247
330
245
100
AcDbEntity
  8
0
100
AcDbBlockBegin
  2
block 84
 70
     0
 10
0.0
 20
0.0
 30
0.0
  3
block 84
  1

  0
SPLINE
  5
249
330
245
100
AcDbEntity
  8
_U+5207_U+65AD_U+30D1_U+30B9
 62
     1
420
 16711680
370
     9
100
AcDbSpline
210
0.0
220
0.0
230
1.0
 70
    11
 71
     3
 72
    17
 73
    13
 74
     0
 42
0.0000000001
 43
0.0000000001
 12
1.0
 22
0.0
 32
0.0
 13
1.0
 23
0.0
 33
0.0
 40
0.0
 40
0.0
 40
0.0
 40
0.0
 40
1.0
 40
1.0
 40
1.0
 40
2.0
 40
2.0
 40
2.0
 40
3.0
 40
3.0
 40
3.0
 40
4.0
 40
4.0
 40
4.0
 40
4.0
 10
257.8581792903428
 20
59.20496334055223
 30
0.0
 10
257.8581792903704
 20
59.81251936207293
 30
0.0
 10
257.3656578216271
 20
60.30504083086572
 30
0.0
 10
256.7581018001096
 20
60.30504083089331
 30
0.0
 10
256.1505457785888
 20
60.30504083092027
 30
0.0
 10
255.6580243098018
 20
59.81251936217176
 30
0.0
 10
255.6580243097742
 20
59.20496334065105
 30
0.0
 10
255.6580243097473
 20
58.59740731913996
 30
0.0
 10
256.15054577849
 20
58.10488585034332
 30
0.0
 10
256.7581018000107
 20
58.10488585031637
 30
0.0
 10
257.3656578215282
 20
58.10488585028942
 30
0.0
 10
257.8581792903159
 20
58.59740731904114
 30
0.0
 10
257.8581792903428
 20
59.20496334055223
 30
0.0
  0
ENDBLK
  5
248
330
245
100
AcDbEntity
  8
0
100
AcDbBlockEnd
  0
BLOCK
  5
24C
330
24A
100
AcDbEntity
  8
0
100
AcDbBlockBegin
  2
block 85
 70
     0
 10
0.0
 20
0.0
 30
0.0
  3
block 85
  1

  0
SPLINE
  5
24E
330
24A
100
AcDbEntity
  8
_U+5207_U+65AD_U+30D1_U+30B9
 62
     1
420
 16711680
370
     9
100
AcDbSpline
210
0.0
220
0.0
230
1.0
 70
    11
 71
     3
 72
    17
 73
    13
 74
     0
 42
0.0000000001
 43
0.0000000001
 12
1.0
 22
0.0
 32
0.0
 13
1.0
 23
0.0
 33
0.0
 40
0.0
 40
0.0
 40
0.0
 40
0.0
 40
1.0
 40
1.0
 40
1.0
 40
2.0
 40
2.0
 40
2.0
 40
3.0
 40
3.0
 40
3.0
 40
4.0
 40
4.0
 40
4.0
 40
4.0
 10
304.3781356467068
 20
66.95946921354862
 30
0.0
 10
304.3781356467337
 20
67.56702523506932
 30
0.0
 10
303.8856141779923
 20
68.05954670386211
 30
0.0
 10
303.2780581564696
 20
68.05954670388905
 30
0.0
 10
302.6705021349496
 20
68.05954670391601
 30
0.0
 10
302.1779806661632
 20
67.56702523516815
 30
0.0
 10
302.1779806661362
 20
66.95946921364744
 30
0.0
 10
302.1779806661087
 20
66.35191319212801
 30
0.0
 10
302.6705021348508
 20
65.85939172334356
 30
0.0
 10
303.2780581563708
 20
65.85939172331597
 30
0.0
 10
303.8856141778934
 20
65.85939172328902
 30
0.0
 10
304.3781356466792
 20
66.35191319202919
 30
0.0
 10
304.3781356467068
 20
66.95946921354862
 30
0.0
  0
ENDBLK
  5
24D
330
24A
100
AcDbEntity
  8
0
100
AcDbBlockEnd
  0
BLOCK
  5
251
330
24F
100
AcDbEntity
  8
0
100
AcDbBlockBegin
  2
block 86
 70
     0
 10
0.0
 20
0.0
 30
0.0
  3
block 86
  1

  0
POLYLINE
  5
253
330
24F
100
AcDbEntity
  8
_U+5207_U+65AD_U+30D1_U+30B9
 62
     1
420
 16711680
370
     9
100
AcDb2dPolyline
 66
     1
 10
0.0
 20
0.0
 30
0.0
  0
VERTEX
  5
254
330
253
100
AcDbEntity
  8
_U+5207_U+65AD_U+30D1_U+30B9
 62
     1
420
 16711680
370
     9
100
AcDbVertex
100
AcDb2dVertex
 10
343.9543085272279
 20
119.5173392968266
 30
0.0
  0
VERTEX
  5
255
330
253
100
AcDbEntity
  8
_U+5207_U+65AD_U+30D1_U+30B9
 62
     1
420
 16711680
370
     9
100
AcDbVertex
100
AcDb2dVertex
 10
343.954308526606
 20
105.6663636236503
 30
0.0
  0
VERTEX
  5
256
330
253
100
AcDbEntity
  8
_U+5207_U+65AD_U+30D1_U+30B9
 62
     1
420
 16711680
370
     9
100
AcDbVertex
100
AcDb2dVertex
 10
330.1033328534285
 20
105.6663636242721
 30
0.0
  0
VERTEX
  5
257
330
253
100
AcDbEntity
  8
_U+5207_U+65AD_U+30D1_U+30B9
 62
     1
420
 16711680
370
     9
100
AcDbVertex
100
AcDb2dVertex
 10
330.1033328540502
 20
119.5173392974491
 30
0.0
  0
VERTEX
  5
258
330
253
100
AcDbEntity
  8
_U+5207_U+65AD_U+30D1_U+30B9
 62
     1
420
 16711680
370
     9
100
AcDbVertex
100
AcDb2dVertex
 10
343.9543085272279
 20
119.5173392968266
 30
0.0
  0
SEQEND
  5
259
330
253
100
AcDbEntity
  8
_U+5207_U+65AD_U+30D1_U+30B9
 62
     1
420
 16711680
370
     9
  0
ENDBLK
  5
252
330
24F
100
AcDbEntity
  8
0
100
AcDbBlockEnd
  0
BLOCK
  5
25C
330
25A
100
AcDbEntity
  8
0
100
AcDbBlockBegin
  2
block 87
 70
     0
 10
0.0
 20
0.0
 30
0.0
  3
block 87
  1

  0
POLYLINE
  5
25E
330
25A
100
AcDbEntity
  8
_U+5207_U+65AD_U+30D1_U+30B9
 62
     1
420
 16711680
370
     9
100
AcDb2dPolyline
 66
     1
 10
0.0
 20
0.0
 30
0.0
  0
VERTEX
  5
25F
330
25E
100
AcDbEntity
  8
_U+5207_U+65AD_U+30D1_U+30B9
 62
     1
420
 16711680
370
     9
100
AcDbVertex
100
AcDb2dVertex
 10
343.9543085263744
 20
100.5160008282125
 30
0.0
  0
VERTEX
  5
260
330
25E
100
AcDbEntity
  8
_U+5207_U+65AD_U+30D1_U+30B9
 62
     1
420
 16711680
370
     9
100
AcDbVertex
100
AcDb2dVertex
 10
343.9543085257526
 20
86.66502515503106
 30
0.0
  0
VERTEX
  5
261
330
25E
100
AcDbEntity
  8
_U+5207_U+65AD_U+30D1_U+30B9
 62
     1
420
 16711680
370
     9
100
AcDbVertex
100
AcDb2dVertex
 10
330.103332852575
 20
86.66502515565351
 30
0.0
  0
VERTEX
  5
262
330
25E
100
AcDbEntity
  8
_U+5207_U+65AD_U+30D1_U+30B9
 62
     1
420
 16711680
370
     9
100
AcDbVertex
100
AcDb2dVertex
 10
330.1033328531968
 20
100.5160008288343
 30
0.0
  0
VERTEX
  5
263
330
25E
100
AcDbEntity
  8
_U+5207_U+65AD_U+30D1_U+30B9
 62
     1
420
 16711680
370
     9
100
AcDbVertex
100
AcDb2dVertex
 10
343.9543085263744
 20
100.5160008282125
 30
0.0
  0
SEQEND
  5
264
330
25E
100
AcDbEntity
  8
_U+5207_U+65AD_U+30D1_U+30B9
 62
     1
420
 16711680
370
     9
  0
ENDBLK
  5
25D
330
25A
100
AcDbEntity
  8
0
100
AcDbBlockEnd
  0
BLOCK
  5
267
330
265
100
AcDbEntity
  8
0
100
AcDbBlockBegin
  2
block 88
 70
     0
 10
0.0
 20
0.0
 30
0.0
  3
block 88
  1

  0
POLYLINE
  5
269
330
265
100
AcDbEntity
  8
_U+5207_U+65AD_U+30D1_U+30B9
 62
     1
420
 16711680
370
     9
100
AcDb2dPolyline
 66
     1
 10
0.0
 20
0.0
 30
0.0
  0
VERTEX
  5
26A
330
269
100
AcDbEntity
  8
_U+5207_U+65AD_U+30D1_U+30B9
 62
     1
420
 16711680
370
     9
100
AcDbVertex
100
AcDb2dVertex
 10
343.9543085255216
 20
81.51466235959332
 30
0.0
  0
VERTEX
  5
26B
330
269
100
AcDbEntity
  8
_U+5207_U+65AD_U+30D1_U+30B9
 62
     1
420
 16711680
370
     9
100
AcDbVertex
100
AcDb2dVertex
 10
343.9543085248998
 20
67.66368668641762
 30
0.0
  0
VERTEX
  5
26C
330
269
100
AcDbEntity
  8
_U+5207_U+65AD_U+30D1_U+30B9
 62
     1
420
 16711680
370
     9
100
AcDbVertex
100
AcDb2dVertex
 10
330.1033328517221
 20
67.66368668704007
 30
0.0
  0
VERTEX
  5
26D
330
269
100
AcDbEntity
  8
_U+5207_U+65AD_U+30D1_U+30B9
 62
     1
420
 16711680
370
     9
100
AcDbVertex
100
AcDb2dVertex
 10
330.103332852344
 20
81.51466236021577
 30
0.0
  0
VERTEX
  5
26E
330
269
100
AcDbEntity
  8
_U+5207_U+65AD_U+30D1_U+30B9
 62
     1
420
 16711680
370
     9
100
AcDbVertex
100
AcDb2dVertex
 10
343.9543085255216
 20
81.51466235959332
 30
0.0
  0
SEQEND
  5
26F
330
269
100
AcDbEntity
  8
_U+5207_U+65AD_U+30D1_U+30B9
 62
     1
420
 16711680
370
     9
  0
ENDBLK
  5
268
330
265
100
AcDbEntity
  8
0
100
AcDbBlockEnd
  0
BLOCK
  5
272
330
270
100
AcDbEntity
  8
0
100
AcDbBlockBegin
  2
block 89
 70
     0
 10
0.0
 20
0.0
 30
0.0
  3
block 89
  1

  0
POLYLINE
  5
274
330
270
100
AcDbEntity
  8
_U+5207_U+65AD_U+30D1_U+30B9
 62
     1
420
 16711680
370
     9
100
AcDb2dPolyline
 66
     1
 10
0.0
 20
0.0
 30
0.0
  0
VERTEX
  5
275
330
274
100
AcDbEntity
  8
_U+5207_U+65AD_U+30D1_U+30B9
 62
     1
420
 16711680
370
     9
100
AcDbVertex
100
AcDb2dVertex
 10
324.9529700588179
 20
124.2676739148334
 30
0.0
  0
VERTEX
  5
276
330
274
100
AcDbEntity
  8
_U+5207_U+65AD_U+30D1_U+30B9
 62
     1
420
 16711680
370
     9
100
AcDbVertex
100
AcDb2dVertex
 10
324.9529700581961
 20
110.4166982416603
 30
0.0
  0
VERTEX
  5
277
330
274
100
AcDbEntity
  8
_U+5207_U+65AD_U+30D1_U+30B9
 62
     1
420
 16711680
370
     9
100
AcDbVertex
100
AcDb2dVertex
 10
311.101994385021
 20
110.4166982422821
 30
0.0
  0
VERTEX
  5
278
330
274
100
AcDbEntity
  8
_U+5207_U+65AD_U+30D1_U+30B9
 62
     1
420
 16711680
370
     9
100
AcDbVertex
100
AcDb2dVertex
 10
311.1019943856428
 20
124.2676739154552
 30
0.0
  0
VERTEX
  5
279
330
274
100
AcDbEntity
  8
_U+5207_U+65AD_U+30D1_U+30B9
 62
     1
420
 16711680
370
     9
100
AcDbVertex
100
AcDb2dVertex
 10
324.9529700588179
 20
124.2676739148334
 30
0.0
  0
SEQEND
  5
27A
330
274
100
AcDbEntity
  8
_U+5207_U+65AD_U+30D1_U+30B9
 62
     1
420
 16711680
370
     9
  0
ENDBLK
  5
273
330
270
100
AcDbEntity
  8
0
100
AcDbBlockEnd
  0
BLOCK
  5
27D
330
27B
100
AcDbEntity
  8
0
100
AcDbBlockBegin
  2
block 90
 70
     0
 10
0.0
 20
0.0
 30
0.0
  3
block 90
  1

  0
POLYLINE
  5
27F
330
27B
100
AcDbEntity
  8
_U+5207_U+65AD_U+30D1_U+30B9
 62
     1
420
 16711680
370
     9
100
AcDb2dPolyline
 66
     1
 10
0.0
 20
0.0
 30
0.0
  0
VERTEX
  5
280
330
27F
100
AcDbEntity
  8
_U+5207_U+65AD_U+30D1_U+30B9
 62
     1
420
 16711680
370
     9
100
AcDbVertex
100
AcDb2dVertex
 10
324.952970057965
 20
105.2663354462187
 30
0.0
  0
VERTEX
  5
281
330
27F
100
AcDbEntity
  8
_U+5207_U+65AD_U+30D1_U+30B9
 62
     1
420
 16711680
370
     9
100
AcDbVertex
100
AcDb2dVertex
 10
324.9529700573432
 20
91.41535977304558
 30
0.0
  0
VERTEX
  5
282
330
27F
100
AcDbEntity
  8
_U+5207_U+65AD_U+30D1_U+30B9
 62
     1
420
 16711680
370
     9
100
AcDbVertex
100
AcDb2dVertex
 10
311.1019943841682
 20
91.41535977366674
 30
0.0
  0
VERTEX
  5
283
330
27F
100
AcDbEntity
  8
_U+5207_U+65AD_U+30D1_U+30B9
 62
     1
420
 16711680
370
     9
100
AcDbVertex
100
AcDb2dVertex
 10
311.10199438479
 20
105.2663354468405
 30
0.0
  0
VERTEX
  5
284
330
27F
100
AcDbEntity
  8
_U+5207_U+65AD_U+30D1_U+30B9
 62
     1
420
 16711680
370
     9
100
AcDbVertex
100
AcDb2dVertex
 10
324.952970057965
 20
105.2663354462187
 30
0.0
  0
SEQEND
  5
285
330
27F
100
AcDbEntity
  8
_U+5207_U+65AD_U+30D1_U+30B9
 62
     1
420
 16711680
370
     9
  0
ENDBLK
  5
27E
330
27B
100
AcDbEntity
  8
0
100
AcDbBlockEnd
  0
BLOCK
  5
288
330
286
100
AcDbEntity
  8
0
100
AcDbBlockBegin
  2
block 91
 70
     0
 10
0.0
 20
0.0
 30
0.0
  3
block 91
  1

  0
POLYLINE
  5
28A
330
286
100
AcDbEntity
  8
_U+5207_U+65AD_U+30D1_U+30B9
 62
     1
420
 16711680
370
     9
100
AcDb2dPolyline
 66
     1
 10
0.0
 20
0.0
 30
0.0
  0
VERTEX
  5
28B
330
28A
100
AcDbEntity
  8
_U+5207_U+65AD_U+30D1_U+30B9
 62
     1
420
 16711680
370
     9
100
AcDbVertex
100
AcDb2dVertex
 10
324.9529700571116
 20
86.26499697759758
 30
0.0
  0
VERTEX
  5
28C
330
28A
100
AcDbEntity
  8
_U+5207_U+65AD_U+30D1_U+30B9
 62
     1
420
 16711680
370
     9
100
AcDbVertex
100
AcDb2dVertex
 10
324.9529700564898
 20
72.41402130442444
 30
0.0
  0
VERTEX
  5
28D
330
28A
100
AcDbEntity
  8
_U+5207_U+65AD_U+30D1_U+30B9
 62
     1
420
 16711680
370
     9
100
AcDbVertex
100
AcDb2dVertex
 10
311.1019943833147
 20
72.41402130504561
 30
0.0
  0
VERTEX
  5
28E
330
28A
100
AcDbEntity
  8
_U+5207_U+65AD_U+30D1_U+30B9
 62
     1
420
 16711680
370
     9
100
AcDbVertex
100
AcDb2dVertex
 10
311.1019943839365
 20
86.26499697821873
 30
0.0
  0
VERTEX
  5
28F
330
28A
100
AcDbEntity
  8
_U+5207_U+65AD_U+30D1_U+30B9
 62
     1
420
 16711680
370
     9
100
AcDbVertex
100
AcDb2dVertex
 10
324.9529700571116
 20
86.26499697759758
 30
0.0
  0
SEQEND
  5
290
330
28A
100
AcDbEntity
  8
_U+5207_U+65AD_U+30D1_U+30B9
 62
     1
420
 16711680
370
     9
  0
ENDBLK
  5
289
330
286
100
AcDbEntity
  8
0
100
AcDbBlockEnd
  0
BLOCK
  5
293
330
291
100
AcDbEntity
  8
0
100
AcDbBlockBegin
  2
block 92
 70
     0
 10
0.0
 20
0.0
 30
0.0
  3
block 92
  1

  0
POLYLINE
  5
295
330
291
100
AcDbEntity
  8
_U+5207_U+65AD_U+30D1_U+30B9
 62
     1
420
 16711680
370
     9
100
AcDb2dPolyline
 66
     1
 10
0.0
 20
0.0
 30
0.0
  0
VERTEX
  5
296
330
295
100
AcDbEntity
  8
_U+5207_U+65AD_U+30D1_U+30B9
 62
     1
420
 16711680
370
     9
100
AcDbVertex
100
AcDb2dVertex
 10
305.9516315903103
 20
126.642841224261
 30
0.0
  0
VERTEX
  5
297
330
295
100
AcDbEntity
  8
_U+5207_U+65AD_U+30D1_U+30B9
 62
     1
420
 16711680
370
     9
100
AcDbVertex
100
AcDb2dVertex
 10
305.9516315896885
 20
112.7918655510892
 30
0.0
  0
VERTEX
  5
298
330
295
100
AcDbEntity
  8
_U+5207_U+65AD_U+30D1_U+30B9
 62
     1
420
 16711680
370
     9
100
AcDbVertex
100
AcDb2dVertex
 10
292.1006559165128
 20
112.791865551711
 30
0.0
  0
VERTEX
  5
299
330
295
100
AcDbEntity
  8
_U+5207_U+65AD_U+30D1_U+30B9
 62
     1
420
 16711680
370
     9
100
AcDbVertex
100
AcDb2dVertex
 10
292.1006559171346
 20
126.6428412248834
 30
0.0
  0
VERTEX
  5
29A
330
295
100
AcDbEntity
  8
_U+5207_U+65AD_U+30D1_U+30B9
 62
     1
420
 16711680
370
     9
100
AcDbVertex
100
AcDb2dVertex
 10
305.9516315903103
 20
126.642841224261
 30
0.0
  0
SEQEND
  5
29B
330
295
100
AcDbEntity
  8
_U+5207_U+65AD_U+30D1_U+30B9
 62
     1
420
 16711680
370
     9
  0
ENDBLK
  5
294
330
291
100
AcDbEntity
  8
0
100
AcDbBlockEnd
  0
BLOCK
  5
29E
330
29C
100
AcDbEntity
  8
0
100
AcDbBlockBegin
  2
block 93
 70
     0
 10
0.0
 20
0.0
 30
0.0
  3
block 93
  1

  0
POLYLINE
  5
2A0
330
29C
100
AcDbEntity
  8
_U+5207_U+65AD_U+30D1_U+30B9
 62
     1
420
 16711680
370
     9
100
AcDb2dPolyline
 66
     1
 10
0.0
 20
0.0
 30
0.0
  0
VERTEX
  5
2A1
330
2A0
100
AcDbEntity
  8
_U+5207_U+65AD_U+30D1_U+30B9
 62
     1
420
 16711680
370
     9
100
AcDbVertex
100
AcDb2dVertex
 10
305.9516315894575
 20
107.6415027556501
 30
0.0
  0
VERTEX
  5
2A2
330
2A0
100
AcDbEntity
  8
_U+5207_U+65AD_U+30D1_U+30B9
 62
     1
420
 16711680
370
     9
100
AcDbVertex
100
AcDb2dVertex
 10
305.9516315888357
 20
93.79052708247444
 30
0.0
  0
VERTEX
  5
2A3
330
2A0
100
AcDbEntity
  8
_U+5207_U+65AD_U+30D1_U+30B9
 62
     1
420
 16711680
370
     9
100
AcDbVertex
100
AcDb2dVertex
 10
292.10065591566
 20
93.79052708309688
 30
0.0
  0
VERTEX
  5
2A4
330
2A0
100
AcDbEntity
  8
_U+5207_U+65AD_U+30D1_U+30B9
 62
     1
420
 16711680
370
     9
100
AcDbVertex
100
AcDb2dVertex
 10
292.1006559162818
 20
107.6415027562726
 30
0.0
  0
VERTEX
  5
2A5
330
2A0
100
AcDbEntity
  8
_U+5207_U+65AD_U+30D1_U+30B9
 62
     1
420
 16711680
370
     9
100
AcDbVertex
100
AcDb2dVertex
 10
305.9516315894575
 20
107.6415027556501
 30
0.0
  0
SEQEND
  5
2A6
330
2A0
100
AcDbEntity
  8
_U+5207_U+65AD_U+30D1_U+30B9
 62
     1
420
 16711680
370
     9
  0
ENDBLK
  5
29F
330
29C
100
AcDbEntity
  8
0
100
AcDbBlockEnd
  0
BLOCK
  5
2A9
330
2A7
100
AcDbEntity
  8
0
100
AcDbBlockBegin
  2
block 94
 70
     0
 10
0.0
 20
0.0
 30
0.0
  3
block 94
  1

  0
POLYLINE
  5
2AB
330
2A7
100
AcDbEntity
  8
_U+5207_U+65AD_U+30D1_U+30B9
 62
     1
420
 16711680
370
     9
100
AcDb2dPolyline
 66
     1
 10
0.0
 20
0.0
 30
0.0
  0
VERTEX
  5
2AC
330
2AB
100
AcDbEntity
  8
_U+5207_U+65AD_U+30D1_U+30B9
 62
     1
420
 16711680
370
     9
100
AcDbVertex
100
AcDb2dVertex
 10
305.9516315886046
 20
88.6401642870354
 30
0.0
  0
VERTEX
  5
2AD
330
2AB
100
AcDbEntity
  8
_U+5207_U+65AD_U+30D1_U+30B9
 62
     1
420
 16711680
370
     9
100
AcDbVertex
100
AcDb2dVertex
 10
305.9516315879828
 20
74.78918861385587
 30
0.0
  0
VERTEX
  5
2AE
330
2AB
100
AcDbEntity
  8
_U+5207_U+65AD_U+30D1_U+30B9
 62
     1
420
 16711680
370
     9
100
AcDbVertex
100
AcDb2dVertex
 10
292.1006559148071
 20
74.78918861447767
 30
0.0
  0
VERTEX
  5
2AF
330
2AB
100
AcDbEntity
  8
_U+5207_U+65AD_U+30D1_U+30B9
 62
     1
420
 16711680
370
     9
100
AcDbVertex
100
AcDb2dVertex
 10
292.1006559154289
 20
88.64016428765785
 30
0.0
  0
VERTEX
  5
2B0
330
2AB
100
AcDbEntity
  8
_U+5207_U+65AD_U+30D1_U+30B9
 62
     1
420
 16711680
370
     9
100
AcDbVertex
100
AcDb2dVertex
 10
305.9516315886046
 20
88.6401642870354
 30
0.0
  0
SEQEND
  5
2B1
330
2AB
100
AcDbEntity
  8
_U+5207_U+65AD_U+30D1_U+30B9
 62
     1
420
 16711680
370
     9
  0
ENDBLK
  5
2AA
330
2A7
100
AcDbEntity
  8
0
100
AcDbBlockEnd
  0
BLOCK
  5
2B4
330
2B2
100
AcDbEntity
  8
0
100
AcDbBlockBegin
  2
block 95
 70
     0
 10
0.0
 20
0.0
 30
0.0
  3
block 95
  1

  0
POLYLINE
  5
2B6
330
2B2
100
AcDbEntity
  8
_U+5207_U+65AD_U+30D1_U+30B9
 62
     1
420
 16711680
370
     9
100
AcDb2dPolyline
 66
     1
 10
0.0
 20
0.0
 30
0.0
  0
VERTEX
  5
2B7
330
2B6
100
AcDbEntity
  8
_U+5207_U+65AD_U+30D1_U+30B9
 62
     1
420
 16711680
370
     9
100
AcDbVertex
100
AcDb2dVertex
 10
286.9502931215884
 20
124.2676739165391
 30
0.0
  0
VERTEX
  5
2B8
330
2B6
100
AcDbEntity
  8
_U+5207_U+65AD_U+30D1_U+30B9
 62
     1
420
 16711680
370
     9
100
AcDbVertex
100
AcDb2dVertex
 10
286.9502931209666
 20
110.4166982433659
 30
0.0
  0
VERTEX
  5
2B9
330
2B6
100
AcDbEntity
  8
_U+5207_U+65AD_U+30D1_U+30B9
 62
     1
420
 16711680
370
     9
100
AcDbVertex
100
AcDb2dVertex
 10
273.099317447789
 20
110.4166982439884
 30
0.0
  0
VERTEX
  5
2BA
330
2B6
100
AcDbEntity
  8
_U+5207_U+65AD_U+30D1_U+30B9
 62
     1
420
 16711680
370
     9
100
AcDbVertex
100
AcDb2dVertex
 10
273.0993174484108
 20
124.2676739171615
 30
0.0
  0
VERTEX
  5
2BB
330
2B6
100
AcDbEntity
  8
_U+5207_U+65AD_U+30D1_U+30B9
 62
     1
420
 16711680
370
     9
100
AcDbVertex
100
AcDb2dVertex
 10
286.9502931215884
 20
124.2676739165391
 30
0.0
  0
SEQEND
  5
2BC
330
2B6
100
AcDbEntity
  8
_U+5207_U+65AD_U+30D1_U+30B9
 62
     1
420
 16711680
370
     9
  0
ENDBLK
  5
2B5
330
2B2
100
AcDbEntity
  8
0
100
AcDbBlockEnd
  0
BLOCK
  5
2BF
330
2BD
100
AcDbEntity
  8
0
100
AcDbBlockBegin
  2
block 96
 70
     0
 10
0.0
 20
0.0
 30
0.0
  3
block 96
  1

  0
POLYLINE
  5
2C1
330
2BD
100
AcDbEntity
  8
_U+5207_U+65AD_U+30D1_U+30B9
 62
     1
420
 16711680
370
     9
100
AcDb2dPolyline
 66
     1
 10
0.0
 20
0.0
 30
0.0
  0
VERTEX
  5
2C2
330
2C1
100
AcDbEntity
  8
_U+5207_U+65AD_U+30D1_U+30B9
 62
     1
420
 16711680
370
     9
100
AcDbVertex
100
AcDb2dVertex
 10
286.9502931207356
 20
105.2663354479243
 30
0.0
  0
VERTEX
  5
2C3
330
2C1
100
AcDbEntity
  8
_U+5207_U+65AD_U+30D1_U+30B9
 62
     1
420
 16711680
370
     9
100
AcDbVertex
100
AcDb2dVertex
 10
286.9502931201138
 20
91.41535977475121
 30
0.0
  0
VERTEX
  5
2C4
330
2C1
100
AcDbEntity
  8
_U+5207_U+65AD_U+30D1_U+30B9
 62
     1
420
 16711680
370
     9
100
AcDbVertex
100
AcDb2dVertex
 10
273.0993174469362
 20
91.41535977537366
 30
0.0
  0
VERTEX
  5
2C5
330
2C1
100
AcDbEntity
  8
_U+5207_U+65AD_U+30D1_U+30B9
 62
     1
420
 16711680
370
     9
100
AcDbVertex
100
AcDb2dVertex
 10
273.099317447558
 20
105.2663354485468
 30
0.0
  0
VERTEX
  5
2C6
330
2C1
100
AcDbEntity
  8
_U+5207_U+65AD_U+30D1_U+30B9
 62
     1
420
 16711680
370
     9
100
AcDbVertex
100
AcDb2dVertex
 10
286.9502931207356
 20
105.2663354479243
 30
0.0
  0
SEQEND
  5
2C7
330
2C1
100
AcDbEntity
  8
_U+5207_U+65AD_U+30D1_U+30B9
 62
     1
420
 16711680
370
     9
  0
ENDBLK
  5
2C0
330
2BD
100
AcDbEntity
  8
0
100
AcDbBlockEnd
  0
BLOCK
  5
2CA
330
2C8
100
AcDbEntity
  8
0
100
AcDbBlockBegin
  2
block 97
 70
     0
 10
0.0
 20
0.0
 30
0.0
  3
block 97
  1

  0
POLYLINE
  5
2CC
330
2C8
100
AcDbEntity
  8
_U+5207_U+65AD_U+30D1_U+30B9
 62
     1
420
 16711680
370
     9
100
AcDb2dPolyline
 66
     1
 10
0.0
 20
0.0
 30
0.0
  0
VERTEX
  5
2CD
330
2CC
100
AcDbEntity
  8
_U+5207_U+65AD_U+30D1_U+30B9
 62
     1
420
 16711680
370
     9
100
AcDbVertex
100
AcDb2dVertex
 10
286.9502931198821
 20
86.2649969793032
 30
0.0
  0
VERTEX
  5
2CE
330
2CC
100
AcDbEntity
  8
_U+5207_U+65AD_U+30D1_U+30B9
 62
     1
420
 16711680
370
     9
100
AcDbVertex
100
AcDb2dVertex
 10
286.9502931192603
 20
72.41402130613008
 30
0.0
  0
VERTEX
  5
2CF
330
2CC
100
AcDbEntity
  8
_U+5207_U+65AD_U+30D1_U+30B9
 62
     1
420
 16711680
370
     9
100
AcDbVertex
100
AcDb2dVertex
 10
273.0993174460827
 20
72.41402130675253
 30
0.0
  0
VERTEX
  5
2D0
330
2CC
100
AcDbEntity
  8
_U+5207_U+65AD_U+30D1_U+30B9
 62
     1
420
 16711680
370
     9
100
AcDbVertex
100
AcDb2dVertex
 10
273.0993174467045
 20
86.26499697992566
 30
0.0
  0
VERTEX
  5
2D1
330
2CC
100
AcDbEntity
  8
_U+5207_U+65AD_U+30D1_U+30B9
 62
     1
420
 16711680
370
     9
100
AcDbVertex
100
AcDb2dVertex
 10
286.9502931198821
 20
86.2649969793032
 30
0.0
  0
SEQEND
  5
2D2
330
2CC
100
AcDbEntity
  8
_U+5207_U+65AD_U+30D1_U+30B9
 62
     1
420
 16711680
370
     9
  0
ENDBLK
  5
2CB
330
2C8
100
AcDbEntity
  8
0
100
AcDbBlockEnd
  0
BLOCK
  5
2D5
330
2D3
100
AcDbEntity
  8
0
100
AcDbBlockBegin
  2
block 98
 70
     0
 10
0.0
 20
0.0
 30
0.0
  3
block 98
  1

  0
POLYLINE
  5
2D7
330
2D3
100
AcDbEntity
  8
_U+5207_U+65AD_U+30D1_U+30B9
 62
     1
420
 16711680
370
     9
100
AcDb2dPolyline
 66
     1
 10
0.0
 20
0.0
 30
0.0
  0
VERTEX
  5
2D8
330
2D7
100
AcDbEntity
  8
_U+5207_U+65AD_U+30D1_U+30B9
 62
     1
420
 16711680
370
     9
100
AcDbVertex
100
AcDb2dVertex
 10
267.9489546528614
 20
121.8925066088178
 30
0.0
  0
VERTEX
  5
2D9
330
2D7
100
AcDbEntity
  8
_U+5207_U+65AD_U+30D1_U+30B9
 62
     1
420
 16711680
370
     9
100
AcDbVertex
100
AcDb2dVertex
 10
267.9489546522396
 20
108.041530935644
 30
0.0
  0
VERTEX
  5
2DA
330
2D7
100
AcDbEntity
  8
_U+5207_U+65AD_U+30D1_U+30B9
 62
     1
420
 16711680
370
     9
100
AcDbVertex
100
AcDb2dVertex
 10
254.0979789790613
 20
108.0415309362664
 30
0.0
  0
VERTEX
  5
2DB
330
2D7
100
AcDbEntity
  8
_U+5207_U+65AD_U+30D1_U+30B9
 62
     1
420
 16711680
370
     9
100
AcDbVertex
100
AcDb2dVertex
 10
254.0979789796831
 20
121.8925066094396
 30
0.0
  0
VERTEX
  5
2DC
330
2D7
100
AcDbEntity
  8
_U+5207_U+65AD_U+30D1_U+30B9
 62
     1
420
 16711680
370
     9
100
AcDbVertex
100
AcDb2dVertex
 10
267.9489546528614
 20
121.8925066088178
 30
0.0
  0
SEQEND
  5
2DD
330
2D7
100
AcDbEntity
  8
_U+5207_U+65AD_U+30D1_U+30B9
 62
     1
420
 16711680
370
     9
  0
ENDBLK
  5
2D6
330
2D3
100
AcDbEntity
  8
0
100
AcDbBlockEnd
  0
BLOCK
  5
2E0
330
2DE
100
AcDbEntity
  8
0
100
AcDbBlockBegin
  2
block 99
 70
     0
 10
0.0
 20
0.0
 30
0.0
  3
block 99
  1

  0
POLYLINE
  5
2E2
330
2DE
100
AcDbEntity
  8
_U+5207_U+65AD_U+30D1_U+30B9
 62
     1
420
 16711680
370
     9
100
AcDb2dPolyline
 66
     1
 10
0.0
 20
0.0
 30
0.0
  0
VERTEX
  5
2E3
330
2E2
100
AcDbEntity
  8
_U+5207_U+65AD_U+30D1_U+30B9
 62
     1
420
 16711680
370
     9
100
AcDbVertex
100
AcDb2dVertex
 10
267.9489546520086
 20
102.8911681401992
 30
0.0
  0
VERTEX
  5
2E4
330
2E2
100
AcDbEntity
  8
_U+5207_U+65AD_U+30D1_U+30B9
 62
     1
420
 16711680
370
     9
100
AcDbVertex
100
AcDb2dVertex
 10
267.9489546513868
 20
89.04019246701901
 30
0.0
  0
VERTEX
  5
2E5
330
2E2
100
AcDbEntity
  8
_U+5207_U+65AD_U+30D1_U+30B9
 62
     1
420
 16711680
370
     9
100
AcDbVertex
100
AcDb2dVertex
 10
254.0979789782085
 20
89.04019246764146
 30
0.0
  0
VERTEX
  5
2E6
330
2E2
100
AcDbEntity
  8
_U+5207_U+65AD_U+30D1_U+30B9
 62
     1
420
 16711680
370
     9
100
AcDbVertex
100
AcDb2dVertex
 10
254.0979789788303
 20
102.891168140821
 30
0.0
  0
VERTEX
  5
2E7
330
2E2
100
AcDbEntity
  8
_U+5207_U+65AD_U+30D1_U+30B9
 62
     1
420
 16711680
370
     9
100
AcDbVertex
100
AcDb2dVertex
 10
267.9489546520086
 20
102.8911681401992
 30
0.0
  0
SEQEND
  5
2E8
330
2E2
100
AcDbEntity
  8
_U+5207_U+65AD_U+30D1_U+30B9
 62
     1
420
 16711680
370
     9
  0
ENDBLK
  5
2E1
330
2DE
100
AcDbEntity
  8
0
100
AcDbBlockEnd
  0
BLOCK
  5
2EB
330
2E9
100
AcDbEntity
  8
0
100
AcDbBlockBegin
  2
block 100
 70
     0
 10
0.0
 20
0.0
 30
0.0
  3
block 100
  1

  0
POLYLINE
  5
2ED
330
2E9
100
AcDbEntity
  8
_U+5207_U+65AD_U+30D1_U+30B9
 62
     1
420
 16711680
370
     9
100
AcDb2dPolyline
 66
     1
 10
0.0
 20
0.0
 30
0.0
  0
VERTEX
  5
2EE
330
2ED
100
AcDbEntity
  8
_U+5207_U+65AD_U+30D1_U+30B9
 62
     1
420
 16711680
370
     9
100
AcDbVertex
100
AcDb2dVertex
 10
267.9489546511551
 20
83.88982967158063
 30
0.0
  0
VERTEX
  5
2EF
330
2ED
100
AcDbEntity
  8
_U+5207_U+65AD_U+30D1_U+30B9
 62
     1
420
 16711680
370
     9
100
AcDbVertex
100
AcDb2dVertex
 10
267.9489546505333
 20
70.03885399840814
 30
0.0
  0
VERTEX
  5
2F0
330
2ED
100
AcDbEntity
  8
_U+5207_U+65AD_U+30D1_U+30B9
 62
     1
420
 16711680
370
     9
100
AcDbVertex
100
AcDb2dVertex
 10
254.097978977355
 20
70.0388539990306
 30
0.0
  0
VERTEX
  5
2F1
330
2ED
100
AcDbEntity
  8
_U+5207_U+65AD_U+30D1_U+30B9
 62
     1
420
 16711680
370
     9
100
AcDbVertex
100
AcDb2dVertex
 10
254.0979789779769
 20
83.88982967220244
 30
0.0
  0
VERTEX
  5
2F2
330
2ED
100
AcDbEntity
  8
_U+5207_U+65AD_U+30D1_U+30B9
 62
     1
420
 16711680
370
     9
100
AcDbVertex
100
AcDb2dVertex
 10
267.9489546511551
 20
83.88982967158063
 30
0.0
  0
SEQEND
  5
2F3
330
2ED
100
AcDbEntity
  8
_U+5207_U+65AD_U+30D1_U+30B9
 62
     1
420
 16711680
370
     9
  0
ENDBLK
  5
2EC
330
2E9
100
AcDbEntity
  8
0
100
AcDbBlockEnd
  0
BLOCK
  5
2F6
330
2F4
100
AcDbEntity
  8
0
100
AcDbBlockBegin
  2
block 101
 70
     0
 10
0.0
 20
0.0
 30
0.0
  3
block 101
  1

  0
POLYLINE
  5
2F8
330
2F4
100
AcDbEntity
  8
_U+5207_U+65AD_U+30D1_U+30B9
 62
     1
420
 16711680
370
     9
100
AcDb2dPolyline
 66
     1
 10
0.0
 20
0.0
 30
0.0
  0
VERTEX
  5
2F9
330
2F8
100
AcDbEntity
  8
_U+5207_U+65AD_U+30D1_U+30B9
 62
     1
420
 16711680
370
     9
100
AcDbVertex
100
AcDb2dVertex
 10
296.4509623533071
 20
66.63861448169209
 30
0.0
  0
VERTEX
  5
2FA
330
2F8
100
AcDbEntity
  8
_U+5207_U+65AD_U+30D1_U+30B9
 62
     1
420
 16711680
370
     9
100
AcDbVertex
100
AcDb2dVertex
 10
296.4509623526853
 20
52.78763880851511
 30
0.0
  0
VERTEX
  5
2FB
330
2F8
100
AcDbEntity
  8
_U+5207_U+65AD_U+30D1_U+30B9
 62
     1
420
 16711680
370
     9
100
AcDbVertex
100
AcDb2dVertex
 10
282.5999866795096
 20
52.78763880913628
 30
0.0
  0
VERTEX
  5
2FC
330
2F8
100
AcDbEntity
  8
_U+5207_U+65AD_U+30D1_U+30B9
 62
     1
420
 16711680
370
     9
100
AcDbVertex
100
AcDb2dVertex
 10
282.5999866801315
 20
66.63861448231454
 30
0.0
  0
VERTEX
  5
2FD
330
2F8
100
AcDbEntity
  8
_U+5207_U+65AD_U+30D1_U+30B9
 62
     1
420
 16711680
370
     9
100
AcDbVertex
100
AcDb2dVertex
 10
296.4509623533071
 20
66.63861448169209
 30
0.0
  0
SEQEND
  5
2FE
330
2F8
100
AcDbEntity
  8
_U+5207_U+65AD_U+30D1_U+30B9
 62
     1
420
 16711680
370
     9
  0
ENDBLK
  5
2F7
330
2F4
100
AcDbEntity
  8
0
100
AcDbBlockEnd
  0
BLOCK
  5
301
330
2FF
100
AcDbEntity
  8
0
100
AcDbBlockBegin
  2
block 102
 70
     0
 10
0.0
 20
0.0
 30
0.0
  3
block 102
  1

  0
POLYLINE
  5
303
330
2FF
100
AcDbEntity
  8
_U+5207_U+65AD_U+30D1_U+30B9
 62
     1
420
 16711680
370
     9
100
AcDb2dPolyline
 66
     1
 10
0.0
 20
0.0
 30
0.0
  0
VERTEX
  5
304
330
303
100
AcDbEntity
  8
_U+5207_U+65AD_U+30D1_U+30B9
 62
     1
420
 16711680
370
     9
100
AcDbVertex
100
AcDb2dVertex
 10
273.4218304360888
 20
65.439073712006
 30
0.0
  0
VERTEX
  5
305
330
303
100
AcDbEntity
  8
_U+5207_U+65AD_U+30D1_U+30B9
 62
     1
420
 16711680
370
     9
100
AcDbVertex
100
AcDb2dVertex
 10
276.9931319880318
 20
52.05642328975999
 30
0.0
  0
VERTEX
  5
306
330
303
100
AcDbEntity
  8
_U+5207_U+65AD_U+30D1_U+30B9
 62
     1
420
 16711680
370
     9
100
AcDbVertex
100
AcDb2dVertex
 10
263.6104815657884
 20
48.48512173781379
 30
0.0
  0
VERTEX
  5
307
330
303
100
AcDbEntity
  8
_U+5207_U+65AD_U+30D1_U+30B9
 62
     1
420
 16711680
370
     9
100
AcDbVertex
100
AcDb2dVertex
 10
260.0391800138454
 20
61.86777216006173
 30
0.0
  0
VERTEX
  5
308
330
303
100
AcDbEntity
  8
_U+5207_U+65AD_U+30D1_U+30B9
 62
     1
420
 16711680
370
     9
100
AcDbVertex
100
AcDb2dVertex
 10
273.4218304360888
 20
65.439073712006
 30
0.0
  0
SEQEND
  5
309
330
303
100
AcDbEntity
  8
_U+5207_U+65AD_U+30D1_U+30B9
 62
     1
420
 16711680
370
     9
  0
ENDBLK
  5
302
330
2FF
100
AcDbEntity
  8
0
100
AcDbBlockEnd
  0
BLOCK
  5
30C
330
30A
100
AcDbEntity
  8
0
100
AcDbBlockBegin
  2
block 103
 70
     0
 10
0.0
 20
0.0
 30
0.0
  3
block 103
  1

  0
POLYLINE
  5
30E
330
30A
100
AcDbEntity
  8
_U+5207_U+65AD_U+30D1_U+30B9
 62
     1
420
 16711680
370
     9
100
AcDb2dPolyline
 66
     1
 10
0.0
 20
0.0
 30
0.0
  0
VERTEX
  5
30F
330
30E
100
AcDbEntity
  8
_U+5207_U+65AD_U+30D1_U+30B9
 62
     1
420
 16711680
370
     9
100
AcDbVertex
100
AcDb2dVertex
 10
248.8092503791266
 20
62.67743800665535
 30
0.0
  0
VERTEX
  5
310
330
30E
100
AcDbEntity
  8
_U+5207_U+65AD_U+30D1_U+30B9
 62
     1
420
 16711680
370
     9
100
AcDbVertex
100
AcDb2dVertex
 10
255.7265516820611
 20
50.67741843236753
 30
0.0
  0
VERTEX
  5
311
330
30E
100
AcDbEntity
  8
_U+5207_U+65AD_U+30D1_U+30B9
 62
     1
420
 16711680
370
     9
100
AcDbVertex
100
AcDb2dVertex
 10
243.726532107765
 20
43.76011712943489
 30
0.0
  0
VERTEX
  5
312
330
30E
100
AcDbEntity
  8
_U+5207_U+65AD_U+30D1_U+30B9
 62
     1
420
 16711680
370
     9
100
AcDbVertex
100
AcDb2dVertex
 10
236.8092308048323
 20
55.76013670373169
 30
0.0
  0
VERTEX
  5
313
330
30E
100
AcDbEntity
  8
_U+5207_U+65AD_U+30D1_U+30B9
 62
     1
420
 16711680
370
     9
100
AcDbVertex
100
AcDb2dVertex
 10
248.8092503791266
 20
62.67743800665535
 30
0.0
  0
SEQEND
  5
314
330
30E
100
AcDbEntity
  8
_U+5207_U+65AD_U+30D1_U+30B9
 62
     1
420
 16711680
370
     9
  0
ENDBLK
  5
30D
330
30A
100
AcDbEntity
  8
0
100
AcDbBlockEnd
  0
BLOCK
  5
317
330
315
100
AcDbEntity
  8
0
100
AcDbBlockBegin
  2
block 104
 70
     0
 10
0.0
 20
0.0
 30
0.0
  3
block 104
  1

  0
POLYLINE
  5
319
330
315
100
AcDbEntity
  8
_U+5207_U+65AD_U+30D1_U+30B9
 62
     1
420
 16711680
370
     9
100
AcDb2dPolyline
 66
     1
 10
0.0
 20
0.0
 30
0.0
  0
VERTEX
  5
31A
330
319
100
AcDbEntity
  8
_U+5207_U+65AD_U+30D1_U+30B9
 62
     1
420
 16711680
370
     9
100
AcDbVertex
100
AcDb2dVertex
 10
324.9529700571116
 20
86.26499697759758
 30
0.0
  0
VERTEX
  5
3E6
330
319
100
AcDbEntity
  8
0
100
AcDbVertex
100
AcDb2dVertex
 10
324.9529700571116
 20
86.26499697759758
 30
0.0
  0
SEQEND
  5
31B
330
319
100
AcDbEntity
  8
_U+5207_U+65AD_U+30D1_U+30B9
 62
     1
420
 16711680
370
     9
  0
ENDBLK
  5
318
330
315
100
AcDbEntity
  8
0
100
AcDbBlockEnd
  0
BLOCK
  5
31E
330
31C
100
AcDbEntity
  8
0
100
AcDbBlockBegin
  2
block 105
 70
     0
 10
0.0
 20
0.0
 30
0.0
  3
block 105
  1

  0
INSERT
  5
321
330
31C
100
AcDbEntity
  8
_U+5207_U+65AD_U+30D1_U+30B9
100
AcDbBlockReference
  2
block 106
 10
0.0
 20
0.0
 30
0.0
  0
INSERT
  5
32A
330
31C
100
AcDbEntity
  8
_U+5207_U+65AD_U+30D1_U+30B9
100
AcDbBlockReference
  2
block 108
 10
0.0
 20
0.0
 30
0.0
  0
INSERT
  5
333
330
31C
100
AcDbEntity
  8
_U+5207_U+65AD_U+30D1_U+30B9
100
AcDbBlockReference
  2
block 110
 10
0.0
 20
0.0
 30
0.0
  0
INSERT
  5
33C
330
31C
100
AcDbEntity
  8
_U+5207_U+65AD_U+30D1_U+30B9
100
AcDbBlockReference
  2
block 112
 10
0.0
 20
0.0
 30
0.0
  0
SPLINE
  5
340
330
31C
100
AcDbEntity
  8
_U+5207_U+65AD_U+30D1_U+30B9
 62
     1
420
 16711680
370
     9
100
AcDbSpline
210
0.0
220
0.0
230
1.0
 70
    11
 71
     3
 72
   209
 73
   205
 74
     0
 42
0.0000000001
 43
0.0000000001
 12
1.0
 22
0.0
 32
0.0
 13
1.0
 23
0.0
 33
0.0
 40
0.0
 40
0.0
 40
0.0
 40
0.0
 40
1.0
 40
1.0
 40
1.0
 40
2.0
 40
2.0
 40
2.0
 40
3.0
 40
3.0
 40
3.0
 40
4.0
 40
4.0
 40
4.0
 40
5.0
 40
5.0
 40
5.0
 40
6.0
 40
6.0
 40
6.0
 40
7.0
 40
7.0
 40
7.0
 40
8.0
 40
8.0
 40
8.0
 40
9.0
 40
9.0
 40
9.0
 40
10.0
 40
10.0
 40
10.0
 40
11.0
 40
11.0
 40
11.0
 40
12.0
 40
12.0
 40
12.0
 40
13.0
 40
13.0
 40
13.0
 40
14.0
 40
14.0
 40
14.0
 40
15.0
 40
15.0
 40
15.0
 40
16.0
 40
16.0
 40
16.0
 40
17.0
 40
17.0
 40
17.0
 40
18.0
 40
18.0
 40
18.0
 40
19.0
 40
19.0
 40
19.0
 40
20.0
 40
20.0
 40
20.0
 40
21.0
 40
21.0
 40
21.0
 40
22.0
 40
22.0
 40
22.0
 40
23.0
 40
23.0
 40
23.0
 40
24.0
 40
24.0
 40
24.0
 40
25.0
 40
25.0
 40
25.0
 40
26.0
 40
26.0
 40
26.0
 40
27.0
 40
27.0
 40
27.0
 40
28.0
 40
28.0
 40
28.0
 40
29.0
 40
29.0
 40
29.0
 40
30.0
 40
30.0
 40
30.0
 40
31.0
 40
31.0
 40
31.0
 40
32.0
 40
32.0
 40
32.0
 40
33.0
 40
33.0
 40
33.0
 40
34.0
 40
34.0
 40
34.0
 40
35.0
 40
35.0
 40
35.0
 40
36.0
 40
36.0
 40
36.0
 40
37.0
 40
37.0
 40
37.0
 40
38.0
 40
38.0
 40
38.0
 40
39.0
 40
39.0
 40
39.0
 40
40.0
 40
40.0
 40
40.0
 40
41.0
 40
41.0
 40
41.0
 40
42.0
 40
42.0
 40
42.0
 40
43.0
 40
43.0
 40
43.0
 40
44.0
 40
44.0
 40
44.0
 40
45.0
 40
45.0
 40
45.0
 40
46.0
 40
46.0
 40
46.0
 40
47.0
 40
47.0
 40
47.0
 40
48.0
 40
48.0
 40
48.0
 40
49.0
 40
49.0
 40
49.0
 40
50.0
 40
50.0
 40
50.0
 40
51.0
 40
51.0
 40
51.0
 40
52.0
 40
52.0
 40
52.0
 40
53.0
 40
53.0
 40
53.0
 40
54.0
 40
54.0
 40
54.0
 40
55.0
 40
55.0
 40
55.0
 40
56.0
 40
56.0
 40
56.0
 40
57.0
 40
57.0
 40
57.0
 40
58.0
 40
58.0
 40
58.0
 40
59.0
 40
59.0
 40
59.0
 40
60.0
 40
60.0
 40
60.0
 40
61.0
 40
61.0
 40
61.0
 40
62.0
 40
62.0
 40
62.0
 40
63.0
 40
63.0
 40
63.0
 40
64.0
 40
64.0
 40
64.0
 40
65.0
 40
65.0
 40
65.0
 40
66.0
 40
66.0
 40
66.0
 40
67.0
 40
67.0
 40
67.0
 40
68.0
 40
68.0
 40
68.0
 40
68.0
 10
351.9006803775606
 20
158.7615994895545
 30
0.0
 10
351.0813308291143
 20
157.3225589480663
 30
0.0
 10
351.5123680130619
 20
155.491796180011
 30
0.0
 10
352.9507758840634
 20
154.6713364556939
 30
0.0
 10
352.9507758840634
 20
154.6713364556939
 30
0.0
 10
354.5875802974178
 20
153.7377124643244
 30
0.0
 10
354.5875802974178
 20
153.7377124643244
 30
0.0
 10
357.055849504507
 20
152.3298256507637
 30
0.0
 10
357.8687725558315
 20
149.13724556893
 30
0.0
 10
356.3287088301021
 20
146.7101306455998
 30
0.0
 10
354.8862633574001
 20
144.436860472167
 30
0.0
 10
351.8488884011036
 20
143.787458111753
 30
0.0
 10
349.5102888443577
 20
145.1213840228575
 30
0.0
 10
349.5102888443577
 20
145.1213840228575
 30
0.0
 10
347.9966060007865
 20
145.9847814182814
 30
0.0
 10
347.9966060007865
 20
145.9847814182814
 30
0.0
 10
346.5580240102461
 20
146.8053416492515
 30
0.0
 10
344.7266465942067
 20
146.3049317728503
 30
0.0
 10
343.9052233415183
 20
144.8668423889444
 30
0.0
 10
343.9052233415183
 20
144.8668423889444
 30
0.0
 10
341.379032320949
 20
140.4165751552013
 30
0.0
 10
341.379032320949
 20
140.4165751552013
 30
0.0
 10
341.3742875675636
 20
140.4094235716615
 30
0.0
 10
341.3694375032444
 20
140.4023424182901
 30
0.0
 10
341.3644837131151
 20
140.3953340093952
 30
0.0
 10
341.0864765653591
 20
140.0020214718482
 30
0.0
 10
340.5422644339452
 20
139.9085479847442
 30
0.0
 10
340.1489518963931
 20
140.1865551325028
 30
0.0
 10
340.1489518963931
 20
140.1865551325028
 30
0.0
 10
325.3992898253292
 20
148.6760753535568
 30
0.0
 10
325.3992898253292
 20
148.6760753535568
 30
0.0
 10
325.308056748124
 20
148.7077943322465
 30
0.0
 10
325.2143552410989
 20
148.7319089432381
 30
0.0
 10
325.119144575715
 20
148.7481723126034
 30
0.0
 10
325.119144575715
 20
148.7481723126034
 30
0.0
 10
288.3252951745293
 20
154.2175473063927
 30
0.0
 10
288.3252951745293
 20
154.2175473063927
 30
0.0
 10
288.1960478730831
 20
154.2306678016158
 30
0.0
 10
288.0739076367469
 20
154.2830136171897
 30
0.0
 10
287.9752705185189
 20
154.3675578732532
 30
0.0
 10
287.9752705185189
 20
154.3675578732532
 30
0.0
 10
277.4245273159802
 20
168.8268032692398
 30
0.0
 10
277.4280809568959
 20
168.822129455087
 30
0.0
 10
277.3343061620999
 20
168.9159042498792
 30
0.0
 10
277.2071202465787
 20
168.9685863810291
 30
0.0
 10
277.0745026599698
 20
168.9685863810291
 30
0.0
 10
277.0745026599698
 20
168.9685863810291
 30
0.0
 10
240.5714605616307
 20
168.9685863810291
 30
0.0
 10
240.5714605616307
 20
168.9685863810291
 30
0.0
 10
240.2952987336618
 20
168.9685863810284
 30
0.0
 10
240.0714253387611
 20
169.1924597759356
 30
0.0
 10
240.0714253387611
 20
169.468621603898
 30
0.0
 10
240.0714253387611
 20
169.468621603898
 30
0.0
 10
240.0609701010812
 20
170.3478499711848
 30
0.0
 10
240.0609701010812
 20
170.3478499711848
 30
0.0
 10
240.0596923050087
 20
172.0037997680748
 30
0.0
 10
238.7169212844087
 20
173.3455350532384
 30
0.0
 10
237.0609709945187
 20
173.3455350529881
 30
0.0
 10
237.0609709945187
 20
173.3455350529881
 30
0.0
 10
235.1766189985165
 20
173.3455350527045
 30
0.0
 10
235.1766189985165
 20
173.3455350527045
 30
0.0
 10
232.3350528531554
 20
173.3455350528322
 30
0.0
 10
230.0471228874632
 20
175.7159333186053
 30
0.0
 10
230.182326066389
 20
178.5872402041142
 30
0.0
 10
230.3089592764812
 20
181.2765468532776
 30
0.0
 10
232.6255599532233
 20
183.3455396892673
 30
0.0
 10
235.3178463835882
 20
183.345538009518
 30
0.0
 10
235.3178463835882
 20
183.345538009518
 30
0.0
 10
237.0604567282558
 20
183.3455369222835
 30
0.0
 10
237.0604567282558
 20
183.3455369222835
 30
0.0
 10
238.7166080607602
 20
183.3455358889914
 30
0.0
 10
240.05946331071
 20
184.6875839738465
 30
0.0
 10
240.0604580580912
 20
186.3437350076104
 30
0.0
 10
240.0604580580912
 20
186.3437350076104
 30
0.0
 10
240.0714253387605
 20
186.9707915720559
 30
0.0
 10
240.0714253387605
 20
186.9707915720559
 30
0.0
 10
240.0714253387605
 20
186.9707915720559
 30
0.0
 10
240.0714253387611
 20
207.8880594094549
 30
0.0
 10
240.0714253387611
 20
207.8880594094549
 30
0.0
 10
240.0714253387611
 20
207.8880594094549
 30
0.0
 10
240.0765976248567
 20
208.3706446794371
 30
0.0
 10
240.0765976248567
 20
208.3706446794371
 30
0.0
 10
240.0753198287835
 20
210.0265944763284
 30
0.0
 10
238.7325488081836
 20
211.3683297614907
 30
0.0
 10
237.0765985182935
 20
211.3683297612404
 30
0.0
 10
237.0765985182935
 20
211.3683297612404
 30
0.0
 10
235.1922465222914
 20
211.3683297609568
 30
0.0
 10
235.1922465222914
 20
211.3683297609568
 30
0.0
 10
232.3506803769302
 20
211.3683297610845
 30
0.0
 10
230.062750411238
 20
213.7387280268576
 30
0.0
 10
230.1979535901639
 20
216.6100349123665
 30
0.0
 10
230.324586800256
 20
219.2993415615311
 30
0.0
 10
232.6411874769982
 20
221.3683343975189
 30
0.0
 10
235.3334739073631
 20
221.3683327177703
 30
0.0
 10
235.3334739073631
 20
221.3683327177703
 30
0.0
 10
237.0760842520307
 20
221.3683316305357
 30
0.0
 10
237.0760842520307
 20
221.3683316305357
 30
0.0
 10
238.732235584535
 20
221.3683305972437
 30
0.0
 10
240.0750908344848
 20
222.7103786821001
 30
0.0
 10
240.0760855818667
 20
224.3665297158627
 30
0.0
 10
240.0760855818667
 20
224.3665297158627
 30
0.0
 10
240.0714253387611
 20
224.7225137309461
 30
0.0
 10
240.0714253387611
 20
224.7225137309461
 30
0.0
 10
240.0714253387611
 20
224.998675558915
 30
0.0
 10
240.2952987336624
 20
225.222548953817
 30
0.0
 10
240.5714605616301
 20
225.2225489538176
 30
0.0
 10
240.5714605616301
 20
225.2225489538176
 30
0.0
 10
259.0732346366817
 20
225.2225489538157
 30
0.0
 10
259.0732346366817
 20
225.2225489538157
 30
0.0
 10
259.3493964646486
 20
225.2225489538163
 30
0.0
 10
259.5732698595474
 20
225.4464223487157
 30
0.0
 10
259.5732698595474
 20
225.7225841766885
 30
0.0
 10
259.5732698595474
 20
225.7225841766885
 30
0.0
 10
259.5732698595474
 20
229.4728483482053
 30
0.0
 10
259.5732698595474
 20
229.4728483482053
 30
0.0
 10
259.5732698595486
 20
229.7490101761717
 30
0.0
 10
259.7971432544481
 20
229.9728835710762
 30
0.0
 10
260.0733050824196
 20
229.9728835710768
 30
0.0
 10
260.0733050824196
 20
229.9728835710768
 30
0.0
 10
278.074573105709
 20
229.9728835710775
 30
0.0
 10
278.074573105709
 20
229.9728835710775
 30
0.0
 10
278.3507349336786
 20
229.9728835710762
 30
0.0
 10
278.5746083285786
 20
230.1967569659711
 30
0.0
 10
278.5746083285779
 20
230.4729187939426
 30
0.0
 10
278.5746083285779
 20
230.4729187939426
 30
0.0
 10
278.5746083285786
 20
231.7230068511204
 30
0.0
 10
278.5746083285786
 20
231.7230068511204
 30
0.0
 10
278.5746083285786
 20
231.9991686790868
 30
0.0
 10
278.7984817234773
 20
232.2230420739849
 30
0.0
 10
279.0746435514469
 20
232.2230420739855
 30
0.0
 10
279.0746435514469
 20
232.2230420739855
 30
0.0
 10
296.0758411289997
 20
232.2230420739843
 30
0.0
 10
296.0758411289997
 20
232.2230420739843
 30
0.0
 10
296.3520029569699
 20
232.2230420739849
 30
0.0
 10
296.5758763518712
 20
231.9991686790855
 30
0.0
 10
296.5758763518718
 20
231.7230068511192
 30
0.0
 10
296.5758763518718
 20
231.7230068511192
 30
0.0
 10
296.5758763518712
 20
230.4729187939413
 30
0.0
 10
296.5758763518712
 20
230.4729187939413
 30
0.0
 10
296.5758763518718
 20
230.1967569659724
 30
0.0
 10
296.7997497467687
 20
229.9728835710775
 30
0.0
 10
297.0759115747389
 20
229.9728835710775
 30
0.0
 10
297.0759115747389
 20
229.9728835710775
 30
0.0
 10
315.0771795980302
 20
229.9728835710768
 30
0.0
 10
315.0771795980302
 20
229.9728835710768
 30
0.0
 10
315.3533414260011
 20
229.9728835710768
 30
0.0
 10
315.5772148209005
 20
229.749010176173
 30
0.0
 10
315.5772148209018
 20
229.4728483482053
 30
0.0
 10
315.5772148209018
 20
229.4728483482053
 30
0.0
 10
315.5772148209005
 20
227.9727426796004
 30
0.0
 10
315.5772148209005
 20
227.9727426796004
 30
0.0
 10
315.5772148208973
 20
227.6965808516263
 30
0.0
 10
315.8010882158005
 20
227.4727074567295
 30
0.0
 10
316.0772500437694
 20
227.4727074567314
 30
0.0
 10
316.0772500437694
 20
227.4727074567314
 30
0.0
 10
317.5464899634382
 20
227.4763871850126
 30
0.0
 10
317.5464899634382
 20
227.4763871850126
 30
0.0
 10
319.2024397603288
 20
227.4776649810845
 30
0.0
 10
320.5441750454918
 20
228.8204360016851
 30
0.0
 10
320.5441750452415
 20
230.4763862915744
 30
0.0
 10
320.5441750452415
 20
230.4763862915744
 30
0.0
 10
320.5441750449579
 20
232.3607382875767
 30
0.0
 10
320.5441750449579
 20
232.3607382875767
 30
0.0
 10
320.5441750450856
 20
235.2023044329384
 30
0.0
 10
322.9145733108587
 20
237.4902343986306
 30
0.0
 10
325.7858801963675
 20
237.3550312197048
 30
0.0
 10
328.4751868455316
 20
237.2283980096126
 30
0.0
 10
330.5441796815206
 20
234.9117973328711
 30
0.0
 10
330.5441780017714
 20
232.2195109025062
 30
0.0
 10
330.5441780017714
 20
232.2195109025062
 30
0.0
 10
330.5441769145368
 20
230.476900557838
 30
0.0
 10
330.5441769145368
 20
230.476900557838
 30
0.0
 10
330.5441758812448
 20
228.8207492253336
 30
0.0
 10
331.8862239661005
 20
227.4778939753838
 30
0.0
 10
333.5423749998638
 20
227.4768992280019
 30
0.0
 10
333.5423749998638
 20
227.4768992280019
 30
0.0
 10
334.0785180670588
 20
227.4727074567301
 30
0.0
 10
334.0785180670588
 20
227.4727074567301
 30
0.0
 10
334.3546798950271
 20
227.4727074567308
 30
0.0
 10
334.5785532899278
 20
227.248834061825
 30
0.0
 10
334.5785532899278
 20
226.9726722338599
 30
0.0
 10
334.5785532899278
 20
226.9726722338599
 30
0.0
 10
334.5785532899284
 20
225.7380789926743
 30
0.0
 10
334.5785532899284
 20
225.7380789926743
 30
0.0
 10
334.6069698911587
 20
225.4699571014526
 30
0.0
 10
334.812792426911
 20
225.2548115456013
 30
0.0
 10
335.0793933878467
 20
225.2145526408882
 30
0.0
 10
335.0793933878467
 20
225.2145526408882
 30
0.0
 10
354.830784691179
 20
225.2145526408882
 30
0.0
 10
354.830784691179
 20
225.2145526408882
 30
0.0
 10
355.1069465191447
 20
225.2145526408875
 30
0.0
 10
355.3308199140461
 20
224.9906792459856
 30
0.0
 10
355.3308199140461
 20
224.7145174180154
 30
0.0
 10
355.3308199140461
 20
224.7145174180154
 30
0.0
 10
355.3308748872843
 20
165.753764765589
 30
0.0
 10
355.3308748872843
 20
165.753764765589
 30
0.0
 10
355.2875558851185
 20
164.9404532837632
 30
0.0
 10
355.0419467109798
 20
164.1508110305632
 30
0.0
 10
354.6163105442824
 20
163.4564149216966
 30
0.0
 10
354.6163105442824
 20
163.4564149216966
 30
0.0
 10
352.5998208038083
 20
159.9466601422419
 30
0.0
 10
352.5998208038083
 20
159.9466601422419
 30
0.0
 10
352.5998208038083
 20
159.9466601422419
 30
0.0
 10
351.9006803775606
 20
158.7615994895545
 30
0.0
 10
351.9006803775606
 20
158.7615994895545
 30
0.0
  0
INSERT
  5
342
330
31C
100
AcDbEntity
  8
_U+5207_U+65AD_U+30D1_U+30B9
100
AcDbBlockReference
  2
block 113
 10
0.0
 20
0.0
 30
0.0
  0
INSERT
  5
347
330
31C
100
AcDbEntity
  8
_U+5207_U+65AD_U+30D1_U+30B9
100
AcDbBlockReference
  2
block 114
 10
0.0
 20
0.0
 30
0.0
  0
INSERT
  5
34C
330
31C
100
AcDbEntity
  8
_U+5207_U+65AD_U+30D1_U+30B9
100
AcDbBlockReference
  2
block 115
 10
0.0
 20
0.0
 30
0.0
  0
INSERT
  5
351
330
31C
100
AcDbEntity
  8
_U+5207_U+65AD_U+30D1_U+30B9
100
AcDbBlockReference
  2
block 116
 10
0.0
 20
0.0
 30
0.0
  0
INSERT
  5
356
330
31C
100
AcDbEntity
  8
_U+5207_U+65AD_U+30D1_U+30B9
100
AcDbBlockReference
  2
block 117
 10
0.0
 20
0.0
 30
0.0
  0
ENDBLK
  5
31F
330
31C
100
AcDbEntity
  8
0
100
AcDbBlockEnd
  0
BLOCK
  5
322
330
320
100
AcDbEntity
  8
0
100
AcDbBlockBegin
  2
block 106
 70
     0
 10
0.0
 20
0.0
 30
0.0
  3
block 106
  1

  0
INSERT
  5
325
330
320
100
AcDbEntity
  8
_U+5207_U+65AD_U+30D1_U+30B9
100
AcDbBlockReference
  2
block 107
 10
0.0
 20
0.0
 30
0.0
  0
ENDBLK
  5
323
330
320
100
AcDbEntity
  8
0
100
AcDbBlockEnd
  0
BLOCK
  5
326
330
324
100
AcDbEntity
  8
0
100
AcDbBlockBegin
  2
block 107
 70
     0
 10
0.0
 20
0.0
 30
0.0
  3
block 107
  1

  0
SPLINE
  5
328
330
324
100
AcDbEntity
  8
_U+5207_U+65AD_U+30D1_U+30B9
 62
     1
420
 16711680
370
     9
100
AcDbSpline
210
0.0
220
0.0
230
1.0
 70
    11
 71
     3
 72
    20
 73
    16
 74
     0
 42
0.0000000001
 43
0.0000000001
 12
1.0
 22
0.0
 32
0.0
 13
1.0
 23
0.0
 33
0.0
 40
0.0
 40
0.0
 40
0.0
 40
0.0
 40
1.0
 40
1.0
 40
1.0
 40
2.0
 40
2.0
 40
2.0
 40
3.0
 40
3.0
 40
3.0
 40
4.0
 40
4.0
 40
4.0
 40
5.0
 40
5.0
 40
5.0
 40
5.0
 10
235.1922465226206
 20
218.9683297590564
 30
0.0
 10
233.7563061734149
 20
218.9683297591205
 30
0.0
 10
232.592246523205
 20
217.80427010903
 30
0.0
 10
232.5922465231402
 20
216.3683297598231
 30
0.0
 10
232.5922465230761
 20
214.9323894106239
 30
0.0
 10
233.7563061731813
 20
213.7683297604204
 30
0.0
 10
235.192246522387
 20
213.7683297603562
 30
0.0
 10
236.6281868715714
 20
213.7683297602914
 30
0.0
 10
237.7922465217762
 20
214.9323894103903
 30
0.0
 10
237.7922465218403
 20
216.3683297595895
 30
0.0
 10
237.7922465219052
 20
217.8042701087964
 30
0.0
 10
236.628186871805
 20
218.9683297589915
 30
0.0
 10
235.1922465226206
 20
218.9683297590564
 30
0.0
 10
235.1922465226206
 20
218.9683297590564
 30
0.0
 10
235.1922465226206
 20
218.9683297590564
 30
0.0
 10
235.1922465226206
 20
218.9683297590564
 30
0.0
  0
ENDBLK
  5
327
330
324
100
AcDbEntity
  8
0
100
AcDbBlockEnd
  0
BLOCK
  5
32B
330
329
100
AcDbEntity
  8
0
100
AcDbBlockBegin
  2
block 108
 70
     0
 10
0.0
 20
0.0
 30
0.0
  3
block 108
  1

  0
INSERT
  5
32E
330
329
100
AcDbEntity
  8
_U+5207_U+65AD_U+30D1_U+30B9
100
AcDbBlockReference
  2
block 109
 10
0.0
 20
0.0
 30
0.0
  0
ENDBLK
  5
32C
330
329
100
AcDbEntity
  8
0
100
AcDbBlockEnd
  0
BLOCK
  5
32F
330
32D
100
AcDbEntity
  8
0
100
AcDbBlockBegin
  2
block 109
 70
     0
 10
0.0
 20
0.0
 30
0.0
  3
block 109
  1

  0
SPLINE
  5
331
330
32D
100
AcDbEntity
  8
_U+5207_U+65AD_U+30D1_U+30B9
 62
     1
420
 16711680
370
     9
100
AcDbSpline
210
0.0
220
0.0
230
1.0
 70
    11
 71
     3
 72
    20
 73
    16
 74
     0
 42
0.0000000001
 43
0.0000000001
 12
1.0
 22
0.0
 32
0.0
 13
1.0
 23
0.0
 33
0.0
 40
0.0
 40
0.0
 40
0.0
 40
0.0
 40
1.0
 40
1.0
 40
1.0
 40
2.0
 40
2.0
 40
2.0
 40
3.0
 40
3.0
 40
3.0
 40
4.0
 40
4.0
 40
4.0
 40
5.0
 40
5.0
 40
5.0
 40
5.0
 10
235.1766189988457
 20
180.9455350508041
 30
0.0
 10
233.7406786496401
 20
180.9455350508682
 30
0.0
 10
232.5766189994295
 20
179.7814754007777
 30
0.0
 10
232.5766189993654
 20
178.3455350515708
 30
0.0
 10
232.5766189993006
 20
176.9095947023703
 30
0.0
 10
233.7406786494065
 20
175.7455350521681
 30
0.0
 10
235.1766189986121
 20
175.745535052104
 30
0.0
 10
236.6125593477965
 20
175.7455350520398
 30
0.0
 10
237.7766189980007
 20
176.9095947021367
 30
0.0
 10
237.7766189980655
 20
178.3455350513372
 30
0.0
 10
237.7766189981296
 20
179.7814754005441
 30
0.0
 10
236.6125593480301
 20
180.9455350507399
 30
0.0
 10
235.1766189988457
 20
180.9455350508041
 30
0.0
 10
235.1766189988457
 20
180.9455350508041
 30
0.0
 10
235.1766189988457
 20
180.9455350508041
 30
0.0
 10
235.1766189988457
 20
180.9455350508041
 30
0.0
  0
ENDBLK
  5
330
330
32D
100
AcDbEntity
  8
0
100
AcDbBlockEnd
  0
BLOCK
  5
334
330
332
100
AcDbEntity
  8
0
100
AcDbBlockBegin
  2
block 110
 70
     0
 10
0.0
 20
0.0
 30
0.0
  3
block 110
  1

  0
INSERT
  5
337
330
332
100
AcDbEntity
  8
_U+5207_U+65AD_U+30D1_U+30B9
100
AcDbBlockReference
  2
block 111
 10
0.0
 20
0.0
 30
0.0
  0
ENDBLK
  5
335
330
332
100
AcDbEntity
  8
0
100
AcDbBlockEnd
  0
BLOCK
  5
338
330
336
100
AcDbEntity
  8
0
100
AcDbBlockBegin
  2
block 111
 70
     0
 10
0.0
 20
0.0
 30
0.0
  3
block 111
  1

  0
SPLINE
  5
33A
330
336
100
AcDbEntity
  8
_U+5207_U+65AD_U+30D1_U+30B9
 62
     1
420
 16711680
370
     9
100
AcDbSpline
210
0.0
220
0.0
230
1.0
 70
    11
 71
     3
 72
    20
 73
    16
 74
     0
 42
0.0000000001
 43
0.0000000001
 12
1.0
 22
0.0
 32
0.0
 13
1.0
 23
0.0
 33
0.0
 40
0.0
 40
0.0
 40
0.0
 40
0.0
 40
1.0
 40
1.0
 40
1.0
 40
2.0
 40
2.0
 40
2.0
 40
3.0
 40
3.0
 40
3.0
 40
4.0
 40
4.0
 40
4.0
 40
5.0
 40
5.0
 40
5.0
 40
5.0
 10
328.1441750430574
 20
232.3607382872487
 30
0.0
 10
328.1441750431222
 20
233.7966786364544
 30
0.0
 10
326.9801153930311
 20
234.9607382866636
 30
0.0
 10
325.5441750438242
 20
234.9607382867278
 30
0.0
 10
324.1082346946243
 20
234.9607382867926
 30
0.0
 10
322.9441750444221
 20
233.7966786366873
 30
0.0
 10
322.9441750443573
 20
232.3607382874817
 30
0.0
 10
322.9441750442932
 20
230.9247979382966
 30
0.0
 10
324.1082346943908
 20
229.7607382880925
 30
0.0
 10
325.5441750435906
 20
229.7607382880277
 30
0.0
 10
326.9801153927975
 20
229.7607382879635
 30
0.0
 10
328.1441750429933
 20
230.9247979380636
 30
0.0
 10
328.1441750430574
 20
232.3607382872487
 30
0.0
 10
328.1441750430574
 20
232.3607382872487
 30
0.0
 10
328.1441750430574
 20
232.3607382872487
 30
0.0
 10
328.1441750430574
 20
232.3607382872487
 30
0.0
  0
ENDBLK
  5
339
330
336
100
AcDbEntity
  8
0
100
AcDbBlockEnd
  0
BLOCK
  5
33D
330
33B
100
AcDbEntity
  8
0
100
AcDbBlockBegin
  2
block 112
 70
     0
 10
0.0
 20
0.0
 30
0.0
  3
block 112
  1

  0
SPLINE
  5
33F
330
33B
100
AcDbEntity
  8
_U+5207_U+65AD_U+30D1_U+30B9
 62
     1
420
 16711680
370
     9
100
AcDbSpline
210
0.0
220
0.0
230
1.0
 70
    11
 71
     3
 72
    20
 73
    16
 74
     0
 42
0.0000000001
 43
0.0000000001
 12
1.0
 22
0.0
 32
0.0
 13
1.0
 23
0.0
 33
0.0
 40
0.0
 40
0.0
 40
0.0
 40
0.0
 40
1.0
 40
1.0
 40
1.0
 40
2.0
 40
2.0
 40
2.0
 40
3.0
 40
3.0
 40
3.0
 40
4.0
 40
4.0
 40
4.0
 40
5.0
 40
5.0
 40
5.0
 40
5.0
 10
350.8220723933231
 20
147.1361255191051
 30
0.0
 10
352.0693730598759
 20
146.4246722643541
 30
0.0
 10
353.6572568501934
 20
146.859062419241
 30
0.0
 10
354.3687101049451
 20
148.1063630857926
 30
0.0
 10
355.0801633596936
 20
149.3536637523403
 30
0.0
 10
354.6457732047894
 20
150.9415475426585
 30
0.0
 10
353.3984725382371
 20
151.6530007974114
 30
0.0
 10
352.1511718717054
 20
152.3644540521496
 30
0.0
 10
350.5632880813886
 20
151.930063897255
 30
0.0
 10
349.8518348266394
 20
150.6827632307073
 30
0.0
 10
349.1403815718878
 20
149.4354625641544
 30
0.0
 10
349.5747717267901
 20
147.8475787738459
 30
0.0
 10
350.8220723933231
 20
147.1361255191051
 30
0.0
 10
350.8220723933231
 20
147.1361255191051
 30
0.0
 10
350.8220723933231
 20
147.1361255191051
 30
0.0
 10
350.8220723933231
 20
147.1361255191051
 30
0.0
  0
ENDBLK
  5
33E
330
33B
100
AcDbEntity
  8
0
100
AcDbBlockEnd
  0
BLOCK
  5
343
330
341
100
AcDbEntity
  8
0
100
AcDbBlockBegin
  2
block 113
 70
     0
 10
0.0
 20
0.0
 30
0.0
  3
block 113
  1

  0
SPLINE
  5
345
330
341
100
AcDbEntity
  8
_U+5207_U+65AD_U+30D1_U+30B9
 62
     1
420
 16711680
370
     9
100
AcDbSpline
210
0.0
220
0.0
230
1.0
 70
    11
 71
     3
 72
    17
 73
    13
 74
     0
 42
0.0000000001
 43
0.0000000001
 12
1.0
 22
0.0
 32
0.0
 13
1.0
 23
0.0
 33
0.0
 40
0.0
 40
0.0
 40
0.0
 40
0.0
 40
1.0
 40
1.0
 40
1.0
 40
2.0
 40
2.0
 40
2.0
 40
3.0
 40
3.0
 40
3.0
 40
4.0
 40
4.0
 40
4.0
 40
4.0
 10
282.218198536434
 20
170.4729670877796
 30
0.0
 10
282.2181985364346
 20
171.0805231093125
 30
0.0
 10
282.7107200052152
 20
171.573044578097
 30
0.0
 10
283.3182760267494
 20
171.5730445780982
 30
0.0
 10
283.9258320482791
 20
171.5730445780976
 30
0.0
 10
284.418353517061
 20
171.0805231093125
 30
0.0
 10
284.4183535170603
 20
170.4729670877796
 30
0.0
 10
284.4183535170603
 20
169.8654110662467
 30
0.0
 10
283.9258320482778
 20
169.3728895974732
 30
0.0
 10
283.3182760267481
 20
169.3728895974738
 30
0.0
 10
282.7107200052146
 20
169.3728895974725
 30
0.0
 10
282.2181985364352
 20
169.8654110662467
 30
0.0
 10
282.218198536434
 20
170.4729670877796
 30
0.0
  0
ENDBLK
  5
344
330
341
100
AcDbEntity
  8
0
100
AcDbBlockEnd
  0
BLOCK
  5
348
330
346
100
AcDbEntity
  8
0
100
AcDbBlockBegin
  2
block 114
 70
     0
 10
0.0
 20
0.0
 30
0.0
  3
block 114
  1

  0
SPLINE
  5
34A
330
346
100
AcDbEntity
  8
_U+5207_U+65AD_U+30D1_U+30B9
 62
     1
420
 16711680
370
     9
100
AcDbSpline
210
0.0
220
0.0
230
1.0
 70
    11
 71
     3
 72
    17
 73
    13
 74
     0
 42
0.0000000001
 43
0.0000000001
 12
1.0
 22
0.0
 32
0.0
 13
1.0
 23
0.0
 33
0.0
 40
0.0
 40
0.0
 40
0.0
 40
0.0
 40
1.0
 40
1.0
 40
1.0
 40
2.0
 40
2.0
 40
2.0
 40
3.0
 40
3.0
 40
3.0
 40
4.0
 40
4.0
 40
4.0
 40
4.0
 10
314.9964637290092
 20
210.2202211689565
 30
0.0
 10
314.9964637290072
 20
210.8277771904894
 30
0.0
 10
315.4889851977885
 20
211.3202986592642
 30
0.0
 10
316.0965412193227
 20
211.3202986592636
 30
0.0
 10
316.7040972408524
 20
211.3202986592648
 30
0.0
 10
317.196618709631
 20
210.8277771904894
 30
0.0
 10
317.196618709633
 20
210.2202211689565
 30
0.0
 10
317.1966187096323
 20
209.6126651474236
 30
0.0
 10
316.7040972408518
 20
209.1201436786391
 30
0.0
 10
316.096541219322
 20
209.1201436786391
 30
0.0
 10
315.4889851977885
 20
209.1201436786397
 30
0.0
 10
314.9964637290086
 20
209.6126651474236
 30
0.0
 10
314.9964637290092
 20
210.2202211689565
 30
0.0
  0
ENDBLK
  5
349
330
346
100
AcDbEntity
  8
0
100
AcDbBlockEnd
  0
BLOCK
  5
34D
330
34B
100
AcDbEntity
  8
0
100
AcDbBlockBegin
  2
block 115
 70
     0
 10
0.0
 20
0.0
 30
0.0
  3
block 115
  1

  0
SPLINE
  5
34F
330
34B
100
AcDbEntity
  8
_U+5207_U+65AD_U+30D1_U+30B9
 62
     1
420
 16711680
370
     9
100
AcDbSpline
210
0.0
220
0.0
230
1.0
 70
    11
 71
     3
 72
    17
 73
    13
 74
     0
 42
0.0000000001
 43
0.0000000001
 12
1.0
 22
0.0
 32
0.0
 13
1.0
 23
0.0
 33
0.0
 40
0.0
 40
0.0
 40
0.0
 40
0.0
 40
1.0
 40
1.0
 40
1.0
 40
2.0
 40
2.0
 40
2.0
 40
3.0
 40
3.0
 40
3.0
 40
4.0
 40
4.0
 40
4.0
 40
4.0
 10
257.9835661943029
 20
206.5978242013646
 30
0.0
 10
257.9835661943015
 20
207.2053802228937
 30
0.0
 10
258.4760876630847
 20
207.69790169168
 30
0.0
 10
259.0836436846144
 20
207.6979016916794
 30
0.0
 10
259.6911997061486
 20
207.6979016916807
 30
0.0
 10
260.1837211749273
 20
207.2053802228949
 30
0.0
 10
260.1837211749273
 20
206.5978242013646
 30
0.0
 10
260.1837211749286
 20
205.9902681798355
 30
0.0
 10
259.6911997061479
 20
205.497746711055
 30
0.0
 10
259.0836436846138
 20
205.497746711055
 30
0.0
 10
258.4760876630841
 20
205.4977467110556
 30
0.0
 10
257.9835661943022
 20
205.9902681798368
 30
0.0
 10
257.9835661943029
 20
206.5978242013646
 30
0.0
  0
ENDBLK
  5
34E
330
34B
100
AcDbEntity
  8
0
100
AcDbBlockEnd
  0
BLOCK
  5
352
330
350
100
AcDbEntity
  8
0
100
AcDbBlockBegin
  2
block 116
 70
     0
 10
0.0
 20
0.0
 30
0.0
  3
block 116
  1

  0
SPLINE
  5
354
330
350
100
AcDbEntity
  8
_U+5207_U+65AD_U+30D1_U+30B9
 62
     1
420
 16711680
370
     9
100
AcDbSpline
210
0.0
220
0.0
230
1.0
 70
    11
 71
     3
 72
    17
 73
    13
 74
     0
 42
0.0000000001
 43
0.0000000001
 12
1.0
 22
0.0
 32
0.0
 13
1.0
 23
0.0
 33
0.0
 40
0.0
 40
0.0
 40
0.0
 40
0.0
 40
1.0
 40
1.0
 40
1.0
 40
2.0
 40
2.0
 40
2.0
 40
3.0
 40
3.0
 40
3.0
 40
4.0
 40
4.0
 40
4.0
 40
4.0
 10
257.9747707895232
 20
187.5826877737051
 30
0.0
 10
257.9747707895238
 20
188.1902437952368
 30
0.0
 10
258.4672922583025
 20
188.6827652640187
 30
0.0
 10
259.0748482798367
 20
188.6827652640187
 30
0.0
 10
259.6824043013644
 20
188.682765264018
 30
0.0
 10
260.1749257701495
 20
188.1902437952368
 30
0.0
 10
260.1749257701489
 20
187.5826877737051
 30
0.0
 10
260.1749257701489
 20
186.975131752171
 30
0.0
 10
259.6824043013651
 20
186.4826102833936
 30
0.0
 10
259.0748482798354
 20
186.4826102833942
 30
0.0
 10
258.4672922583025
 20
186.4826102833942
 30
0.0
 10
257.9747707895232
 20
186.975131752171
 30
0.0
 10
257.9747707895232
 20
187.5826877737051
 30
0.0
  0
ENDBLK
  5
353
330
350
100
AcDbEntity
  8
0
100
AcDbBlockEnd
  0
BLOCK
  5
357
330
355
100
AcDbEntity
  8
0
100
AcDbBlockBegin
  2
block 117
 70
     0
 10
0.0
 20
0.0
 30
0.0
  3
block 117
  1

  0
SPLINE
  5
359
330
355
100
AcDbEntity
  8
_U+5207_U+65AD_U+30D1_U+30B9
 62
     1
420
 16711680
370
     9
100
AcDbSpline
210
0.0
220
0.0
230
1.0
 70
    11
 71
     3
 72
    17
 73
    13
 74
     0
 42
0.0000000001
 43
0.0000000001
 12
1.0
 22
0.0
 32
0.0
 13
1.0
 23
0.0
 33
0.0
 40
0.0
 40
0.0
 40
0.0
 40
0.0
 40
1.0
 40
1.0
 40
1.0
 40
2.0
 40
2.0
 40
2.0
 40
3.0
 40
3.0
 40
3.0
 40
4.0
 40
4.0
 40
4.0
 40
4.0
 10
328.7381548934576
 20
162.718461212527
 30
0.0
 10
328.7381548934576
 20
163.3260172340599
 30
0.0
 10
329.2306763622363
 20
163.818538702845
 30
0.0
 10
329.8382323837698
 20
163.8185387028456
 30
0.0
 10
330.4457884053014
 20
163.8185387028456
 30
0.0
 10
330.9383098740821
 20
163.3260172340599
 30
0.0
 10
330.9383098740827
 20
162.7184612125257
 30
0.0
 10
330.9383098740827
 20
162.1109051910005
 30
0.0
 10
330.4457884053014
 20
161.6183837222199
 30
0.0
 10
329.8382323837704
 20
161.6183837222199
 30
0.0
 10
329.2306763622369
 20
161.6183837222193
 30
0.0
 10
328.738154893457
 20
162.1109051910031
 30
0.0
 10
328.7381548934576
 20
162.718461212527
 30
0.0
  0
ENDBLK
  5
358
330
355
100
AcDbEntity
  8
0
100
AcDbBlockEnd
  0
BLOCK
  5
35C
330
35A
100
AcDbEntity
  8
0
100
AcDbBlockBegin
  2
block 118
 70
     0
 10
0.0
 20
0.0
 30
0.0
  3
block 118
  1

  0
INSERT
  5
35F
330
35A
100
AcDbEntity
  8
_U+5207_U+65AD_U+30D1_U+30B9
100
AcDbBlockReference
  2
block 119
 10
0.0
 20
0.0
 30
0.0
  0
INSERT
  5
36D
330
35A
100
AcDbEntity
  8
_U+5207_U+65AD_U+30D1_U+30B9
100
AcDbBlockReference
  2
block 122
 10
0.0
 20
0.0
 30
0.0
  0
INSERT
  5
37B
330
35A
100
AcDbEntity
  8
_U+5207_U+65AD_U+30D1_U+30B9
100
AcDbBlockReference
  2
block 125
 10
0.0
 20
0.0
 30
0.0
  0
INSERT
  5
389
330
35A
100
AcDbEntity
  8
_U+5207_U+65AD_U+30D1_U+30B9
100
AcDbBlockReference
  2
block 128
 10
0.0
 20
0.0
 30
0.0
  0
INSERT
  5
397
330
35A
100
AcDbEntity
  8
_U+5207_U+65AD_U+30D1_U+30B9
100
AcDbBlockReference
  2
block 131
 10
0.0
 20
0.0
 30
0.0
  0
INSERT
  5
3A5
330
35A
100
AcDbEntity
  8
_U+5207_U+65AD_U+30D1_U+30B9
100
AcDbBlockReference
  2
block 134
 10
0.0
 20
0.0
 30
0.0
  0
INSERT
  5
3B3
330
35A
100
AcDbEntity
  8
_U+5207_U+65AD_U+30D1_U+30B9
100
AcDbBlockReference
  2
block 137
 10
0.0
 20
0.0
 30
0.0
  0
INSERT
  5
3C1
330
35A
100
AcDbEntity
  8
_U+5207_U+65AD_U+30D1_U+30B9
100
AcDbBlockReference
  2
block 140
 10
0.0
 20
0.0
 30
0.0
  0
ENDBLK
  5
35D
330
35A
100
AcDbEntity
  8
0
100
AcDbBlockEnd
  0
BLOCK
  5
360
330
35E
100
AcDbEntity
  8
0
100
AcDbBlockBegin
  2
block 119
 70
     0
 10
0.0
 20
0.0
 30
0.0
  3
block 119
  1

  0
INSERT
  5
363
330
35E
100
AcDbEntity
  8
_U+5207_U+65AD_U+30D1_U+30B9
100
AcDbBlockReference
  2
block 120
 10
0.0
 20
0.0
 30
0.0
  0
INSERT
  5
368
330
35E
100
AcDbEntity
  8
_U+5207_U+65AD_U+30D1_U+30B9
100
AcDbBlockReference
  2
block 121
 10
0.0
 20
0.0
 30
0.0
  0
ENDBLK
  5
361
330
35E
100
AcDbEntity
  8
0
100
AcDbBlockEnd
  0
BLOCK
  5
364
330
362
100
AcDbEntity
  8
0
100
AcDbBlockBegin
  2
block 120
 70
     0
 10
0.0
 20
0.0
 30
0.0
  3
block 120
  1

  0
SPLINE
  5
366
330
362
100
AcDbEntity
  8
_U+5207_U+65AD_U+30D1_U+30B9
 62
     1
420
 16711680
370
     9
100
AcDbSpline
210
0.0
220
0.0
230
1.0
 70
    11
 71
     3
 72
    20
 73
    16
 74
     0
 42
0.0000000001
 43
0.0000000001
 12
1.0
 22
0.0
 32
0.0
 13
1.0
 23
0.0
 33
0.0
 40
0.0
 40
0.0
 40
0.0
 40
0.0
 40
1.0
 40
1.0
 40
1.0
 40
2.0
 40
2.0
 40
2.0
 40
3.0
 40
3.0
 40
3.0
 40
4.0
 40
4.0
 40
4.0
 40
5.0
 40
5.0
 40
5.0
 40
5.0
 10
232.1814619232035
 20
156.3561093943198
 30
0.0
 10
232.181461153336
 20
157.8043684965843
 30
0.0
 10
233.3655784969855
 20
158.9760626584491
 30
0.0
 10
234.8184811782325
 20
158.9558483050407
 30
0.0
 10
236.1992565658075
 20
158.9366374645474
 30
0.0
 10
237.3619871032251
 20
157.7739081633571
 30
0.0
 10
237.3811994117873
 20
156.3931327962094
 30
0.0
 10
237.4014153099533
 20
154.9402301364048
 30
0.0
 10
236.2297224069737
 20
153.7561115469626
 30
0.0
 10
234.7814633046642
 20
153.7561107770951
 30
0.0
 10
233.3455229554586
 20
153.7561100137762
 30
0.0
 10
232.1814626865225
 20
154.920169045136
 30
0.0
 10
232.1814619232035
 20
156.3561093943198
 30
0.0
 10
232.1814619232035
 20
156.3561093943198
 30
0.0
 10
232.1814619232035
 20
156.3561093943198
 30
0.0
 10
232.1814619232035
 20
156.3561093943198
 30
0.0
  0
ENDBLK
  5
365
330
362
100
AcDbEntity
  8
0
100
AcDbBlockEnd
  0
BLOCK
  5
369
330
367
100
AcDbEntity
  8
0
100
AcDbBlockBegin
  2
block 121
 70
     0
 10
0.0
 20
0.0
 30
0.0
  3
block 121
  1

  0
SPLINE
  5
36B
330
367
100
AcDbEntity
  8
_U+5207_U+65AD_U+30D1_U+30B9
 62
     1
420
 16711680
370
     9
100
AcDbSpline
210
0.0
220
0.0
230
1.0
 70
    11
 71
     3
 72
    38
 73
    34
 74
     0
 42
0.0000000001
 43
0.0000000001
 12
1.0
 22
0.0
 32
0.0
 13
1.0
 23
0.0
 33
0.0
 40
0.0
 40
0.0
 40
0.0
 40
0.0
 40
1.0
 40
1.0
 40
1.0
 40
2.0
 40
2.0
 40
2.0
 40
3.0
 40
3.0
 40
3.0
 40
4.0
 40
4.0
 40
4.0
 40
5.0
 40
5.0
 40
5.0
 40
6.0
 40
6.0
 40
6.0
 40
7.0
 40
7.0
 40
7.0
 40
8.0
 40
8.0
 40
8.0
 40
9.0
 40
9.0
 40
9.0
 40
10.0
 40
10.0
 40
10.0
 40
11.0
 40
11.0
 40
11.0
 40
11.0
 10
239.8895888225201
 20
152.0238087435299
 30
0.0
 10
240.288391102668
 20
152.0236787971514
 30
0.0
 10
240.5361557867283
 20
152.4735918891119
 30
0.0
 10
240.3062179480866
 20
152.7994321350888
 30
0.0
 10
240.1498562861933
 20
153.0210090737686
 30
0.0
 10
240.0119406918085
 20
153.279813508115
 30
0.0
 10
239.9164060153512
 20
153.5790456259614
 30
0.0
 10
239.8102405533077
 20
153.9115727017518
 30
0.0
 10
239.7803139777605
 20
154.2191551330442
 30
0.0
 10
239.7814632400819
 20
154.4713684203347
 30
0.0
 10
239.7814632400819
 20
154.4713684203347
 30
0.0
 10
239.7814673528966
 20
156.2247313884951
 30
0.0
 10
239.7814673528966
 20
156.2247313884951
 30
0.0
 10
239.7814733733061
 20
158.7913347122132
 30
0.0
 10
237.9012078195954
 20
161.043190125709
 30
0.0
 10
235.3500837561203
 20
161.3246481760745
 30
0.0
 10
232.3340337621215
 20
161.6574001434409
 30
0.0
 10
229.7814598349999
 20
159.3048460616937
 30
0.0
 10
229.7814626279924
 20
156.3561047988511
 30
0.0
 10
229.7814626279924
 20
156.3561047988511
 30
0.0
 10
229.7814626279924
 20
154.4737476894042
 30
0.0
 10
229.7814626279924
 20
154.4737476894042
 30
0.0
 10
229.7812876817373
 20
154.2174648830718
 30
0.0
 10
229.7480586591897
 20
153.432704429302
 30
0.0
 10
229.185517630142
 20
152.6788744734358
 30
0.0
 10
229.185517630142
 20
152.6788744734358
 30
0.0
 10
229.1855171422428
 20
152.678873822017
 30
0.0
 10
229.1855171422428
 20
152.678873822017
 30
0.0
 10
228.9843558048665
 20
152.4102931661547
 30
0.0
 10
229.1759309997181
 20
152.027299699081
 30
0.0
 10
229.5114923821052
 20
152.0271903592187
 30
0.0
 10
229.5114923821052
 20
152.0271903592187
 30
0.0
 10
239.8895888225201
 20
152.0238087435299
 30
0.0
 10
239.8895888225201
 20
152.0238087435299
 30
0.0
  0
ENDBLK
  5
36A
330
367
100
AcDbEntity
  8
0
100
AcDbBlockEnd
  0
BLOCK
  5
36E
330
36C
100
AcDbEntity
  8
0
100
AcDbBlockBegin
  2
block 122
 70
     0
 10
0.0
 20
0.0
 30
0.0
  3
block 122
  1

  0
INSERT
  5
371
330
36C
100
AcDbEntity
  8
_U+5207_U+65AD_U+30D1_U+30B9
100
AcDbBlockReference
  2
block 123
 10
0.0
 20
0.0
 30
0.0
  0
INSERT
  5
376
330
36C
100
AcDbEntity
  8
_U+5207_U+65AD_U+30D1_U+30B9
100
AcDbBlockReference
  2
block 124
 10
0.0
 20
0.0
 30
0.0
  0
ENDBLK
  5
36F
330
36C
100
AcDbEntity
  8
0
100
AcDbBlockEnd
  0
BLOCK
  5
372
330
370
100
AcDbEntity
  8
0
100
AcDbBlockBegin
  2
block 123
 70
     0
 10
0.0
 20
0.0
 30
0.0
  3
block 123
  1

  0
SPLINE
  5
374
330
370
100
AcDbEntity
  8
_U+5207_U+65AD_U+30D1_U+30B9
 62
     1
420
 16711680
370
     9
100
AcDbSpline
210
0.0
220
0.0
230
1.0
 70
    11
 71
     3
 72
    20
 73
    16
 74
     0
 42
0.0000000001
 43
0.0000000001
 12
1.0
 22
0.0
 32
0.0
 13
1.0
 23
0.0
 33
0.0
 40
0.0
 40
0.0
 40
0.0
 40
0.0
 40
1.0
 40
1.0
 40
1.0
 40
2.0
 40
2.0
 40
2.0
 40
3.0
 40
3.0
 40
3.0
 40
4.0
 40
4.0
 40
4.0
 40
5.0
 40
5.0
 40
5.0
 40
5.0
 10
246.7052973540739
 20
156.0222689836484
 30
0.0
 10
246.7052965842064
 20
157.4705280859129
 30
0.0
 10
247.889413927856
 20
158.6422222477777
 30
0.0
 10
249.3423166091029
 20
158.6220078943693
 30
0.0
 10
250.7230919966779
 20
158.602797053876
 30
0.0
 10
251.8858225340949
 20
157.4400677526857
 30
0.0
 10
251.9050348426577
 20
156.059292385538
 30
0.0
 10
251.9252507408237
 20
154.6063897257334
 30
0.0
 10
250.7535578378441
 20
153.4222711362912
 30
0.0
 10
249.3052987355346
 20
153.4222703664237
 30
0.0
 10
247.869358386329
 20
153.4222696031048
 30
0.0
 10
246.7052981173929
 20
154.5863286344646
 30
0.0
 10
246.7052973540739
 20
156.0222689836484
 30
0.0
 10
246.7052973540739
 20
156.0222689836484
 30
0.0
 10
246.7052973540739
 20
156.0222689836484
 30
0.0
 10
246.7052973540739
 20
156.0222689836484
 30
0.0
  0
ENDBLK
  5
373
330
370
100
AcDbEntity
  8
0
100
AcDbBlockEnd
  0
BLOCK
  5
377
330
375
100
AcDbEntity
  8
0
100
AcDbBlockBegin
  2
block 124
 70
     0
 10
0.0
 20
0.0
 30
0.0
  3
block 124
  1

  0
SPLINE
  5
379
330
375
100
AcDbEntity
  8
_U+5207_U+65AD_U+30D1_U+30B9
 62
     1
420
 16711680
370
     9
100
AcDbSpline
210
0.0
220
0.0
230
1.0
 70
    11
 71
     3
 72
    38
 73
    34
 74
     0
 42
0.0000000001
 43
0.0000000001
 12
1.0
 22
0.0
 32
0.0
 13
1.0
 23
0.0
 33
0.0
 40
0.0
 40
0.0
 40
0.0
 40
0.0
 40
1.0
 40
1.0
 40
1.0
 40
2.0
 40
2.0
 40
2.0
 40
3.0
 40
3.0
 40
3.0
 40
4.0
 40
4.0
 40
4.0
 40
5.0
 40
5.0
 40
5.0
 40
6.0
 40
6.0
 40
6.0
 40
7.0
 40
7.0
 40
7.0
 40
8.0
 40
8.0
 40
8.0
 40
9.0
 40
9.0
 40
9.0
 40
10.0
 40
10.0
 40
10.0
 40
11.0
 40
11.0
 40
11.0
 40
11.0
 10
254.4134242533905
 20
151.6899683328585
 30
0.0
 10
254.8122265335384
 20
151.68983838648
 30
0.0
 10
255.0599912175987
 20
152.1397514784405
 30
0.0
 10
254.830053378957
 20
152.4655917244174
 30
0.0
 10
254.6736917170637
 20
152.6871686630972
 30
0.0
 10
254.5357761226789
 20
152.9459730974436
 30
0.0
 10
254.4402414462216
 20
153.24520521529
 30
0.0
 10
254.3340759841782
 20
153.5777322910804
 30
0.0
 10
254.3041494086309
 20
153.8853147223728
 30
0.0
 10
254.3052986709529
 20
154.1375280096633
 30
0.0
 10
254.3052986709529
 20
154.1375280096633
 30
0.0
 10
254.305302783767
 20
155.8908909778237
 30
0.0
 10
254.305302783767
 20
155.8908909778237
 30
0.0
 10
254.3053088041765
 20
158.4574943015418
 30
0.0
 10
252.4250432504658
 20
160.7093497150376
 30
0.0
 10
249.8739191869907
 20
160.9908077654031
 30
0.0
 10
246.8578691929919
 20
161.3235597327695
 30
0.0
 10
244.3052952658697
 20
158.9710056510223
 30
0.0
 10
244.3052980588628
 20
156.0222643881797
 30
0.0
 10
244.3052980588628
 20
156.0222643881797
 30
0.0
 10
244.3052980588628
 20
154.1399072787328
 30
0.0
 10
244.3052980588628
 20
154.1399072787328
 30
0.0
 10
244.3051231126077
 20
153.8836244724004
 30
0.0
 10
244.2718940900601
 20
153.0988640186306
 30
0.0
 10
243.7093530610124
 20
152.3450340627644
 30
0.0
 10
243.7093530610124
 20
152.3450340627644
 30
0.0
 10
243.7093525731132
 20
152.3450334113456
 30
0.0
 10
243.7093525731132
 20
152.3450334113456
 30
0.0
 10
243.5081912357369
 20
152.0764527554833
 30
0.0
 10
243.6997664305886
 20
151.6934592884096
 30
0.0
 10
244.035327812975
 20
151.6933499485473
 30
0.0
 10
244.035327812975
 20
151.6933499485473
 30
0.0
 10
254.4134242533905
 20
151.6899683328585
 30
0.0
 10
254.4134242533905
 20
151.6899683328585
 30
0.0
  0
ENDBLK
  5
378
330
375
100
AcDbEntity
  8
0
100
AcDbBlockEnd
  0
BLOCK
  5
37C
330
37A
100
AcDbEntity
  8
0
100
AcDbBlockBegin
  2
block 125
 70
     0
 10
0.0
 20
0.0
 30
0.0
  3
block 125
  1

  0
INSERT
  5
37F
330
37A
100
AcDbEntity
  8
_U+5207_U+65AD_U+30D1_U+30B9
100
AcDbBlockReference
  2
block 126
 10
0.0
 20
0.0
 30
0.0
  0
INSERT
  5
384
330
37A
100
AcDbEntity
  8
_U+5207_U+65AD_U+30D1_U+30B9
100
AcDbBlockReference
  2
block 127
 10
0.0
 20
0.0
 30
0.0
  0
ENDBLK
  5
37D
330
37A
100
AcDbEntity
  8
0
100
AcDbBlockEnd
  0
BLOCK
  5
380
330
37E
100
AcDbEntity
  8
0
100
AcDbBlockBegin
  2
block 126
 70
     0
 10
0.0
 20
0.0
 30
0.0
  3
block 126
  1

  0
SPLINE
  5
382
330
37E
100
AcDbEntity
  8
_U+5207_U+65AD_U+30D1_U+30B9
 62
     1
420
 16711680
370
     9
100
AcDbSpline
210
0.0
220
0.0
230
1.0
 70
    11
 71
     3
 72
    20
 73
    16
 74
     0
 42
0.0000000001
 43
0.0000000001
 12
1.0
 22
0.0
 32
0.0
 13
1.0
 23
0.0
 33
0.0
 40
0.0
 40
0.0
 40
0.0
 40
0.0
 40
1.0
 40
1.0
 40
1.0
 40
2.0
 40
2.0
 40
2.0
 40
3.0
 40
3.0
 40
3.0
 40
4.0
 40
4.0
 40
4.0
 40
5.0
 40
5.0
 40
5.0
 40
5.0
 10
261.3677407573754
 20
155.8553487783117
 30
0.0
 10
261.3677399875085
 20
157.3036078805763
 30
0.0
 10
262.5518573311574
 20
158.475302042441
 30
0.0
 10
264.0047600124044
 20
158.4550876890326
 30
0.0
 10
265.3855353999793
 20
158.4358768485393
 30
0.0
 10
266.548265937397
 20
157.2731475473491
 30
0.0
 10
266.5674782459591
 20
155.8923721802013
 30
0.0
 10
266.5876941441251
 20
154.4394695203967
 30
0.0
 10
265.4160012411456
 20
153.2553509309546
 30
0.0
 10
263.9677421388361
 20
153.2553501610871
 30
0.0
 10
262.5318017896304
 20
153.2553493977681
 30
0.0
 10
261.3677415206944
 20
154.4194084291279
 30
0.0
 10
261.3677407573754
 20
155.8553487783117
 30
0.0
 10
261.3677407573754
 20
155.8553487783117
 30
0.0
 10
261.3677407573754
 20
155.8553487783117
 30
0.0
 10
261.3677407573754
 20
155.8553487783117
 30
0.0
  0
ENDBLK
  5
381
330
37E
100
AcDbEntity
  8
0
100
AcDbBlockEnd
  0
BLOCK
  5
385
330
383
100
AcDbEntity
  8
0
100
AcDbBlockBegin
  2
block 127
 70
     0
 10
0.0
 20
0.0
 30
0.0
  3
block 127
  1

  0
SPLINE
  5
387
330
383
100
AcDbEntity
  8
_U+5207_U+65AD_U+30D1_U+30B9
 62
     1
420
 16711680
370
     9
100
AcDbSpline
210
0.0
220
0.0
230
1.0
 70
    11
 71
     3
 72
    38
 73
    34
 74
     0
 42
0.0000000001
 43
0.0000000001
 12
1.0
 22
0.0
 32
0.0
 13
1.0
 23
0.0
 33
0.0
 40
0.0
 40
0.0
 40
0.0
 40
0.0
 40
1.0
 40
1.0
 40
1.0
 40
2.0
 40
2.0
 40
2.0
 40
3.0
 40
3.0
 40
3.0
 40
4.0
 40
4.0
 40
4.0
 40
5.0
 40
5.0
 40
5.0
 40
6.0
 40
6.0
 40
6.0
 40
7.0
 40
7.0
 40
7.0
 40
8.0
 40
8.0
 40
8.0
 40
9.0
 40
9.0
 40
9.0
 40
10.0
 40
10.0
 40
10.0
 40
11.0
 40
11.0
 40
11.0
 40
11.0
 10
269.075867656692
 20
151.5230481275218
 30
0.0
 10
269.4746699368405
 20
151.5229181811434
 30
0.0
 10
269.7224346209002
 20
151.9728312731039
 30
0.0
 10
269.4924967822584
 20
152.2986715190807
 30
0.0
 10
269.3361351203651
 20
152.5202484577605
 30
0.0
 10
269.1982195259804
 20
152.779052892107
 30
0.0
 10
269.1026848495238
 20
153.0782850099534
 30
0.0
 10
268.9965193874796
 20
153.4108120857437
 30
0.0
 10
268.966592811933
 20
153.7183945170362
 30
0.0
 10
268.967742074255
 20
153.9706078043266
 30
0.0
 10
268.967742074255
 20
153.9706078043266
 30
0.0
 10
268.9677461870684
 20
155.7239707724871
 30
0.0
 10
268.9677461870684
 20
155.7239707724871
 30
0.0
 10
268.9677522074786
 20
158.2905740962052
 30
0.0
 10
267.0874866537673
 20
160.542429509701
 30
0.0
 10
264.5363625902922
 20
160.8238875600665
 30
0.0
 10
261.5203125962934
 20
161.1566395274328
 30
0.0
 10
258.9677386691711
 20
158.8040854456856
 30
0.0
 10
258.9677414621649
 20
155.8553441828431
 30
0.0
 10
258.9677414621649
 20
155.8553441828431
 30
0.0
 10
258.9677414621649
 20
153.9729870733961
 30
0.0
 10
258.9677414621649
 20
153.9729870733961
 30
0.0
 10
258.9675665159098
 20
153.7167042670637
 30
0.0
 10
258.9343374933609
 20
152.931943813294
 30
0.0
 10
258.3717964643145
 20
152.1781138574277
 30
0.0
 10
258.3717964643145
 20
152.1781138574277
 30
0.0
 10
258.3717959764153
 20
152.1781132060089
 30
0.0
 10
258.3717959764153
 20
152.1781132060089
 30
0.0
 10
258.170634639039
 20
151.9095325501466
 30
0.0
 10
258.36220983389
 20
151.5265390830729
 30
0.0
 10
258.6977712162765
 20
151.5264297432107
 30
0.0
 10
258.6977712162765
 20
151.5264297432107
 30
0.0
 10
269.075867656692
 20
151.5230481275218
 30
0.0
 10
269.075867656692
 20
151.5230481275218
 30
0.0
  0
ENDBLK
  5
386
330
383
100
AcDbEntity
  8
0
100
AcDbBlockEnd
  0
BLOCK
  5
38A
330
388
100
AcDbEntity
  8
0
100
AcDbBlockBegin
  2
block 128
 70
     0
 10
0.0
 20
0.0
 30
0.0
  3
block 128
  1

  0
INSERT
  5
38D
330
388
100
AcDbEntity
  8
_U+5207_U+65AD_U+30D1_U+30B9
100
AcDbBlockReference
  2
block 129
 10
0.0
 20
0.0
 30
0.0
  0
INSERT
  5
392
330
388
100
AcDbEntity
  8
_U+5207_U+65AD_U+30D1_U+30B9
100
AcDbBlockReference
  2
block 130
 10
0.0
 20
0.0
 30
0.0
  0
ENDBLK
  5
38B
330
388
100
AcDbEntity
  8
0
100
AcDbBlockEnd
  0
BLOCK
  5
38E
330
38C
100
AcDbEntity
  8
0
100
AcDbBlockBegin
  2
block 129
 70
     0
 10
0.0
 20
0.0
 30
0.0
  3
block 129
  1

  0
SPLINE
  5
390
330
38C
100
AcDbEntity
  8
_U+5207_U+65AD_U+30D1_U+30B9
 62
     1
420
 16711680
370
     9
100
AcDbSpline
210
0.0
220
0.0
230
1.0
 70
    11
 71
     3
 72
    20
 73
    16
 74
     0
 42
0.0000000001
 43
0.0000000001
 12
1.0
 22
0.0
 32
0.0
 13
1.0
 23
0.0
 33
0.0
 40
0.0
 40
0.0
 40
0.0
 40
0.0
 40
1.0
 40
1.0
 40
1.0
 40
2.0
 40
2.0
 40
2.0
 40
3.0
 40
3.0
 40
3.0
 40
4.0
 40
4.0
 40
4.0
 40
5.0
 40
5.0
 40
5.0
 40
5.0
 10
275.8915761882458
 20
155.5215083676403
 30
0.0
 10
275.8915754183789
 20
156.9697674699049
 30
0.0
 10
277.0756927620285
 20
158.1414616317696
 30
0.0
 10
278.5285954432748
 20
158.1212472783613
 30
0.0
 10
279.9093708308498
 20
158.1020364378679
 30
0.0
 10
281.0721013682668
 20
156.9393071366777
 30
0.0
 10
281.0913136768295
 20
155.5585317695299
 30
0.0
 10
281.1115295749955
 20
154.1056291097253
 30
0.0
 10
279.939836672016
 20
152.9215105202832
 30
0.0
 10
278.4915775697065
 20
152.9215097504157
 30
0.0
 10
277.0556372205009
 20
152.9215089870967
 30
0.0
 10
275.8915769515648
 20
154.0855680184565
 30
0.0
 10
275.8915761882458
 20
155.5215083676403
 30
0.0
 10
275.8915761882458
 20
155.5215083676403
 30
0.0
 10
275.8915761882458
 20
155.5215083676403
 30
0.0
 10
275.8915761882458
 20
155.5215083676403
 30
0.0
  0
ENDBLK
  5
38F
330
38C
100
AcDbEntity
  8
0
100
AcDbBlockEnd
  0
BLOCK
  5
393
330
391
100
AcDbEntity
  8
0
100
AcDbBlockBegin
  2
block 130
 70
     0
 10
0.0
 20
0.0
 30
0.0
  3
block 130
  1

  0
SPLINE
  5
395
330
391
100
AcDbEntity
  8
_U+5207_U+65AD_U+30D1_U+30B9
 62
     1
420
 16711680
370
     9
100
AcDbSpline
210
0.0
220
0.0
230
1.0
 70
    11
 71
     3
 72
    38
 73
    34
 74
     0
 42
0.0000000001
 43
0.0000000001
 12
1.0
 22
0.0
 32
0.0
 13
1.0
 23
0.0
 33
0.0
 40
0.0
 40
0.0
 40
0.0
 40
0.0
 40
1.0
 40
1.0
 40
1.0
 40
2.0
 40
2.0
 40
2.0
 40
3.0
 40
3.0
 40
3.0
 40
4.0
 40
4.0
 40
4.0
 40
5.0
 40
5.0
 40
5.0
 40
6.0
 40
6.0
 40
6.0
 40
7.0
 40
7.0
 40
7.0
 40
8.0
 40
8.0
 40
8.0
 40
9.0
 40
9.0
 40
9.0
 40
10.0
 40
10.0
 40
10.0
 40
11.0
 40
11.0
 40
11.0
 40
11.0
 10
283.5997030875624
 20
151.1892077168504
 30
0.0
 10
283.9985053677109
 20
151.189077770472
 30
0.0
 10
284.2462700517712
 20
151.6389908624325
 30
0.0
 10
284.0163322131295
 20
151.9648311084094
 30
0.0
 10
283.8599705512356
 20
152.1864080470891
 30
0.0
 10
283.7220549568508
 20
152.4452124814356
 30
0.0
 10
283.6265202803942
 20
152.744444599282
 30
0.0
 10
283.5203548183507
 20
153.0769716750723
 30
0.0
 10
283.4904282428034
 20
153.3845541063648
 30
0.0
 10
283.4915775051255
 20
153.6367673936552
 30
0.0
 10
283.4915775051255
 20
153.6367673936552
 30
0.0
 10
283.4915816179389
 20
155.3901303618157
 30
0.0
 10
283.4915816179389
 20
155.3901303618157
 30
0.0
 10
283.491587638349
 20
157.9567336855338
 30
0.0
 10
281.6113220846377
 20
160.2085890990296
 30
0.0
 10
279.0601980211633
 20
160.4900471493951
 30
0.0
 10
276.0441480271638
 20
160.8227991167614
 30
0.0
 10
273.4915741000415
 20
158.4702450350142
 30
0.0
 10
273.4915768930353
 20
155.5215037721717
 30
0.0
 10
273.4915768930353
 20
155.5215037721717
 30
0.0
 10
273.4915768930353
 20
153.6391466627248
 30
0.0
 10
273.4915768930353
 20
153.6391466627248
 30
0.0
 10
273.4914019467802
 20
153.3828638563923
 30
0.0
 10
273.4581729242327
 20
152.5981034026226
 30
0.0
 10
272.8956318951849
 20
151.8442734467564
 30
0.0
 10
272.8956318951849
 20
151.8442734467564
 30
0.0
 10
272.8956314072857
 20
151.8442727953375
 30
0.0
 10
272.8956314072857
 20
151.8442727953375
 30
0.0
 10
272.6944700699095
 20
151.5756921394752
 30
0.0
 10
272.8860452647611
 20
151.1926986724016
 30
0.0
 10
273.2216066471469
 20
151.1925893325393
 30
0.0
 10
273.2216066471469
 20
151.1925893325393
 30
0.0
 10
283.5997030875624
 20
151.1892077168504
 30
0.0
 10
283.5997030875624
 20
151.1892077168504
 30
0.0
  0
ENDBLK
  5
394
330
391
100
AcDbEntity
  8
0
100
AcDbBlockEnd
  0
BLOCK
  5
398
330
396
100
AcDbEntity
  8
0
100
AcDbBlockBegin
  2
block 131
 70
     0
 10
0.0
 20
0.0
 30
0.0
  3
block 131
  1

  0
INSERT
  5
39B
330
396
100
AcDbEntity
  8
_U+5207_U+65AD_U+30D1_U+30B9
100
AcDbBlockReference
  2
block 132
 10
0.0
 20
0.0
 30
0.0
  0
INSERT
  5
3A0
330
396
100
AcDbEntity
  8
_U+5207_U+65AD_U+30D1_U+30B9
100
AcDbBlockReference
  2
block 133
 10
0.0
 20
0.0
 30
0.0
  0
ENDBLK
  5
399
330
396
100
AcDbEntity
  8
0
100
AcDbBlockEnd
  0
BLOCK
  5
39C
330
39A
100
AcDbEntity
  8
0
100
AcDbBlockBegin
  2
block 132
 70
     0
 10
0.0
 20
0.0
 30
0.0
  3
block 132
  1

  0
SPLINE
  5
39E
330
39A
100
AcDbEntity
  8
_U+5207_U+65AD_U+30D1_U+30B9
 62
     1
420
 16711680
370
     9
100
AcDbSpline
210
0.0
220
0.0
230
1.0
 70
    11
 71
     3
 72
    20
 73
    16
 74
     0
 42
0.0000000001
 43
0.0000000001
 12
1.0
 22
0.0
 32
0.0
 13
1.0
 23
0.0
 33
0.0
 40
0.0
 40
0.0
 40
0.0
 40
0.0
 40
1.0
 40
1.0
 40
1.0
 40
2.0
 40
2.0
 40
2.0
 40
3.0
 40
3.0
 40
3.0
 40
4.0
 40
4.0
 40
4.0
 40
5.0
 40
5.0
 40
5.0
 40
5.0
 10
231.9328255075816
 20
142.4576553923588
 30
0.0
 10
231.9328247377134
 20
143.9059144946233
 30
0.0
 10
233.1169420813629
 20
145.0776086564877
 30
0.0
 10
234.5698447626105
 20
145.0573943030793
 30
0.0
 10
235.9506201501855
 20
145.038183462586
 30
0.0
 10
237.1133506876025
 20
143.8754541613961
 30
0.0
 10
237.1325629961653
 20
142.4946787942477
 30
0.0
 10
237.1527788943313
 20
141.0417761344431
 30
0.0
 10
235.9810859913517
 20
139.8576575450016
 30
0.0
 10
234.5328268890422
 20
139.8576567751334
 30
0.0
 10
233.0968865398366
 20
139.8576560118145
 30
0.0
 10
231.9328262709005
 20
141.0217150431749
 30
0.0
 10
231.9328255075816
 20
142.4576553923588
 30
0.0
 10
231.9328255075816
 20
142.4576553923588
 30
0.0
 10
231.9328255075816
 20
142.4576553923588
 30
0.0
 10
231.9328255075816
 20
142.4576553923588
 30
0.0
  0
ENDBLK
  5
39D
330
39A
100
AcDbEntity
  8
0
100
AcDbBlockEnd
  0
BLOCK
  5
3A1
330
39F
100
AcDbEntity
  8
0
100
AcDbBlockBegin
  2
block 133
 70
     0
 10
0.0
 20
0.0
 30
0.0
  3
block 133
  1

  0
SPLINE
  5
3A3
330
39F
100
AcDbEntity
  8
_U+5207_U+65AD_U+30D1_U+30B9
 62
     1
420
 16711680
370
     9
100
AcDbSpline
210
0.0
220
0.0
230
1.0
 70
    11
 71
     3
 72
    38
 73
    34
 74
     0
 42
0.0000000001
 43
0.0000000001
 12
1.0
 22
0.0
 32
0.0
 13
1.0
 23
0.0
 33
0.0
 40
0.0
 40
0.0
 40
0.0
 40
0.0
 40
1.0
 40
1.0
 40
1.0
 40
2.0
 40
2.0
 40
2.0
 40
3.0
 40
3.0
 40
3.0
 40
4.0
 40
4.0
 40
4.0
 40
5.0
 40
5.0
 40
5.0
 40
6.0
 40
6.0
 40
6.0
 40
7.0
 40
7.0
 40
7.0
 40
8.0
 40
8.0
 40
8.0
 40
9.0
 40
9.0
 40
9.0
 40
10.0
 40
10.0
 40
10.0
 40
11.0
 40
11.0
 40
11.0
 40
11.0
 10
239.6409524068968
 20
138.1253547415688
 30
0.0
 10
240.0397546870454
 20
138.1252247951904
 30
0.0
 10
240.2875193711063
 20
138.5751378871509
 30
0.0
 10
240.0575815324646
 20
138.9009781331278
 30
0.0
 10
239.9012198705713
 20
139.1225550718075
 30
0.0
 10
239.7633042761865
 20
139.3813595061546
 30
0.0
 10
239.6677695997286
 20
139.6805916240004
 30
0.0
 10
239.5616041376851
 20
140.0131186997907
 30
0.0
 10
239.5316775621379
 20
140.3207011310832
 30
0.0
 10
239.5328268244599
 20
140.5729144183737
 30
0.0
 10
239.5328268244599
 20
140.5729144183737
 30
0.0
 10
239.5328309372746
 20
142.3262773865341
 30
0.0
 10
239.5328309372746
 20
142.3262773865341
 30
0.0
 10
239.5328369576834
 20
144.8928807102519
 30
0.0
 10
237.6525714039735
 20
147.1447361237477
 30
0.0
 10
235.1014473404984
 20
147.4261941741132
 30
0.0
 10
232.0853973464995
 20
147.7589461414795
 30
0.0
 10
229.5328234193766
 20
145.4063920597324
 30
0.0
 10
229.5328262123704
 20
142.4576507968901
 30
0.0
 10
229.5328262123704
 20
142.4576507968901
 30
0.0
 10
229.5328262123704
 20
140.5752936874432
 30
0.0
 10
229.5328262123704
 20
140.5752936874432
 30
0.0
 10
229.5326512661153
 20
140.3190108811108
 30
0.0
 10
229.4994222435671
 20
139.5342504273416
 30
0.0
 10
228.93688121452
 20
138.7804204714754
 30
0.0
 10
228.93688121452
 20
138.7804204714754
 30
0.0
 10
228.9368807266208
 20
138.7804198200559
 30
0.0
 10
228.9368807266208
 20
138.7804198200559
 30
0.0
 10
228.7357193892445
 20
138.5118391641943
 30
0.0
 10
228.9272945840955
 20
138.1288456971206
 30
0.0
 10
229.2628559664819
 20
138.1287363572577
 30
0.0
 10
229.2628559664819
 20
138.1287363572577
 30
0.0
 10
239.6409524068968
 20
138.1253547415688
 30
0.0
 10
239.6409524068968
 20
138.1253547415688
 30
0.0
  0
ENDBLK
  5
3A2
330
39F
100
AcDbEntity
  8
0
100
AcDbBlockEnd
  0
BLOCK
  5
3A6
330
3A4
100
AcDbEntity
  8
0
100
AcDbBlockBegin
  2
block 134
 70
     0
 10
0.0
 20
0.0
 30
0.0
  3
block 134
  1

  0
INSERT
  5
3A9
330
3A4
100
AcDbEntity
  8
_U+5207_U+65AD_U+30D1_U+30B9
100
AcDbBlockReference
  2
block 135
 10
0.0
 20
0.0
 30
0.0
  0
INSERT
  5
3AE
330
3A4
100
AcDbEntity
  8
_U+5207_U+65AD_U+30D1_U+30B9
100
AcDbBlockReference
  2
block 136
 10
0.0
 20
0.0
 30
0.0
  0
ENDBLK
  5
3A7
330
3A4
100
AcDbEntity
  8
0
100
AcDbBlockEnd
  0
BLOCK
  5
3AA
330
3A8
100
AcDbEntity
  8
0
100
AcDbBlockBegin
  2
block 135
 70
     0
 10
0.0
 20
0.0
 30
0.0
  3
block 135
  1

  0
SPLINE
  5
3AC
330
3A8
100
AcDbEntity
  8
_U+5207_U+65AD_U+30D1_U+30B9
 62
     1
420
 16711680
370
     9
100
AcDbSpline
210
0.0
220
0.0
230
1.0
 70
    11
 71
     3
 72
    20
 73
    16
 74
     0
 42
0.0000000001
 43
0.0000000001
 12
1.0
 22
0.0
 32
0.0
 13
1.0
 23
0.0
 33
0.0
 40
0.0
 40
0.0
 40
0.0
 40
0.0
 40
1.0
 40
1.0
 40
1.0
 40
2.0
 40
2.0
 40
2.0
 40
3.0
 40
3.0
 40
3.0
 40
4.0
 40
4.0
 40
4.0
 40
5.0
 40
5.0
 40
5.0
 40
5.0
 10
246.456660938452
 20
142.1238149816867
 30
0.0
 10
246.4566601685838
 20
143.5720740839513
 30
0.0
 10
247.6407775122333
 20
144.7437682458163
 30
0.0
 10
249.0936801934809
 20
144.723553892408
 30
0.0
 10
250.4744555810559
 20
144.7043430519146
 30
0.0
 10
251.637186118473
 20
143.5416137507241
 30
0.0
 10
251.6563984270357
 20
142.1608383835769
 30
0.0
 10
251.6766143252011
 20
140.7079357237724
 30
0.0
 10
250.5049214222222
 20
139.5238171343302
 30
0.0
 10
249.0566623199126
 20
139.5238163644634
 30
0.0
 10
247.620721970707
 20
139.5238156011444
 30
0.0
 10
246.4566617017709
 20
140.6878746325029
 30
0.0
 10
246.456660938452
 20
142.1238149816867
 30
0.0
 10
246.456660938452
 20
142.1238149816867
 30
0.0
 10
246.456660938452
 20
142.1238149816867
 30
0.0
 10
246.456660938452
 20
142.1238149816867
 30
0.0
  0
ENDBLK
  5
3AB
330
3A8
100
AcDbEntity
  8
0
100
AcDbBlockEnd
  0
BLOCK
  5
3AF
330
3AD
100
AcDbEntity
  8
0
100
AcDbBlockBegin
  2
block 136
 70
     0
 10
0.0
 20
0.0
 30
0.0
  3
block 136
  1

  0
SPLINE
  5
3B1
330
3AD
100
AcDbEntity
  8
_U+5207_U+65AD_U+30D1_U+30B9
 62
     1
420
 16711680
370
     9
100
AcDbSpline
210
0.0
220
0.0
230
1.0
 70
    11
 71
     3
 72
    38
 73
    34
 74
     0
 42
0.0000000001
 43
0.0000000001
 12
1.0
 22
0.0
 32
0.0
 13
1.0
 23
0.0
 33
0.0
 40
0.0
 40
0.0
 40
0.0
 40
0.0
 40
1.0
 40
1.0
 40
1.0
 40
2.0
 40
2.0
 40
2.0
 40
3.0
 40
3.0
 40
3.0
 40
4.0
 40
4.0
 40
4.0
 40
5.0
 40
5.0
 40
5.0
 40
6.0
 40
6.0
 40
6.0
 40
7.0
 40
7.0
 40
7.0
 40
8.0
 40
8.0
 40
8.0
 40
9.0
 40
9.0
 40
9.0
 40
10.0
 40
10.0
 40
10.0
 40
11.0
 40
11.0
 40
11.0
 40
11.0
 10
254.1647878377686
 20
137.7915143308981
 30
0.0
 10
254.5635901179158
 20
137.7913843845197
 30
0.0
 10
254.8113548019767
 20
138.2412974764802
 30
0.0
 10
254.581416963335
 20
138.567137722457
 30
0.0
 10
254.4250553014417
 20
138.7887146611368
 30
0.0
 10
254.2871397070569
 20
139.0475190954826
 30
0.0
 10
254.191605030599
 20
139.346751213329
 30
0.0
 10
254.0854395685555
 20
139.6792782891187
 30
0.0
 10
254.0555129930083
 20
139.9868607204112
 30
0.0
 10
254.0566622553303
 20
140.2390740077016
 30
0.0
 10
254.0566622553303
 20
140.2390740077016
 30
0.0
 10
254.0566663681444
 20
141.9924369758621
 30
0.0
 10
254.0566663681444
 20
141.9924369758621
 30
0.0
 10
254.0566723885539
 20
144.5590402995805
 30
0.0
 10
252.1764068348439
 20
146.8108957130763
 30
0.0
 10
249.6252827713688
 20
147.0923537634418
 30
0.0
 10
246.60923277737
 20
147.4251057308081
 30
0.0
 10
244.0566588502477
 20
145.072551649061
 30
0.0
 10
244.0566616432402
 20
142.1238103862181
 30
0.0
 10
244.0566616432402
 20
142.1238103862181
 30
0.0
 10
244.0566616432402
 20
140.2414532767711
 30
0.0
 10
244.0566616432402
 20
140.2414532767711
 30
0.0
 10
244.0564866969851
 20
139.9851704704387
 30
0.0
 10
244.0232576744375
 20
139.2004100166696
 30
0.0
 10
243.4607166453898
 20
138.4465800608034
 30
0.0
 10
243.4607166453898
 20
138.4465800608034
 30
0.0
 10
243.4607161574906
 20
138.4465794093852
 30
0.0
 10
243.4607161574906
 20
138.4465794093852
 30
0.0
 10
243.2595548201143
 20
138.1779987535223
 30
0.0
 10
243.4511300149666
 20
137.7950052864486
 30
0.0
 10
243.7866913973524
 20
137.7948959465869
 30
0.0
 10
243.7866913973524
 20
137.7948959465869
 30
0.0
 10
254.1647878377686
 20
137.7915143308981
 30
0.0
 10
254.1647878377686
 20
137.7915143308981
 30
0.0
  0
ENDBLK
  5
3B0
330
3AD
100
AcDbEntity
  8
0
100
AcDbBlockEnd
  0
BLOCK
  5
3B4
330
3B2
100
AcDbEntity
  8
0
100
AcDbBlockBegin
  2
block 137
 70
     0
 10
0.0
 20
0.0
 30
0.0
  3
block 137
  1

  0
INSERT
  5
3B7
330
3B2
100
AcDbEntity
  8
_U+5207_U+65AD_U+30D1_U+30B9
100
AcDbBlockReference
  2
block 138
 10
0.0
 20
0.0
 30
0.0
  0
INSERT
  5
3BC
330
3B2
100
AcDbEntity
  8
_U+5207_U+65AD_U+30D1_U+30B9
100
AcDbBlockReference
  2
block 139
 10
0.0
 20
0.0
 30
0.0
  0
ENDBLK
  5
3B5
330
3B2
100
AcDbEntity
  8
0
100
AcDbBlockEnd
  0
BLOCK
  5
3B8
330
3B6
100
AcDbEntity
  8
0
100
AcDbBlockBegin
  2
block 138
 70
     0
 10
0.0
 20
0.0
 30
0.0
  3
block 138
  1

  0
SPLINE
  5
3BA
330
3B6
100
AcDbEntity
  8
_U+5207_U+65AD_U+30D1_U+30B9
 62
     1
420
 16711680
370
     9
100
AcDbSpline
210
0.0
220
0.0
230
1.0
 70
    11
 71
     3
 72
    20
 73
    16
 74
     0
 42
0.0000000001
 43
0.0000000001
 12
1.0
 22
0.0
 32
0.0
 13
1.0
 23
0.0
 33
0.0
 40
0.0
 40
0.0
 40
0.0
 40
0.0
 40
1.0
 40
1.0
 40
1.0
 40
2.0
 40
2.0
 40
2.0
 40
3.0
 40
3.0
 40
3.0
 40
4.0
 40
4.0
 40
4.0
 40
5.0
 40
5.0
 40
5.0
 40
5.0
 10
261.1191043417534
 20
141.9568947763507
 30
0.0
 10
261.1191035718866
 20
143.4051538786153
 30
0.0
 10
262.3032209155361
 20
144.5768480404797
 30
0.0
 10
263.7561235967824
 20
144.5566336870713
 30
0.0
 10
265.1368989843574
 20
144.537422846578
 30
0.0
 10
266.2996295217744
 20
143.3746935453881
 30
0.0
 10
266.3188418303372
 20
141.9939181782396
 30
0.0
 10
266.3390577285032
 20
140.541015518435
 30
0.0
 10
265.1673648255236
 20
139.3568969289942
 30
0.0
 10
263.7191057232141
 20
139.3568961591261
 30
0.0
 10
262.2831653740085
 20
139.3568953958071
 30
0.0
 10
261.1191051050724
 20
140.5209544271669
 30
0.0
 10
261.1191043417534
 20
141.9568947763507
 30
0.0
 10
261.1191043417534
 20
141.9568947763507
 30
0.0
 10
261.1191043417534
 20
141.9568947763507
 30
0.0
 10
261.1191043417534
 20
141.9568947763507
 30
0.0
  0
ENDBLK
  5
3B9
330
3B6
100
AcDbEntity
  8
0
100
AcDbBlockEnd
  0
BLOCK
  5
3BD
330
3BB
100
AcDbEntity
  8
0
100
AcDbBlockBegin
  2
block 139
 70
     0
 10
0.0
 20
0.0
 30
0.0
  3
block 139
  1

  0
SPLINE
  5
3BF
330
3BB
100
AcDbEntity
  8
_U+5207_U+65AD_U+30D1_U+30B9
 62
     1
420
 16711680
370
     9
100
AcDbSpline
210
0.0
220
0.0
230
1.0
 70
    11
 71
     3
 72
    38
 73
    34
 74
     0
 42
0.0000000001
 43
0.0000000001
 12
1.0
 22
0.0
 32
0.0
 13
1.0
 23
0.0
 33
0.0
 40
0.0
 40
0.0
 40
0.0
 40
0.0
 40
1.0
 40
1.0
 40
1.0
 40
2.0
 40
2.0
 40
2.0
 40
3.0
 40
3.0
 40
3.0
 40
4.0
 40
4.0
 40
4.0
 40
5.0
 40
5.0
 40
5.0
 40
6.0
 40
6.0
 40
6.0
 40
7.0
 40
7.0
 40
7.0
 40
8.0
 40
8.0
 40
8.0
 40
9.0
 40
9.0
 40
9.0
 40
10.0
 40
10.0
 40
10.0
 40
11.0
 40
11.0
 40
11.0
 40
11.0
 10
268.82723124107
 20
137.6245941255608
 30
0.0
 10
269.2260335212172
 20
137.6244641791824
 30
0.0
 10
269.4737982052782
 20
138.0743772711429
 30
0.0
 10
269.2438603666365
 20
138.4002175171197
 30
0.0
 10
269.0874987047432
 20
138.6217944557995
 30
0.0
 10
268.9495831103584
 20
138.8805988901466
 30
0.0
 10
268.8540484339011
 20
139.179831007993
 30
0.0
 10
268.7478829718583
 20
139.5123580837833
 30
0.0
 10
268.717956396311
 20
139.8199405150752
 30
0.0
 10
268.7191056586331
 20
140.0721538023656
 30
0.0
 10
268.7191056586331
 20
140.0721538023656
 30
0.0
 10
268.7191097714465
 20
141.825516770526
 30
0.0
 10
268.7191097714465
 20
141.825516770526
 30
0.0
 10
268.719115791856
 20
144.3921200942438
 30
0.0
 10
266.8388502381454
 20
146.6439755077396
 30
0.0
 10
264.2877261746702
 20
146.9254335581051
 30
0.0
 10
261.2716761806714
 20
147.2581855254715
 30
0.0
 10
258.7191022535492
 20
144.9056314437243
 30
0.0
 10
258.7191050465429
 20
141.9568901808821
 30
0.0
 10
258.7191050465429
 20
141.9568901808821
 30
0.0
 10
258.7191050465429
 20
140.0745330714351
 30
0.0
 10
258.7191050465429
 20
140.0745330714351
 30
0.0
 10
258.7189301002878
 20
139.8182502651027
 30
0.0
 10
258.6857010777402
 20
139.0334898113336
 30
0.0
 10
258.1231600486925
 20
138.2796598554674
 30
0.0
 10
258.1231600486925
 20
138.2796598554674
 30
0.0
 10
258.1231595607927
 20
138.2796592040479
 30
0.0
 10
258.1231595607927
 20
138.2796592040479
 30
0.0
 10
257.9219982234171
 20
138.0110785481862
 30
0.0
 10
258.1135734182681
 20
137.6280850811126
 30
0.0
 10
258.4491348006545
 20
137.6279757412496
 30
0.0
 10
258.4491348006545
 20
137.6279757412496
 30
0.0
 10
268.82723124107
 20
137.6245941255608
 30
0.0
 10
268.82723124107
 20
137.6245941255608
 30
0.0
  0
ENDBLK
  5
3BE
330
3BB
100
AcDbEntity
  8
0
100
AcDbBlockEnd
  0
BLOCK
  5
3C2
330
3C0
100
AcDbEntity
  8
0
100
AcDbBlockBegin
  2
block 140
 70
     0
 10
0.0
 20
0.0
 30
0.0
  3
block 140
  1

  0
INSERT
  5
3C5
330
3C0
100
AcDbEntity
  8
_U+5207_U+65AD_U+30D1_U+30B9
100
AcDbBlockReference
  2
block 141
 10
0.0
 20
0.0
 30
0.0
  0
INSERT
  5
3CA
330
3C0
100
AcDbEntity
  8
_U+5207_U+65AD_U+30D1_U+30B9
100
AcDbBlockReference
  2
block 142
 10
0.0
 20
0.0
 30
0.0
  0
ENDBLK
  5
3C3
330
3C0
100
AcDbEntity
  8
0
100
AcDbBlockEnd
  0
BLOCK
  5
3C6
330
3C4
100
AcDbEntity
  8
0
100
AcDbBlockBegin
  2
block 141
 70
     0
 10
0.0
 20
0.0
 30
0.0
  3
block 141
  1

  0
SPLINE
  5
3C8
330
3C4
100
AcDbEntity
  8
_U+5207_U+65AD_U+30D1_U+30B9
 62
     1
420
 16711680
370
     9
100
AcDbSpline
210
0.0
220
0.0
230
1.0
 70
    11
 71
     3
 72
    20
 73
    16
 74
     0
 42
0.0000000001
 43
0.0000000001
 12
1.0
 22
0.0
 32
0.0
 13
1.0
 23
0.0
 33
0.0
 40
0.0
 40
0.0
 40
0.0
 40
0.0
 40
1.0
 40
1.0
 40
1.0
 40
2.0
 40
2.0
 40
2.0
 40
3.0
 40
3.0
 40
3.0
 40
4.0
 40
4.0
 40
4.0
 40
5.0
 40
5.0
 40
5.0
 40
5.0
 10
275.6429397726232
 20
141.6230543656787
 30
0.0
 10
275.642939002757
 20
143.0713134679432
 30
0.0
 10
276.8270563464065
 20
144.243007629808
 30
0.0
 10
278.2799590276528
 20
144.2227932764002
 30
0.0
 10
279.6607344152278
 20
144.2035824359063
 30
0.0
 10
280.8234649526448
 20
143.040853134716
 30
0.0
 10
280.8426772612076
 20
141.6600777675689
 30
0.0
 10
280.8628931593729
 20
140.2071751077643
 30
0.0
 10
279.691200256394
 20
139.0230565183222
 30
0.0
 10
278.2429411540845
 20
139.0230557484553
 30
0.0
 10
276.8070008048789
 20
139.0230549851363
 30
0.0
 10
275.6429405359428
 20
140.1871140164949
 30
0.0
 10
275.6429397726232
 20
141.6230543656787
 30
0.0
 10
275.6429397726232
 20
141.6230543656787
 30
0.0
 10
275.6429397726232
 20
141.6230543656787
 30
0.0
 10
275.6429397726232
 20
141.6230543656787
 30
0.0
  0
ENDBLK
  5
3C7
330
3C4
100
AcDbEntity
  8
0
100
AcDbBlockEnd
  0
BLOCK
  5
3CB
330
3C9
100
AcDbEntity
  8
0
100
AcDbBlockBegin
  2
block 142
 70
     0
 10
0.0
 20
0.0
 30
0.0
  3
block 142
  1

  0
SPLINE
  5
3CD
330
3C9
100
AcDbEntity
  8
_U+5207_U+65AD_U+30D1_U+30B9
 62
     1
420
 16711680
370
     9
100
AcDbSpline
210
0.0
220
0.0
230
1.0
 70
    11
 71
     3
 72
    38
 73
    34
 74
     0
 42
0.0000000001
 43
0.0000000001
 12
1.0
 22
0.0
 32
0.0
 13
1.0
 23
0.0
 33
0.0
 40
0.0
 40
0.0
 40
0.0
 40
0.0
 40
1.0
 40
1.0
 40
1.0
 40
2.0
 40
2.0
 40
2.0
 40
3.0
 40
3.0
 40
3.0
 40
4.0
 40
4.0
 40
4.0
 40
5.0
 40
5.0
 40
5.0
 40
6.0
 40
6.0
 40
6.0
 40
7.0
 40
7.0
 40
7.0
 40
8.0
 40
8.0
 40
8.0
 40
9.0
 40
9.0
 40
9.0
 40
10.0
 40
10.0
 40
10.0
 40
11.0
 40
11.0
 40
11.0
 40
11.0
 10
283.3510666719404
 20
137.29075371489
 30
0.0
 10
283.7498689520889
 20
137.2906237685116
 30
0.0
 10
283.9976336361486
 20
137.7405368604721
 30
0.0
 10
283.7676957975069
 20
138.066377106449
 30
0.0
 10
283.6113341356136
 20
138.2879540451287
 30
0.0
 10
283.4734185412288
 20
138.5467584794746
 30
0.0
 10
283.3778838647722
 20
138.845990597321
 30
0.0
 10
283.2717184027287
 20
139.1785176731113
 30
0.0
 10
283.2417918271814
 20
139.4861001044038
 30
0.0
 10
283.2429410895035
 20
139.7383133916936
 30
0.0
 10
283.2429410895035
 20
139.7383133916936
 30
0.0
 10
283.2429452023169
 20
141.491676359854
 30
0.0
 10
283.2429452023169
 20
141.491676359854
 30
0.0
 10
283.242951222727
 20
144.0582796835728
 30
0.0
 10
281.3626856690158
 20
146.3101350970682
 30
0.0
 10
278.8115616055406
 20
146.5915931474337
 30
0.0
 10
275.7955116115418
 20
146.9243451148001
 30
0.0
 10
273.2429376844196
 20
144.5717910330529
 30
0.0
 10
273.2429404774134
 20
141.62304977021
 30
0.0
 10
273.2429404774134
 20
141.62304977021
 30
0.0
 10
273.2429404774134
 20
139.7406926607631
 30
0.0
 10
273.2429404774134
 20
139.7406926607631
 30
0.0
 10
273.2427655311582
 20
139.4844098544313
 30
0.0
 10
273.2095365086107
 20
138.6996494006616
 30
0.0
 10
272.6469954795629
 20
137.9458194447953
 30
0.0
 10
272.6469954795629
 20
137.9458194447953
 30
0.0
 10
272.6469949916637
 20
137.9458187933771
 30
0.0
 10
272.6469949916637
 20
137.9458187933771
 30
0.0
 10
272.4458336542875
 20
137.6772381375142
 30
0.0
 10
272.6374088491385
 20
137.2942446704405
 30
0.0
 10
272.9729702315242
 20
137.2941353305789
 30
0.0
 10
272.9729702315242
 20
137.2941353305789
 30
0.0
 10
283.3510666719404
 20
137.29075371489
 30
0.0
 10
283.3510666719404
 20
137.29075371489
 30
0.0
  0
ENDBLK
  5
3CC
330
3C9
100
AcDbEntity
  8
0
100
AcDbBlockEnd
  0
BLOCK
  5
3D0
330
3CE
100
AcDbEntity
  8
0
100
AcDbBlockBegin
  2
block 143
 70
     0
 10
0.0
 20
0.0
 30
0.0
  3
block 143
  1

  0
INSERT
  5
3D3
330
3CE
100
AcDbEntity
  8
_U+5207_U+65AD_U+30D1_U+30B9
100
AcDbBlockReference
  2
block 144
 10
0.0
 20
0.0
 30
0.0
  0
INSERT
  5
3D8
330
3CE
100
AcDbEntity
  8
_U+5207_U+65AD_U+30D1_U+30B9
100
AcDbBlockReference
  2
block 145
 10
0.0
 20
0.0
 30
0.0
  0
INSERT
  5
3DD
330
3CE
100
AcDbEntity
  8
_U+5207_U+65AD_U+30D1_U+30B9
100
AcDbBlockReference
  2
block 146
 10
0.0
 20
0.0
 30
0.0
  0
ENDBLK
  5
3D1
330
3CE
100
AcDbEntity
  8
0
100
AcDbBlockEnd
  0
BLOCK
  5
3D4
330
3D2
100
AcDbEntity
  8
0
100
AcDbBlockBegin
  2
block 144
 70
     0
 10
0.0
 20
0.0
 30
0.0
  3
block 144
  1

  0
SPLINE
  5
3D6
330
3D2
100
AcDbEntity
  8
_U+5207_U+65AD_U+30D1_U+30B9
 62
     1
420
 16711680
370
     9
100
AcDbSpline
210
0.0
220
0.0
230
1.0
 70
    11
 71
     3
 72
    32
 73
    28
 74
     0
 42
0.0000000001
 43
0.0000000001
 12
1.0
 22
0.0
 32
0.0
 13
1.0
 23
0.0
 33
0.0
 40
0.0
 40
0.0
 40
0.0
 40
0.0
 40
1.0
 40
1.0
 40
1.0
 40
2.0
 40
2.0
 40
2.0
 40
3.0
 40
3.0
 40
3.0
 40
4.0
 40
4.0
 40
4.0
 40
5.0
 40
5.0
 40
5.0
 40
6.0
 40
6.0
 40
6.0
 40
7.0
 40
7.0
 40
7.0
 40
8.0
 40
8.0
 40
8.0
 40
9.0
 40
9.0
 40
9.0
 40
9.0
 10
355.7000274819062
 20
58.77956436354229
 30
0.0
 10
355.7000274819062
 20
58.77956436354229
 30
0.0
 10
308.3434407609768
 20
58.77956436354229
 30
0.0
 10
308.3434407609768
 20
58.77956436354229
 30
0.0
 10
307.8206898380879
 20
58.71971477112327
 30
0.0
 10
307.5622898491263
 20
58.48535819537686
 30
0.0
 10
307.2616766662986
 20
58.14067386416328
 30
0.0
 10
307.2616766662986
 20
58.14067386416328
 30
0.0
 10
296.4052616269038
 20
39.30088379456583
 30
0.0
 10
296.4052616269038
 20
39.30088379456583
 30
0.0
 10
296.2351447617741
 20
38.8961799705874
 30
0.0
 10
296.4253150661214
 20
38.43019573200436
 30
0.0
 10
296.8300188901043
 20
38.26007886687334
 30
0.0
 10
296.8896374749709
 20
38.2350182517696
 30
0.0
 10
296.9520915903548
 20
38.21732698321306
 30
0.0
 10
297.0159963071247
 20
38.20739736766287
 30
0.0
 10
297.0159963071247
 20
38.20739736766287
 30
0.0
 10
355.68971859763
 20
38.20856719071516
 30
0.0
 10
355.68971859763
 20
38.20856719071516
 30
0.0
 10
355.9658805591197
 20
38.20856736037782
 30
0.0
 10
356.1897539247237
 20
38.43244100105822
 30
0.0
 10
356.1897537550603
 20
38.70860296254673
 30
0.0
 10
356.1897537550603
 20
38.70860296254673
 30
0.0
 10
356.2005609199196
 20
58.27933691446094
 30
0.0
 10
356.2005609199196
 20
58.27933691446094
 30
0.0
 10
356.2001979733695
 20
58.55557388276411
 30
0.0
 10
355.9762646205093
 20
58.77937033942587
 30
0.0
 10
355.7000274819062
 20
58.77956436354229
 30
0.0
  0
ENDBLK
  5
3D5
330
3D2
100
AcDbEntity
  8
0
100
AcDbBlockEnd
  0
BLOCK
  5
3D9
330
3D7
100
AcDbEntity
  8
0
100
AcDbBlockBegin
  2
block 145
 70
     0
 10
0.0
 20
0.0
 30
0.0
  3
block 145
  1

  0
SPLINE
  5
3DB
330
3D7
100
AcDbEntity
  8
_U+5207_U+65AD_U+30D1_U+30B9
 62
     1
420
 16711680
370
     9
100
AcDbSpline
210
0.0
220
0.0
230
1.0
 70
    11
 71
     3
 72
    20
 73
    16
 74
     0
 42
0.0000000001
 43
0.0000000001
 12
1.0
 22
0.0
 32
0.0
 13
1.0
 23
0.0
 33
0.0
 40
0.0
 40
0.0
 40
0.0
 40
0.0
 40
1.0
 40
1.0
 40
1.0
 40
2.0
 40
2.0
 40
2.0
 40
3.0
 40
3.0
 40
3.0
 40
4.0
 40
4.0
 40
4.0
 40
5.0
 40
5.0
 40
5.0
 40
5.0
 10
308.726635917174
 20
56.30234877398439
 30
0.0
 10
309.3341922324459
 20
56.30234914724276
 30
0.0
 10
309.8267142419401
 20
55.80982774291891
 30
0.0
 10
309.8267146151978
 20
55.20227142764185
 30
0.0
 10
309.8267149884549
 20
54.59471511236736
 30
0.0
 10
309.3341935841311
 20
54.10219310287127
 30
0.0
 10
308.7266372688604
 20
54.1021927296129
 30
0.0
 10
308.1190809535814
 20
54.10219235635582
 30
0.0
 10
307.6265589440866
 20
54.59471376068095
 30
0.0
 10
307.6265585708289
 20
55.20227007595545
 30
0.0
 10
307.6265581975712
 20
55.8098263912325
 30
0.0
 10
308.119079601895
 20
56.30234840072731
 30
0.0
 10
308.726635917174
 20
56.30234877398439
 30
0.0
 10
308.726635917174
 20
56.30234877398439
 30
0.0
 10
308.726635917174
 20
56.30234877398439
 30
0.0
 10
308.726635917174
 20
56.30234877398439
 30
0.0
  0
ENDBLK
  5
3DA
330
3D7
100
AcDbEntity
  8
0
100
AcDbBlockEnd
  0
BLOCK
  5
3DE
330
3DC
100
AcDbEntity
  8
0
100
AcDbBlockBegin
  2
block 146
 70
     0
 10
0.0
 20
0.0
 30
0.0
  3
block 146
  1

  0
SPLINE
  5
3E0
330
3DC
100
AcDbEntity
  8
_U+5207_U+65AD_U+30D1_U+30B9
 62
     1
420
 16711680
370
     9
100
AcDbSpline
210
0.0
220
0.0
230
1.0
 70
    11
 71
     3
 72
    20
 73
    16
 74
     0
 42
0.0000000001
 43
0.0000000001
 12
1.0
 22
0.0
 32
0.0
 13
1.0
 23
0.0
 33
0.0
 40
0.0
 40
0.0
 40
0.0
 40
0.0
 40
1.0
 40
1.0
 40
1.0
 40
2.0
 40
2.0
 40
2.0
 40
3.0
 40
3.0
 40
3.0
 40
4.0
 40
4.0
 40
4.0
 40
5.0
 40
5.0
 40
5.0
 40
5.0
 10
300.2260419273025
 20
41.80131507728984
 30
0.0
 10
300.8335982425808
 20
41.8013154505482
 30
0.0
 10
301.3261202520673
 20
41.30879404622051
 30
0.0
 10
301.326120625325
 20
40.70123773094986
 30
0.0
 10
301.3261209985833
 20
40.09368141567153
 30
0.0
 10
300.8335995942666
 20
39.60115940617415
 30
0.0
 10
300.2260432789889
 20
39.60115903291707
 30
0.0
 10
299.6184869637048
 20
39.60115865965742
 30
0.0
 10
299.1259649542106
 20
40.09368006398512
 30
0.0
 10
299.1259645809529
 20
40.70123637926346
 30
0.0
 10
299.1259642076952
 20
41.30879269453538
 30
0.0
 10
299.618485612019
 20
41.80131470403148
 30
0.0
 10
300.2260419273025
 20
41.80131507728984
 30
0.0
 10
300.2260419273025
 20
41.80131507728984
 30
0.0
 10
300.2260419273025
 20
41.80131507728984
 30
0.0
 10
300.2260419273025
 20
41.80131507728984
 30
0.0
  0
ENDBLK
  5
3DF
330
3DC
100
AcDbEntity
  8
0
100
AcDbBlockEnd
  0
ENDSEC
  0
SECTION
  2
ENTITIES
  0
INSERT
  5
42
330
1F
100
AcDbEntity
  8
_U+5207_U+65AD_U+30D1_U+30B9
100
AcDbBlockReference
  2
block 2
 10
0.0
 20
0.0
 30
0.0
  0
INSERT
  5
147
330
1F
100
AcDbEntity
  8
_U+5207_U+65AD_U+30D1_U+30B9
100
AcDbBlockReference
  2
block 31
 10
0.0
 20
0.0
 30
0.0
  0
INSERT
  5
185
330
1F
100
AcDbEntity
  8
_U+5207_U+65AD_U+30D1_U+30B9
100
AcDbBlockReference
  2
block 44
 10
0.0
 20
0.0
 30
0.0
  0
INSERT
  5
189
330
1F
100
AcDbEntity
  8
_U+5207_U+65AD_U+30D1_U+30B9
100
AcDbBlockReference
  2
block 45
 10
0.0
 20
0.0
 30
0.0
  0
INSERT
  5
191
330
1F
100
AcDbEntity
  8
_U+5207_U+65AD_U+30D1_U+30B9
100
AcDbBlockReference
  2
block 47
 10
0.0
 20
0.0
 30
0.0
  0
INSERT
  5
205
330
1F
100
AcDbEntity
  8
_U+5207_U+65AD_U+30D1_U+30B9
100
AcDbBlockReference
  2
block 72
 10
0.0
 20
0.0
 30
0.0
  0
INSERT
  5
218
330
1F
100
AcDbEntity
  8
_U+5207_U+65AD_U+30D1_U+30B9
100
AcDbBlockReference
  2
block 76
 10
0.0
 20
0.0
 30
0.0
  0
INSERT
  5
31D
330
1F
100
AcDbEntity
  8
_U+5207_U+65AD_U+30D1_U+30B9
100
AcDbBlockReference
  2
block 105
 10
0.0
 20
0.0
 30
0.0
  0
INSERT
  5
35B
330
1F
100
AcDbEntity
  8
_U+5207_U+65AD_U+30D1_U+30B9
100
AcDbBlockReference
  2
block 118
 10
0.0
 20
0.0
 30
0.0
  0
INSERT
  5
3CF
330
1F
100
AcDbEntity
  8
_U+5207_U+65AD_U+30D1_U+30B9
100
AcDbBlockReference
  2
block 143
 10
0.0
 20
0.0
 30
0.0
  0
ENDSEC
  0
SECTION
  2
OBJECTS
  0
DICTIONARY
  5
C
330
0
100
AcDbDictionary
281
     1
  3
ACAD_GROUP
350
D
  3
ACAD_LAYOUT
350
1A
  3
ACAD_MATERIAL
350
3B
  3
ACAD_MLEADERSTYLE
350
3E8
  3
ACAD_MLINESTYLE
350
17
  3
ACAD_PLOTSETTINGS
350
19
  3
ACAD_PLOTSTYLENAME
350
E
  3
ACAD_TABLESTYLE
350
3E7
  3
ACAD_VISUALSTYLE
350
2A
  0
SUN
  5
3F
330
29
100
AcDbSun
 90
        1
290
     0
 63
     7
421
 16777215
 40
1.0
291
     1
 91
  2455826
 92
 54000000
292
     0
 70
     2
 71
   256
280
     1
  0
DICTIONARY
  5
D
102
{ACAD_REACTORS
330
C
102
}
330
C
100
AcDbDictionary
281
     1
  0
DICTIONARY
  5
1A
102
{ACAD_REACTORS
330
C
102
}
330
C
100
AcDbDictionary
281
     1
  3
Layout1
350
1E
  3
Layout2
350
26
  3
Model
350
22
  0
DICTIONARY
  5
3B
102
{ACAD_REACTORS
330
C
102
}
330
C
100
AcDbDictionary
281
     1
  3
ByBlock
350
3D
  3
ByLayer
350
3C
  3
Global
350
3E
  0
DICTIONARY
  5
3E8
102
{ACAD_REACTORS
330
C
102
}
330
C
100
AcDbDictionary
281
     1
  0
DICTIONARY
  5
17
102
{ACAD_REACTORS
330
C
102
}
330
C
100
AcDbDictionary
281
     1
  3
Standard
350
18
  0
DICTIONARY
  5
19
102
{ACAD_REACTORS
330
C
102
}
330
C
100
AcDbDictionary
281
     1
  0
ACDBDICTIONARYWDFLT
  5
E
102
{ACAD_REACTORS
330
C
102
}
330
C
100
AcDbDictionary
281
     1
  3
Normal
350
F
100
AcDbDictionaryWithDefault
340
F
  0
DICTIONARY
  5
3E7
102
{ACAD_REACTORS
330
C
102
}
330
C
100
AcDbDictionary
281
     1
  0
DICTIONARY
  5
2A
102
{ACAD_REACTORS
330
C
102
}
330
C
100
AcDbDictionary
281
     1
  3
2dWireframe
350
2F
  3
3D Hidden
350
31
  3
3dWireframe
350
30
  3
Basic
350
32
  3
Brighten
350
36
  3
ColorChange
350
3A
  3
Conceptual
350
34
  3
Dim
350
35
  3
Facepattern
350
39
  3
Flat
350
2B
  3
FlatWithEdges
350
2C
  3
Gouraud
350
2D
  3
GouraudWithEdges
350
2E
  3
Linepattern
350
38
  3
Realistic
350
33
  3
Thicken
350
37
  0
LAYOUT
  5
1E
102
{ACAD_REACTORS
330
1A
102
}
330
1A
100
AcDbPlotSettings
  1

  2
none_device
  4

  6

 40
0.0
 41
0.0
 42
0.0
 43
0.0
 44
0.0
 45
0.0
 46
0.0
 47
0.0
 48
0.0
 49
0.0
140
0.0
141
0.0
142
1.0
143
1.0
 70
   688
 72
     0
 73
     0
 74
     5
  7

 75
    16
 76
     0
 77
     2
 78
   300
147
1.0
148
0.0
149
0.0
100
AcDbLayout
  1
Layout1
 70
     1
 71
     1
 10
0.0
 20
0.0
 11
12.0
 21
9.0
 12
0.0
 22
0.0
 32
0.0
 14
1.000000000000000E+20
 24
1.000000000000000E+20
 34
1.000000000000000E+20
 15
-1.000000000000000E+20
 25
-1.000000000000000E+20
 35
-1.000000000000000E+20
146
0.0
 13
0.0
 23
0.0
 33
0.0
 16
1.0
 26
0.0
 36
0.0
 17
0.0
 27
1.0
 37
0.0
 76
     0
330
1B
  0
LAYOUT
  5
26
102
{ACAD_REACTORS
330
1A
102
}
330
1A
100
AcDbPlotSettings
  1

  2
none_device
  4

  6

 40
0.0
 41
0.0
 42
0.0
 43
0.0
 44
0.0
 45
0.0
 46
0.0
 47
0.0
 48
0.0
 49
0.0
140
0.0
141
0.0
142
1.0
143
1.0
 70
   688
 72
     0
 73
     0
 74
     5
  7

 75
    16
 76
     0
 77
     2
 78
   300
147
1.0
148
0.0
149
0.0
100
AcDbLayout
  1
Layout2
 70
     1
 71
     2
 10
0.0
 20
0.0
 11
0.0
 21
0.0
 12
0.0
 22
0.0
 32
0.0
 14
0.0
 24
0.0
 34
0.0
 15
0.0
 25
0.0
 35
0.0
146
0.0
 13
0.0
 23
0.0
 33
0.0
 16
1.0
 26
0.0
 36
0.0
 17
0.0
 27
1.0
 37
0.0
 76
     0
330
23
  0
LAYOUT
  5
22
102
{ACAD_REACTORS
330
1A
102
}
330
1A
100
AcDbPlotSettings
  1

  2
none_device
  4

  6

 40
0.0
 41
0.0
 42
0.0
 43
0.0
 44
0.0
 45
0.0
 46
0.0
 47
0.0
 48
0.0
 49
0.0
140
0.0
141
0.0
142
1.0
143
1.0
 70
  1712
 72
     0
 73
     0
 74
     0
  7

 75
     0
 76
     0
 77
     2
 78
   300
147
1.0
148
0.0
149
0.0
100
AcDbLayout
  1
Model
 70
     1
 71
     0
 10
0.0
 20
0.0
 11
12.0
 21
9.0
 12
0.0
 22
0.0
 32
0.0
 14
1.000000000000000E+20
 24
1.000000000000000E+20
 34
1.000000000000000E+20
 15
-1.000000000000000E+20
 25
-1.000000000000000E+20
 35
-1.000000000000000E+20
146
0.0
 13
0.0
 23
0.0
 33
0.0
 16
1.0
 26
0.0
 36
0.0
 17
0.0
 27
1.0
 37
0.0
 76
     0
330
1F
331
29
  0
MATERIAL
  5
3D
102
{ACAD_REACTORS
330
3B
102
}
330
3B
100
AcDbMaterial
  1
ByBlock
 72
     1
 94
      127
  0
MATERIAL
  5
3C
102
{ACAD_REACTORS
330
3B
102
}
330
3B
100
AcDbMaterial
  1
ByLayer
 72
     1
 94
      127
  0
MATERIAL
  5
3E
102
{ACAD_REACTORS
330
3B
102
}
330
3B
100
AcDbMaterial
  1
Global
 72
     1
 94
      127
  0
MLINESTYLE
  5
18
102
{ACAD_REACTORS
330
17
102
}
330
17
100
AcDbMlineStyle
  2
Standard
 70
     0
  3

 62
   256
 51
90.0
 52
90.0
 71
     2
 49
0.5
 62
   256
  6
BYLAYER
 49
-0.5
 62
   256
  6
BYLAYER
  0
ACDBPLACEHOLDER
  5
F
102
{ACAD_REACTORS
330
E
102
}
330
E
  0
VISUALSTYLE
  5
2F
102
{ACAD_REACTORS
330
2A
102
}
330
2A
100
AcDbVisualStyle
  2
2dWireframe
 70
     4
177
     2
291
     0
 71
     0
176
     1
 72
     2
176
     1
 73
     0
176
     1
 90
        0
176
     1
 40
-0.6
176
     1
 41
-30.0
176
     1
 62
     5
 63
     7
421
 16777215
176
     1
 74
     1
176
     1
 91
        4
176
     1
 64
     7
176
     1
 65
   257
176
     1
 75
     1
176
     1
175
     1
176
     1
 42
1.0
176
     1
 92
        0
176
     1
 66
   257
176
     1
 43
1.0
176
     1
 76
     1
176
     1
 77
     6
176
     1
 78
     2
176
     1
 67
     7
176
     1
 79
     5
176
     1
170
     0
176
     1
171
     0
176
     1
290
     0
176
     1
 93
        1
176
     1
 44
0.0
176
     1
173
     0
176
     1
  0
VISUALSTYLE
  5
31
102
{ACAD_REACTORS
330
2A
102
}
330
2A
100
AcDbVisualStyle
  2
3D Hidden
 70
     6
177
     2
291
     0
 71
     1
176
     1
 72
     2
176
     1
 73
     2
176
     1
 90
        0
176
     1
 40
-0.6
176
     1
 41
-30.0
176
     1
 62
     5
 63
     7
421
 16777215
176
     1
 74
     2
176
     1
 91
        2
176
     1
 64
     7
176
     1
 65
   257
176
     1
 75
     2
176
     1
175
     1
176
     1
 42
40.0
176
     1
 92
        0
176
     1
 66
   257
176
     1
 43
1.0
176
     1
 76
     1
176
     1
 77
     6
176
     1
 78
     2
176
     1
 67
     7
176
     1
 79
     3
176
     1
170
     0
176
     1
171
     0
176
     1
290
     0
176
     1
 93
        1
176
     1
 44
0.0
176
     1
173
     0
176
     1
  0
VISUALSTYLE
  5
30
102
{ACAD_REACTORS
330
2A
102
}
330
2A
100
AcDbVisualStyle
  2
3dWireframe
 70
     5
177
     2
291
     0
 71
     0
176
     1
 72
     2
176
     1
 73
     0
176
     1
 90
        0
176
     1
 40
-0.6
176
     1
 41
-30.0
176
     1
 62
     5
 63
     7
421
 16777215
176
     1
 74
     1
176
     1
 91
        4
176
     1
 64
     7
176
     1
 65
   257
176
     1
 75
     1
176
     1
175
     1
176
     1
 42
1.0
176
     1
 92
        0
176
     1
 66
   257
176
     1
 43
1.0
176
     1
 76
     1
176
     1
 77
     6
176
     1
 78
     2
176
     1
 67
     7
176
     1
 79
     5
176
     1
170
     0
176
     1
171
     0
176
     1
290
     0
176
     1
 93
        1
176
     1
 44
0.0
176
     1
173
     0
176
     1
  0
VISUALSTYLE
  5
32
102
{ACAD_REACTORS
330
2A
102
}
330
2A
100
AcDbVisualStyle
  2
Basic
 70
     7
177
     2
291
     1
 71
     1
176
     1
 72
     0
176
     1
 73
     1
176
     1
 90
        0
176
     1
 40
-0.6
176
     1
 41
-30.0
176
     1
 62
     5
 63
     7
421
 16777215
176
     1
 74
     0
176
     1
 91
        4
176
     1
 64
     7
176
     1
 65
   257
176
     1
 75
     1
176
     1
175
     1
176
     1
 42
1.0
176
     1
 92
        8
176
     1
 66
     7
176
     1
 43
1.0
176
     1
 76
     1
176
     1
 77
     6
176
     1
 78
     2
176
     1
 67
     7
176
     1
 79
     5
176
     1
170
     0
176
     1
171
     0
176
     1
290
     0
176
     1
 93
        1
176
     1
 44
0.0
176
     1
173
     0
176
     1
  0
VISUALSTYLE
  5
36
102
{ACAD_REACTORS
330
2A
102
}
330
2A
100
AcDbVisualStyle
  2
Brighten
 70
    12
177
     2
291
     1
 71
     2
176
     1
 72
     2
176
     1
 73
     0
176
     1
 90
        0
176
     1
 40
-0.6
176
     1
 41
-30.0
176
     1
 62
     5
 63
     7
421
 16777215
176
     1
 74
     1
176
     1
 91
        4
176
     1
 64
     7
176
     1
 65
   257
176
     1
 75
     1
176
     1
175
     1
176
     1
 42
1.0
176
     1
 92
        8
176
     1
 66
     7
176
     1
 43
1.0
176
     1
 76
     1
176
     1
 77
     6
176
     1
 78
     2
176
     1
 67
     7
176
     1
 79
     5
176
     1
170
     0
176
     1
171
     0
176
     1
290
     0
176
     1
 93
        1
176
     1
 44
50.0
176
     1
173
     0
176
     1
  0
VISUALSTYLE
  5
3A
102
{ACAD_REACTORS
330
2A
102
}
330
2A
100
AcDbVisualStyle
  2
ColorChange
 70
    16
177
     2
291
     1
 71
     2
176
     1
 72
     2
176
     1
 73
     3
176
     1
 90
        0
176
     1
 40
-0.6
176
     1
 41
-30.0
176
     1
 62
     5
 63
     8
421
  8421504
176
     1
 74
     1
176
     1
 91
        4
176
     1
 64
     7
176
     1
 65
   257
176
     1
 75
     1
176
     1
175
     1
176
     1
 42
1.0
176
     1
 92
        8
176
     1
 66
     8
424
  8421504
176
     1
 43
1.0
176
     1
 76
     1
176
     1
 77
     6
176
     1
 78
     2
176
     1
 67
     7
176
     1
 79
     5
176
     1
170
     0
176
     1
171
     0
176
     1
290
     0
176
     1
 93
        1
176
     1
 44
0.0
176
     1
173
     0
176
     1
  0
VISUALSTYLE
  5
34
102
{ACAD_REACTORS
330
2A
102
}
330
2A
100
AcDbVisualStyle
  2
Conceptual
 70
     9
177
     2
291
     0
 71
     3
176
     1
 72
     2
176
     1
 73
     0
176
     1
 90
        0
176
     1
 40
-0.6
176
     1
 41
-30.0
176
     1
 62
     5
 63
     7
421
 16777215
176
     1
 74
     2
176
     1
 91
        2
176
     1
 64
     7
176
     1
 65
   257
176
     1
 75
     1
176
     1
175
     1
176
     1
 42
40.0
176
     1
 92
        8
176
     1
 66
     7
176
     1
 43
1.0
176
     1
 76
     1
176
     1
 77
     6
176
     1
 78
     2
176
     1
 67
     7
176
     1
 79
     3
176
     1
170
     0
176
     1
171
     0
176
     1
290
     0
176
     1
 93
        1
176
     1
 44
0.0
176
     1
173
     0
176
     1
  0
VISUALSTYLE
  5
35
102
{ACAD_REACTORS
330
2A
102
}
330
2A
100
AcDbVisualStyle
  2
Dim
 70
    11
177
     2
291
     1
 71
     2
176
     1
 72
     2
176
     1
 73
     0
176
     1
 90
        0
176
     1
 40
-0.6
176
     1
 41
-30.0
176
     1
 62
     5
 63
     7
421
 16777215
176
     1
 74
     1
176
     1
 91
        4
176
     1
 64
     7
176
     1
 65
   257
176
     1
 75
     1
176
     1
175
     1
176
     1
 42
1.0
176
     1
 92
        8
176
     1
 66
     7
176
     1
 43
1.0
176
     1
 76
     1
176
     1
 77
     6
176
     1
 78
     2
176
     1
 67
     7
176
     1
 79
     5
176
     1
170
     0
176
     1
171
     0
176
     1
290
     0
176
     1
 93
        1
176
     1
 44
-50.0
176
     1
173
     0
176
     1
  0
VISUALSTYLE
  5
39
102
{ACAD_REACTORS
330
2A
102
}
330
2A
100
AcDbVisualStyle
  2
Facepattern
 70
    15
177
     2
291
     1
 71
     2
176
     1
 72
     2
176
     1
 73
     0
176
     1
 90
        0
176
     1
 40
-0.6
176
     1
 41
-30.0
176
     1
 62
     5
 63
     7
421
 16777215
176
     1
 74
     1
176
     1
 91
        4
176
     1
 64
     7
176
     1
 65
   257
176
     1
 75
     1
176
     1
175
     1
176
     1
 42
1.0
176
     1
 92
        8
176
     1
 66
     7
176
     1
 43
1.0
176
     1
 76
     1
176
     1
 77
     6
176
     1
 78
     2
176
     1
 67
     7
176
     1
 79
     5
176
     1
170
     0
176
     1
171
     0
176
     1
290
     0
176
     1
 93
        1
176
     1
 44
0.0
176
     1
173
     0
176
     1
  0
VISUALSTYLE
  5
2B
102
{ACAD_REACTORS
330
2A
102
}
330
2A
100
AcDbVisualStyle
  2
Flat
 70
     0
177
     2
291
     1
 71
     2
176
     1
 72
     1
176
     1
 73
     1
176
     1
 90
        2
176
     1
 40
-0.6
176
     1
 41
30.0
176
     1
 62
     5
 63
     7
421
 16777215
176
     1
 74
     0
176
     1
 91
        4
176
     1
 64
     7
176
     1
 65
   257
176
     1
 75
     1
176
     1
175
     1
176
     1
 42
1.0
176
     1
 92
        8
176
     1
 66
     7
176
     1
 43
1.0
176
     1
 76
     1
176
     1
 77
     6
176
     1
 78
     2
176
     1
 67
     7
176
     1
 79
     5
176
     1
170
     0
176
     1
171
     0
176
     1
290
     0
176
     1
 93
       13
176
     1
 44
0.0
176
     1
173
     0
176
     1
  0
VISUALSTYLE
  5
2C
102
{ACAD_REACTORS
330
2A
102
}
330
2A
100
AcDbVisualStyle
  2
FlatWithEdges
 70
     1
177
     2
291
     1
 71
     2
176
     1
 72
     1
176
     1
 73
     1
176
     1
 90
        2
176
     1
 40
-0.6
176
     1
 41
30.0
176
     1
 62
     5
 63
     7
421
 16777215
176
     1
 74
     1
176
     1
 91
        4
176
     1
 64
     7
176
     1
 65
   257
176
     1
 75
     1
176
     1
175
     1
176
     1
 42
1.0
176
     1
 92
        0
176
     1
 66
   257
176
     1
 43
1.0
176
     1
 76
     1
176
     1
 77
     6
176
     1
 78
     2
176
     1
 67
     7
176
     1
 79
     5
176
     1
170
     0
176
     1
171
     0
176
     1
290
     0
176
     1
 93
       13
176
     1
 44
0.0
176
     1
173
     0
176
     1
  0
VISUALSTYLE
  5
2D
102
{ACAD_REACTORS
330
2A
102
}
330
2A
100
AcDbVisualStyle
  2
Gouraud
 70
     2
177
     2
291
     1
 71
     2
176
     1
 72
     2
176
     1
 73
     1
176
     1
 90
        2
176
     1
 40
-0.6
176
     1
 41
30.0
176
     1
 62
     5
 63
     7
421
 16777215
176
     1
 74
     0
176
     1
 91
        4
176
     1
 64
     7
176
     1
 65
   257
176
     1
 75
     1
176
     1
175
     1
176
     1
 42
1.0
176
     1
 92
        0
176
     1
 66
     7
176
     1
 43
1.0
176
     1
 76
     1
176
     1
 77
     6
176
     1
 78
     2
176
     1
 67
     7
176
     1
 79
     5
176
     1
170
     0
176
     1
171
     0
176
     1
290
     0
176
     1
 93
       13
176
     1
 44
0.0
176
     1
173
     0
176
     1
  0
VISUALSTYLE
  5
2E
102
{ACAD_REACTORS
330
2A
102
}
330
2A
100
AcDbVisualStyle
  2
GouraudWithEdges
 70
     3
177
     2
291
     1
 71
     2
176
     1
 72
     2
176
     1
 73
     1
176
     1
 90
        2
176
     1
 40
-0.6
176
     1
 41
30.0
176
     1
 62
     5
 63
     7
421
 16777215
176
     1
 74
     1
176
     1
 91
        4
176
     1
 64
     7
176
     1
 65
   257
176
     1
 75
     1
176
     1
175
     1
176
     1
 42
1.0
176
     1
 92
        0
176
     1
 66
   257
176
     1
 43
1.0
176
     1
 76
     1
176
     1
 77
     6
176
     1
 78
     2
176
     1
 67
     7
176
     1
 79
     5
176
     1
170
     0
176
     1
171
     0
176
     1
290
     0
176
     1
 93
       13
176
     1
 44
0.0
176
     1
173
     0
176
     1
  0
VISUALSTYLE
  5
38
102
{ACAD_REACTORS
330
2A
102
}
330
2A
100
AcDbVisualStyle
  2
Linepattern
 70
    14
177
     2
291
     1
 71
     2
176
     1
 72
     2
176
     1
 73
     0
176
     1
 90
        0
176
     1
 40
-0.6
176
     1
 41
-30.0
176
     1
 62
     5
 63
     7
421
 16777215
176
     1
 74
     1
176
     1
 91
        4
176
     1
 64
     7
176
     1
 65
   257
176
     1
 75
     7
176
     1
175
     7
176
     1
 42
1.0
176
     1
 92
        8
176
     1
 66
     7
176
     1
 43
1.0
176
     1
 76
     1
176
     1
 77
     6
176
     1
 78
     2
176
     1
 67
     7
176
     1
 79
     5
176
     1
170
     0
176
     1
171
     0
176
     1
290
     0
176
     1
 93
        1
176
     1
 44
0.0
176
     1
173
     0
176
     1
  0
VISUALSTYLE
  5
33
102
{ACAD_REACTORS
330
2A
102
}
330
2A
100
AcDbVisualStyle
  2
Realistic
 70
     8
177
     2
291
     0
 71
     2
176
     1
 72
     2
176
     1
 73
     0
176
     1
 90
        0
176
     1
 40
-0.6
176
     1
 41
-30.0
176
     1
 62
     5
 63
     7
421
 16777215
176
     1
 74
     1
176
     1
 91
        0
176
     1
 64
     7
176
     1
 65
   257
176
     1
 75
     1
176
     1
175
     1
176
     1
 42
1.0
176
     1
 92
        8
176
     1
 66
     8
424
  7895160
176
     1
 43
1.0
176
     1
 76
     1
176
     1
 77
     6
176
     1
 78
     2
176
     1
 67
     7
176
     1
 79
     5
176
     1
170
     0
176
     1
171
     0
176
     1
290
     0
176
     1
 93
       13
176
     1
 44
0.0
176
     1
173
     0
176
     1
  0
VISUALSTYLE
  5
37
102
{ACAD_REACTORS
330
2A
102
}
330
2A
100
AcDbVisualStyle
  2
Thicken
 70
    13
177
     2
291
     1
 71
     2
176
     1
 72
     2
176
     1
 73
     0
176
     1
 90
        0
176
     1
 40
-0.6
176
     1
 41
-30.0
176
     1
 62
     5
 63
     7
421
 16777215
176
     1
 74
     1
176
     1
 91
        4
176
     1
 64
     7
176
     1
 65
   257
176
     1
 75
     1
176
     1
175
     1
176
     1
 42
1.0
176
     1
 92
       12
176
     1
 66
     7
176
     1
 43
1.0
176
     1
 76
     1
176
     1
 77
     6
176
     1
 78
     2
176
     1
 67
     7
176
     1
 79
     5
176
     1
170
     0
176
     1
171
     0
176
     1
290
     0
176
     1
 93
        1
176
     1
 44
0.0
176
     1
173
     0
176
     1
  0
ENDSEC
  0
EOF
