  0
SECTION
  2
HEADER
  9
$ACADVER
  1
AC1024
  9
$ACADMAINTVER
 70
     6
  9
$DWGCODEPAGE
  3
UNDEFINED
  9
$INSBASE
 10
0.0
 20
0.0
 30
0.0
  9
$EXTMIN
 10
1.000000000000000E+20
 20
1.000000000000000E+20
 30
1.000000000000000E+20
  9
$EXTMAX
 10
-1.000000000000000E+20
 20
-1.000000000000000E+20
 30
-1.000000000000000E+20
  9
$LIMMIN
 10
0.0
 20
0.0
  9
$LIMMAX
 10
12.0
 20
9.0
  9
$ORTHOMODE
 70
     0
  9
$REGENMODE
 70
     1
  9
$FILLMODE
 70
     1
  9
$QTEXTMODE
 70
     0
  9
$MIRRTEXT
 70
     1
  9
$LTSCALE
 40
1.0
  9
$ATTMODE
 70
     1
  9
$TEXTSIZE
 40
0.2
  9
$TRACEWID
 40
0.05
  9
$TEXTSTYLE
  7
Standard
  9
$CLAYER
  8
0
  9
$CELTYPE
  6
ByLayer
  9
$CECOLOR
 62
   256
  9
$CELTSCALE
 40
1.0
  9
$DISPSILH
 70
     0
  9
$DIMSCALE
 40
1.0
  9
$DIMASZ
 40
0.18
  9
$DIMEXO
 40
0.0625
  9
$DIMDLI
 40
0.38
  9
$DIMRND
 40
0.0
  9
$DIMDLE
 40
0.0
  9
$DIMEXE
 40
0.18
  9
$DIMTP
 40
0.0
  9
$DIMTM
 40
0.0
  9
$DIMTXT
 40
0.18
  9
$DIMCEN
 40
0.09
  9
$DIMTSZ
 40
0.0
  9
$DIMTOL
 70
     0
  9
$DIMLIM
 70
     0
  9
$DIMTIH
 70
     1
  9
$DIMTOH
 70
     1
  9
$DIMSE1
 70
     0
  9
$DIMSE2
 70
     0
  9
$DIMTAD
 70
     0
  9
$DIMZIN
 70
     0
  9
$DIMBLK
  1

  9
$DIMASO
 70
     1
  9
$DIMSHO
 70
     1
  9
$DIMPOST
  1

  9
$DIMAPOST
  1

  9
$DIMALT
 70
     0
  9
$DIMALTD
 70
     2
  9
$DIMALTF
 40
25.4
  9
$DIMLFAC
 40
1.0
  9
$DIMTOFL
 70
     0
  9
$DIMTVP
 40
0.0
  9
$DIMTIX
 70
     0
  9
$DIMSOXD
 70
     0
  9
$DIMSAH
 70
     0
  9
$DIMBLK1
  1

  9
$DIMBLK2
  1

  9
$DIMSTYLE
  2
Standard
  9
$DIMCLRD
 70
     0
  9
$DIMCLRE
 70
     0
  9
$DIMCLRT
 70
     0
  9
$DIMTFAC
 40
1.0
  9
$DIMGAP
 40
0.09
  9
$DIMJUST
 70
     0
  9
$DIMSD1
 70
     0
  9
$DIMSD2
 70
     0
  9
$DIMTOLJ
 70
     1
  9
$DIMTZIN
 70
     0
  9
$DIMALTZ
 70
     0
  9
$DIMALTTZ
 70
     0
  9
$DIMUPT
 70
     0
  9
$DIMDEC
 70
     4
  9
$DIMTDEC
 70
     4
  9
$DIMALTU
 70
     2
  9
$DIMALTTD
 70
     2
  9
$DIMTXSTY
  7
Standard
  9
$DIMAUNIT
 70
     0
  9
$DIMADEC
 70
     0
  9
$DIMALTRND
 40
0.0
  9
$DIMAZIN
 70
     0
  9
$DIMDSEP
 70
    46
  9
$DIMATFIT
 70
     3
  9
$DIMFRAC
 70
     0
  9
$DIMLDRBLK
  1

  9
$DIMLUNIT
 70
     2
  9
$DIMLWD
 70
    -2
  9
$DIMLWE
 70
    -2
  9
$DIMTMOVE
 70
     0
  9
$DIMFXL
 40
1.0
  9
$DIMFXLON
 70
     0
  9
$DIMJOGANG
 40
0.7853981633974483
  9
$DIMTFILL
 70
     0
  9
$DIMTFILLCLR
 70
     0
  9
$DIMARCSYM
 70
     0
  9
$DIMLTYPE
  6

  9
$DIMLTEX1
  6

  9
$DIMLTEX2
  6

  9
$DIMTXTDIRECTION
 70
     0
  9
$LUNITS
 70
     2
  9
$LUPREC
 70
     4
  9
$SKETCHINC
 40
0.1
  9
$FILLETRAD
 40
0.5
  9
$AUNITS
 70
     0
  9
$AUPREC
 70
     0
  9
$MENU
  1
.
  9
$ELEVATION
 40
0.0
  9
$PELEVATION
 40
0.0
  9
$THICKNESS
 40
0.0
  9
$LIMCHECK
 70
     0
  9
$CHAMFERA
 40
0.5
  9
$CHAMFERB
 40
0.5
  9
$CHAMFERC
 40
1.0
  9
$CHAMFERD
 40
0.0
  9
$SKPOLY
 70
     0
  9
$TDCREATE
 40
2458759.484791667
  9
$TDUCREATE
 40
2458759.109791667
  9
$TDUPDATE
 40
2458759.484791667
  9
$TDUUPDATE
 40
2458759.109791667
  9
$TDINDWG
 40
0.0000000116
  9
$TDUSRTIMER
 40
0.0000000116
  9
$USRTIMER
 70
     1
  9
$ANGBASE
 50
0.0
  9
$ANGDIR
 70
     0
  9
$PDMODE
 70
     0
  9
$PDSIZE
 40
0.0
  9
$PLINEWID
 40
0.0
  9
$SPLFRAME
 70
     0
  9
$SPLINETYPE
 70
     6
  9
$SPLINESEGS
 70
     8
  9
$HANDSEED
  5
2D0
  9
$SURFTAB1
 70
     6
  9
$SURFTAB2
 70
     6
  9
$SURFTYPE
 70
     6
  9
$SURFU
 70
     6
  9
$SURFV
 70
     6
  9
$UCSBASE
  2

  9
$UCSNAME
  2

  9
$UCSORG
 10
0.0
 20
0.0
 30
0.0
  9
$UCSXDIR
 10
1.0
 20
0.0
 30
0.0
  9
$UCSYDIR
 10
0.0
 20
1.0
 30
0.0
  9
$UCSORTHOREF
  2

  9
$UCSORTHOVIEW
 70
     0
  9
$UCSORGTOP
 10
0.0
 20
0.0
 30
0.0
  9
$UCSORGBOTTOM
 10
0.0
 20
0.0
 30
0.0
  9
$UCSORGLEFT
 10
0.0
 20
0.0
 30
0.0
  9
$UCSORGRIGHT
 10
0.0
 20
0.0
 30
0.0
  9
$UCSORGFRONT
 10
0.0
 20
0.0
 30
0.0
  9
$UCSORGBACK
 10
0.0
 20
0.0
 30
0.0
  9
$PUCSBASE
  2

  9
$PUCSNAME
  2

  9
$PUCSORG
 10
0.0
 20
0.0
 30
0.0
  9
$PUCSXDIR
 10
1.0
 20
0.0
 30
0.0
  9
$PUCSYDIR
 10
0.0
 20
1.0
 30
0.0
  9
$PUCSORTHOREF
  2

  9
$PUCSORTHOVIEW
 70
     0
  9
$PUCSORGTOP
 10
0.0
 20
0.0
 30
0.0
  9
$PUCSORGBOTTOM
 10
0.0
 20
0.0
 30
0.0
  9
$PUCSORGLEFT
 10
0.0
 20
0.0
 30
0.0
  9
$PUCSORGRIGHT
 10
0.0
 20
0.0
 30
0.0
  9
$PUCSORGFRONT
 10
0.0
 20
0.0
 30
0.0
  9
$PUCSORGBACK
 10
0.0
 20
0.0
 30
0.0
  9
$USERI1
 70
     0
  9
$USERI2
 70
     0
  9
$USERI3
 70
     0
  9
$USERI4
 70
     0
  9
$USERI5
 70
     0
  9
$USERR1
 40
0.0
  9
$USERR2
 40
0.0
  9
$USERR3
 40
0.0
  9
$USERR4
 40
0.0
  9
$USERR5
 40
0.0
  9
$WORLDVIEW
 70
     1
  9
$SHADEDGE
 70
     3
  9
$SHADEDIF
 70
    70
  9
$TILEMODE
 70
     1
  9
$MAXACTVP
 70
    64
  9
$PINSBASE
 10
0.0
 20
0.0
 30
0.0
  9
$PLIMCHECK
 70
     0
  9
$PEXTMIN
 10
1.000000000000000E+20
 20
1.000000000000000E+20
 30
1.000000000000000E+20
  9
$PEXTMAX
 10
-1.000000000000000E+20
 20
-1.000000000000000E+20
 30
-1.000000000000000E+20
  9
$PLIMMIN
 10
0.0
 20
0.0
  9
$PLIMMAX
 10
12.0
 20
9.0
  9
$UNITMODE
 70
     0
  9
$VISRETAIN
 70
     1
  9
$PLINEGEN
 70
     0
  9
$PSLTSCALE
 70
     1
  9
$TREEDEPTH
 70
  3020
  9
$CMLSTYLE
  2
Standard
  9
$CMLJUST
 70
     0
  9
$CMLSCALE
 40
1.0
  9
$PROXYGRAPHICS
 70
     1
  9
$MEASUREMENT
 70
     0
  9
$CELWEIGHT
370
    -1
  9
$ENDCAPS
280
     0
  9
$JOINSTYLE
280
     0
  9
$LWDISPLAY
290
     1
  9
$INSUNITS
 70
     1
  9
$HYPERLINKBASE
  1

  9
$STYLESHEET
  1

  9
$XEDIT
290
     1
  9
$CEPSNTYPE
380
     0
  9
$PSTYLEMODE
290
     1
  9
$FINGERPRINTGUID
  2
{27F7F6D8-13A9-93BB-718F-92230096C9A2}
  9
$VERSIONGUID
  2
{FAEB1C32-E019-11D5-929B-00C0DF256EC4}
  9
$EXTNAMES
290
     1
  9
$PSVPSCALE
 40
0.0
  9
$OLESTARTUP
290
     0
  9
$SORTENTS
280
   127
  9
$INDEXCTL
280
     0
  9
$HIDETEXT
280
     1
  9
$XCLIPFRAME
280
     2
  9
$HALOGAP
280
     0
  9
$OBSCOLOR
 70
   257
  9
$OBSLTYPE
280
     0
  9
$INTERSECTIONDISPLAY
280
     0
  9
$INTERSECTIONCOLOR
 70
   257
  9
$DIMASSOC
280
     2
  9
$PROJECTNAME
  1

  9
$CAMERADISPLAY
290
     0
  9
$LENSLENGTH
 40
50.0
  9
$CAMERAHEIGHT
 40
0.0
  9
$STEPSPERSEC
 40
2.0
  9
$STEPSIZE
 40
6.0
  9
$3DDWFPREC
 40
2.0
  9
$PSOLWIDTH
 40
0.25
  9
$PSOLHEIGHT
 40
4.0
  9
$LOFTANG1
 40
1.570796326794897
  9
$LOFTANG2
 40
1.570796326794897
  9
$LOFTMAG1
 40
0.0
  9
$LOFTMAG2
 40
0.0
  9
$LOFTPARAM
 70
     7
  9
$LOFTNORMALS
280
     1
  9
$LATITUDE
 40
37.795
  9
$LONGITUDE
 40
-122.394
  9
$NORTHDIRECTION
 40
0.0
  9
$TIMEZONE
 70
 -8000
  9
$LIGHTGLYPHDISPLAY
280
     1
  9
$TILEMODELIGHTSYNCH
280
     1
  9
$CMATERIAL
347
3C
  9
$SOLIDHIST
280
     1
  9
$SHOWHIST
280
     1
  9
$DWFFRAME
280
     2
  9
$DGNFRAME
280
     2
  9
$REALWORLDSCALE
290
     1
  9
$INTERFERECOLOR
 62
   256
  9
$CSHADOW
280
     0
  9
$SHADOWPLANELOCATION
 40
0.0
  0
ENDSEC
  0
SECTION
  2
CLASSES
  0
CLASS
  1
ACDBDICTIONARYWDFLT
  2
AcDbDictionaryWithDefault
  3
ObjectDBX Classes
 90
        0
 91
        4
280
     0
281
     0
  0
CLASS
  1
VISUALSTYLE
  2
AcDbVisualStyle
  3
ObjectDBX Classes
 90
     4095
 91
        4
280
     0
281
     0
  0
CLASS
  1
MATERIAL
  2
AcDbMaterial
  3
ObjectDBX Classes
 90
     1153
 91
        4
280
     0
281
     0
  0
CLASS
  1
SUN
  2
AcDbSun
  3
SCENEOE
 90
     1024
 91
        4
280
     0
281
     0
  0
ENDSEC
  0
SECTION
  2
TABLES
  0
TABLE
  2
VPORT
  5
8
330
0
100
AcDbSymbolTable
 70
     1
  0
VPORT
  5
29
330
8
100
AcDbSymbolTableRecord
100
AcDbViewportTableRecord
  2
*Active
 70
     0
 10
0.0
 20
0.0
 11
1.0
 21
1.0
 12
0.0
 22
0.0
 13
0.0
 23
0.0
 14
0.5
 24
0.5
 15
0.5
 25
0.5
 16
0.0
 26
0.0
 36
1.0
 17
-0.0000000000000124
 27
0.0
 37
0.0
 40
8.26771653543306
 41
1.414285714285718
 42
50.0
 43
0.0
 44
0.0
 50
0.0
 51
0.0
 71
     0
 72
   100
 73
     1
 74
     3
 75
     0
 76
     0
 77
     0
 78
     0
281
     0
 65
     1
110
0.0
120
0.0
130
0.0
111
1.0
121
0.0
131
0.0
112
0.0
122
1.0
132
0.0
 79
     0
146
0.0
 60
     3
 61
     5
292
     1
282
     1
141
0.0
142
0.0
 63
   250
361
3F
  0
ENDTAB
  0
TABLE
  2
LTYPE
  5
5
330
0
100
AcDbSymbolTable
 70
     1
  0
LTYPE
  5
14
330
5
100
AcDbSymbolTableRecord
100
AcDbLinetypeTableRecord
  2
ByBlock
 70
     0
  3

 72
    65
 73
     0
 40
0.0
  0
LTYPE
  5
15
330
5
100
AcDbSymbolTableRecord
100
AcDbLinetypeTableRecord
  2
ByLayer
 70
     0
  3

 72
    65
 73
     0
 40
0.0
  0
LTYPE
  5
16
330
5
100
AcDbSymbolTableRecord
100
AcDbLinetypeTableRecord
  2
Continuous
 70
     0
  3
Solid line
 72
    65
 73
     0
 40
0.0
  0
ENDTAB
  0
TABLE
  2
LAYER
  5
2
330
0
100
AcDbSymbolTable
 70
     3
  0
LAYER
  5
10
330
2
100
AcDbSymbolTableRecord
100
AcDbLayerTableRecord
  2
0
 70
     0
 62
     7
  6
Continuous
370
    -3
390
F
347
3E
  0
LAYER
  5
40
330
2
100
AcDbSymbolTableRecord
100
AcDbLayerTableRecord
  2
_U+5F6B_U+523B_U+30D1_U+30B9
 70
     0
 62
     7
  6
Continuous
370
    -3
390
F
347
3E
  0
LAYER
  5
58
330
2
100
AcDbSymbolTableRecord
100
AcDbLayerTableRecord
  2
_U+5207_U+65AD_U+30D1_U+30B9
 70
     0
 62
     7
  6
Continuous
370
    -3
390
F
347
3E
  0
ENDTAB
  0
TABLE
  2
STYLE
  5
3
330
0
100
AcDbSymbolTable
 70
     1
  0
STYLE
  5
11
330
3
100
AcDbSymbolTableRecord
100
AcDbTextStyleTableRecord
  2
Standard
 70
     0
 40
0.0
 41
1.0
 50
0.0
 71
     0
 42
0.2
  3
txt
  4

  0
ENDTAB
  0
TABLE
  2
VIEW
  5
6
330
0
100
AcDbSymbolTable
 70
     0
  0
ENDTAB
  0
TABLE
  2
UCS
  5
7
330
0
100
AcDbSymbolTable
 70
     0
  0
ENDTAB
  0
TABLE
  2
APPID
  5
9
330
0
100
AcDbSymbolTable
 70
     1
  0
APPID
  5
12
330
9
100
AcDbSymbolTableRecord
100
AcDbRegAppTableRecord
  2
ACAD
 70
     0
  0
ENDTAB
  0
TABLE
  2
DIMSTYLE
  5
A
330
0
100
AcDbSymbolTable
 70
     1
100
AcDbDimStyleTable
  0
DIMSTYLE
105
27
330
A
100
AcDbSymbolTableRecord
100
AcDbDimStyleTableRecord
  2
Standard
 70
     0
178
     0
340
11
  0
ENDTAB
  0
TABLE
  2
BLOCK_RECORD
  5
1
330
0
100
AcDbSymbolTable
 70
    79
  0
BLOCK_RECORD
  5
1F
330
1
100
AcDbSymbolTableRecord
100
AcDbBlockTableRecord
  2
*Model_Space
340
22
 70
     0
280
     1
281
     0
  0
BLOCK_RECORD
  5
1B
330
1
100
AcDbSymbolTableRecord
100
AcDbBlockTableRecord
  2
*Paper_Space
340
1E
 70
     0
280
     1
281
     0
  0
BLOCK_RECORD
  5
23
330
1
100
AcDbSymbolTableRecord
100
AcDbBlockTableRecord
  2
*Paper_Space0
340
26
 70
     0
280
     1
281
     0
  0
BLOCK_RECORD
  5
43
330
1
100
AcDbSymbolTableRecord
100
AcDbBlockTableRecord
  2
block 2
340
0
102
{BLKREFS
331
44
102
}
 70
     0
280
     1
281
     0
  0
BLOCK_RECORD
  5
4E
330
1
100
AcDbSymbolTableRecord
100
AcDbBlockTableRecord
  2
block 3
340
0
102
{BLKREFS
331
4F
102
}
 70
     0
280
     1
281
     0
  0
BLOCK_RECORD
  5
59
330
1
100
AcDbSymbolTableRecord
100
AcDbBlockTableRecord
  2
block 4
340
0
102
{BLKREFS
331
5A
102
}
 70
     0
280
     1
281
     0
  0
BLOCK_RECORD
  5
5E
330
1
100
AcDbSymbolTableRecord
100
AcDbBlockTableRecord
  2
block 5
340
0
102
{BLKREFS
331
5F
102
}
 70
     0
280
     1
281
     0
  0
BLOCK_RECORD
  5
63
330
1
100
AcDbSymbolTableRecord
100
AcDbBlockTableRecord
  2
block 6
340
0
102
{BLKREFS
331
64
102
}
 70
     0
280
     1
281
     0
  0
BLOCK_RECORD
  5
68
330
1
100
AcDbSymbolTableRecord
100
AcDbBlockTableRecord
  2
block 7
340
0
102
{BLKREFS
331
69
102
}
 70
     0
280
     1
281
     0
  0
BLOCK_RECORD
  5
6D
330
1
100
AcDbSymbolTableRecord
100
AcDbBlockTableRecord
  2
block 8
340
0
102
{BLKREFS
331
6E
102
}
 70
     0
280
     1
281
     0
  0
BLOCK_RECORD
  5
72
330
1
100
AcDbSymbolTableRecord
100
AcDbBlockTableRecord
  2
block 9
340
0
102
{BLKREFS
331
73
102
}
 70
     0
280
     1
281
     0
  0
BLOCK_RECORD
  5
77
330
1
100
AcDbSymbolTableRecord
100
AcDbBlockTableRecord
  2
block 10
340
0
102
{BLKREFS
331
78
102
}
 70
     0
280
     1
281
     0
  0
BLOCK_RECORD
  5
7B
330
1
100
AcDbSymbolTableRecord
100
AcDbBlockTableRecord
  2
block 11
340
0
102
{BLKREFS
331
7C
102
}
 70
     0
280
     1
281
     0
  0
BLOCK_RECORD
  5
80
330
1
100
AcDbSymbolTableRecord
100
AcDbBlockTableRecord
  2
block 12
340
0
102
{BLKREFS
331
81
102
}
 70
     0
280
     1
281
     0
  0
BLOCK_RECORD
  5
85
330
1
100
AcDbSymbolTableRecord
100
AcDbBlockTableRecord
  2
block 13
340
0
102
{BLKREFS
331
86
102
}
 70
     0
280
     1
281
     0
  0
BLOCK_RECORD
  5
8A
330
1
100
AcDbSymbolTableRecord
100
AcDbBlockTableRecord
  2
block 14
340
0
102
{BLKREFS
331
8B
102
}
 70
     0
280
     1
281
     0
  0
BLOCK_RECORD
  5
8F
330
1
100
AcDbSymbolTableRecord
100
AcDbBlockTableRecord
  2
block 15
340
0
102
{BLKREFS
331
90
102
}
 70
     0
280
     1
281
     0
  0
BLOCK_RECORD
  5
94
330
1
100
AcDbSymbolTableRecord
100
AcDbBlockTableRecord
  2
block 16
340
0
102
{BLKREFS
331
95
102
}
 70
     0
280
     1
281
     0
  0
BLOCK_RECORD
  5
99
330
1
100
AcDbSymbolTableRecord
100
AcDbBlockTableRecord
  2
block 17
340
0
102
{BLKREFS
331
9A
102
}
 70
     0
280
     1
281
     0
  0
BLOCK_RECORD
  5
A4
330
1
100
AcDbSymbolTableRecord
100
AcDbBlockTableRecord
  2
block 18
340
0
102
{BLKREFS
331
A5
102
}
 70
     0
280
     1
281
     0
  0
BLOCK_RECORD
  5
AF
330
1
100
AcDbSymbolTableRecord
100
AcDbBlockTableRecord
  2
block 19
340
0
102
{BLKREFS
331
B0
102
}
 70
     0
280
     1
281
     0
  0
BLOCK_RECORD
  5
BA
330
1
100
AcDbSymbolTableRecord
100
AcDbBlockTableRecord
  2
block 20
340
0
102
{BLKREFS
331
BB
102
}
 70
     0
280
     1
281
     0
  0
BLOCK_RECORD
  5
C5
330
1
100
AcDbSymbolTableRecord
100
AcDbBlockTableRecord
  2
block 21
340
0
102
{BLKREFS
331
C6
102
}
 70
     0
280
     1
281
     0
  0
BLOCK_RECORD
  5
D0
330
1
100
AcDbSymbolTableRecord
100
AcDbBlockTableRecord
  2
block 22
340
0
102
{BLKREFS
331
D1
102
}
 70
     0
280
     1
281
     0
  0
BLOCK_RECORD
  5
DB
330
1
100
AcDbSymbolTableRecord
100
AcDbBlockTableRecord
  2
block 23
340
0
102
{BLKREFS
331
DC
102
}
 70
     0
280
     1
281
     0
  0
BLOCK_RECORD
  5
E6
330
1
100
AcDbSymbolTableRecord
100
AcDbBlockTableRecord
  2
block 24
340
0
102
{BLKREFS
331
E7
102
}
 70
     0
280
     1
281
     0
  0
BLOCK_RECORD
  5
F1
330
1
100
AcDbSymbolTableRecord
100
AcDbBlockTableRecord
  2
block 25
340
0
102
{BLKREFS
331
F2
102
}
 70
     0
280
     1
281
     0
  0
BLOCK_RECORD
  5
FC
330
1
100
AcDbSymbolTableRecord
100
AcDbBlockTableRecord
  2
block 26
340
0
102
{BLKREFS
331
FD
102
}
 70
     0
280
     1
281
     0
  0
BLOCK_RECORD
  5
107
330
1
100
AcDbSymbolTableRecord
100
AcDbBlockTableRecord
  2
block 27
340
0
102
{BLKREFS
331
108
102
}
 70
     0
280
     1
281
     0
  0
BLOCK_RECORD
  5
112
330
1
100
AcDbSymbolTableRecord
100
AcDbBlockTableRecord
  2
block 28
340
0
102
{BLKREFS
331
113
102
}
 70
     0
280
     1
281
     0
  0
BLOCK_RECORD
  5
11D
330
1
100
AcDbSymbolTableRecord
100
AcDbBlockTableRecord
  2
block 29
340
0
102
{BLKREFS
331
11E
102
}
 70
     0
280
     1
281
     0
  0
BLOCK_RECORD
  5
128
330
1
100
AcDbSymbolTableRecord
100
AcDbBlockTableRecord
  2
block 30
340
0
102
{BLKREFS
331
129
102
}
 70
     0
280
     1
281
     0
  0
BLOCK_RECORD
  5
133
330
1
100
AcDbSymbolTableRecord
100
AcDbBlockTableRecord
  2
block 31
340
0
102
{BLKREFS
331
134
102
}
 70
     0
280
     1
281
     0
  0
BLOCK_RECORD
  5
13E
330
1
100
AcDbSymbolTableRecord
100
AcDbBlockTableRecord
  2
block 32
340
0
102
{BLKREFS
331
13F
102
}
 70
     0
280
     1
281
     0
  0
BLOCK_RECORD
  5
149
330
1
100
AcDbSymbolTableRecord
100
AcDbBlockTableRecord
  2
block 33
340
0
102
{BLKREFS
331
14A
102
}
 70
     0
280
     1
281
     0
  0
BLOCK_RECORD
  5
154
330
1
100
AcDbSymbolTableRecord
100
AcDbBlockTableRecord
  2
block 34
340
0
102
{BLKREFS
331
155
102
}
 70
     0
280
     1
281
     0
  0
BLOCK_RECORD
  5
15F
330
1
100
AcDbSymbolTableRecord
100
AcDbBlockTableRecord
  2
block 35
340
0
102
{BLKREFS
331
160
102
}
 70
     0
280
     1
281
     0
  0
BLOCK_RECORD
  5
16A
330
1
100
AcDbSymbolTableRecord
100
AcDbBlockTableRecord
  2
block 36
340
0
102
{BLKREFS
331
16B
102
}
 70
     0
280
     1
281
     0
  0
BLOCK_RECORD
  5
175
330
1
100
AcDbSymbolTableRecord
100
AcDbBlockTableRecord
  2
block 37
340
0
102
{BLKREFS
331
176
102
}
 70
     0
280
     1
281
     0
  0
BLOCK_RECORD
  5
180
330
1
100
AcDbSymbolTableRecord
100
AcDbBlockTableRecord
  2
block 38
340
0
102
{BLKREFS
331
181
102
}
 70
     0
280
     1
281
     0
  0
BLOCK_RECORD
  5
185
330
1
100
AcDbSymbolTableRecord
100
AcDbBlockTableRecord
  2
block 39
340
0
102
{BLKREFS
331
186
102
}
 70
     0
280
     1
281
     0
  0
BLOCK_RECORD
  5
18A
330
1
100
AcDbSymbolTableRecord
100
AcDbBlockTableRecord
  2
block 40
340
0
102
{BLKREFS
331
18B
102
}
 70
     0
280
     1
281
     0
  0
BLOCK_RECORD
  5
18F
330
1
100
AcDbSymbolTableRecord
100
AcDbBlockTableRecord
  2
block 41
340
0
102
{BLKREFS
331
190
102
}
 70
     0
280
     1
281
     0
  0
BLOCK_RECORD
  5
194
330
1
100
AcDbSymbolTableRecord
100
AcDbBlockTableRecord
  2
block 42
340
0
102
{BLKREFS
331
195
102
}
 70
     0
280
     1
281
     0
  0
BLOCK_RECORD
  5
199
330
1
100
AcDbSymbolTableRecord
100
AcDbBlockTableRecord
  2
block 43
340
0
102
{BLKREFS
331
19A
102
}
 70
     0
280
     1
281
     0
  0
BLOCK_RECORD
  5
19E
330
1
100
AcDbSymbolTableRecord
100
AcDbBlockTableRecord
  2
block 44
340
0
102
{BLKREFS
331
19F
102
}
 70
     0
280
     1
281
     0
  0
BLOCK_RECORD
  5
1A2
330
1
100
AcDbSymbolTableRecord
100
AcDbBlockTableRecord
  2
block 45
340
0
102
{BLKREFS
331
1A3
102
}
 70
     0
280
     1
281
     0
  0
BLOCK_RECORD
  5
1A7
330
1
100
AcDbSymbolTableRecord
100
AcDbBlockTableRecord
  2
block 46
340
0
102
{BLKREFS
331
1A8
102
}
 70
     0
280
     1
281
     0
  0
BLOCK_RECORD
  5
1AC
330
1
100
AcDbSymbolTableRecord
100
AcDbBlockTableRecord
  2
block 47
340
0
102
{BLKREFS
331
1AD
102
}
 70
     0
280
     1
281
     0
  0
BLOCK_RECORD
  5
1B1
330
1
100
AcDbSymbolTableRecord
100
AcDbBlockTableRecord
  2
block 48
340
0
102
{BLKREFS
331
1B2
102
}
 70
     0
280
     1
281
     0
  0
BLOCK_RECORD
  5
1B6
330
1
100
AcDbSymbolTableRecord
100
AcDbBlockTableRecord
  2
block 49
340
0
102
{BLKREFS
331
1B7
102
}
 70
     0
280
     1
281
     0
  0
BLOCK_RECORD
  5
1BB
330
1
100
AcDbSymbolTableRecord
100
AcDbBlockTableRecord
  2
block 50
340
0
102
{BLKREFS
331
1BC
102
}
 70
     0
280
     1
281
     0
  0
BLOCK_RECORD
  5
1C0
330
1
100
AcDbSymbolTableRecord
100
AcDbBlockTableRecord
  2
block 51
340
0
102
{BLKREFS
331
1C1
102
}
 70
     0
280
     1
281
     0
  0
BLOCK_RECORD
  5
1CB
330
1
100
AcDbSymbolTableRecord
100
AcDbBlockTableRecord
  2
block 52
340
0
102
{BLKREFS
331
1CC
102
}
 70
     0
280
     1
281
     0
  0
BLOCK_RECORD
  5
1D6
330
1
100
AcDbSymbolTableRecord
100
AcDbBlockTableRecord
  2
block 53
340
0
102
{BLKREFS
331
1D7
102
}
 70
     0
280
     1
281
     0
  0
BLOCK_RECORD
  5
1E1
330
1
100
AcDbSymbolTableRecord
100
AcDbBlockTableRecord
  2
block 54
340
0
102
{BLKREFS
331
1E2
102
}
 70
     0
280
     1
281
     0
  0
BLOCK_RECORD
  5
1EC
330
1
100
AcDbSymbolTableRecord
100
AcDbBlockTableRecord
  2
block 55
340
0
102
{BLKREFS
331
1ED
102
}
 70
     0
280
     1
281
     0
  0
BLOCK_RECORD
  5
1F7
330
1
100
AcDbSymbolTableRecord
100
AcDbBlockTableRecord
  2
block 56
340
0
102
{BLKREFS
331
1F8
102
}
 70
     0
280
     1
281
     0
  0
BLOCK_RECORD
  5
202
330
1
100
AcDbSymbolTableRecord
100
AcDbBlockTableRecord
  2
block 57
340
0
102
{BLKREFS
331
203
102
}
 70
     0
280
     1
281
     0
  0
BLOCK_RECORD
  5
20D
330
1
100
AcDbSymbolTableRecord
100
AcDbBlockTableRecord
  2
block 58
340
0
102
{BLKREFS
331
20E
102
}
 70
     0
280
     1
281
     0
  0
BLOCK_RECORD
  5
218
330
1
100
AcDbSymbolTableRecord
100
AcDbBlockTableRecord
  2
block 59
340
0
102
{BLKREFS
331
219
102
}
 70
     0
280
     1
281
     0
  0
BLOCK_RECORD
  5
223
330
1
100
AcDbSymbolTableRecord
100
AcDbBlockTableRecord
  2
block 60
340
0
102
{BLKREFS
331
224
102
}
 70
     0
280
     1
281
     0
  0
BLOCK_RECORD
  5
22E
330
1
100
AcDbSymbolTableRecord
100
AcDbBlockTableRecord
  2
block 61
340
0
102
{BLKREFS
331
22F
102
}
 70
     0
280
     1
281
     0
  0
BLOCK_RECORD
  5
239
330
1
100
AcDbSymbolTableRecord
100
AcDbBlockTableRecord
  2
block 62
340
0
102
{BLKREFS
331
23A
102
}
 70
     0
280
     1
281
     0
  0
BLOCK_RECORD
  5
244
330
1
100
AcDbSymbolTableRecord
100
AcDbBlockTableRecord
  2
block 63
340
0
102
{BLKREFS
331
245
102
}
 70
     0
280
     1
281
     0
  0
BLOCK_RECORD
  5
24F
330
1
100
AcDbSymbolTableRecord
100
AcDbBlockTableRecord
  2
block 64
340
0
102
{BLKREFS
331
250
102
}
 70
     0
280
     1
281
     0
  0
BLOCK_RECORD
  5
25A
330
1
100
AcDbSymbolTableRecord
100
AcDbBlockTableRecord
  2
block 65
340
0
102
{BLKREFS
331
25B
102
}
 70
     0
280
     1
281
     0
  0
BLOCK_RECORD
  5
265
330
1
100
AcDbSymbolTableRecord
100
AcDbBlockTableRecord
  2
block 66
340
0
102
{BLKREFS
331
266
102
}
 70
     0
280
     1
281
     0
  0
BLOCK_RECORD
  5
270
330
1
100
AcDbSymbolTableRecord
100
AcDbBlockTableRecord
  2
block 67
340
0
102
{BLKREFS
331
271
102
}
 70
     0
280
     1
281
     0
  0
BLOCK_RECORD
  5
27B
330
1
100
AcDbSymbolTableRecord
100
AcDbBlockTableRecord
  2
block 68
340
0
102
{BLKREFS
331
27C
102
}
 70
     0
280
     1
281
     0
  0
BLOCK_RECORD
  5
286
330
1
100
AcDbSymbolTableRecord
100
AcDbBlockTableRecord
  2
block 69
340
0
102
{BLKREFS
331
287
102
}
 70
     0
280
     1
281
     0
  0
BLOCK_RECORD
  5
291
330
1
100
AcDbSymbolTableRecord
100
AcDbBlockTableRecord
  2
block 70
340
0
102
{BLKREFS
331
292
102
}
 70
     0
280
     1
281
     0
  0
BLOCK_RECORD
  5
29C
330
1
100
AcDbSymbolTableRecord
100
AcDbBlockTableRecord
  2
block 71
340
0
102
{BLKREFS
331
29D
102
}
 70
     0
280
     1
281
     0
  0
BLOCK_RECORD
  5
2A7
330
1
100
AcDbSymbolTableRecord
100
AcDbBlockTableRecord
  2
block 72
340
0
102
{BLKREFS
331
2A8
102
}
 70
     0
280
     1
281
     0
  0
BLOCK_RECORD
  5
2AB
330
1
100
AcDbSymbolTableRecord
100
AcDbBlockTableRecord
  2
block 73
340
0
102
{BLKREFS
331
2AC
102
}
 70
     0
280
     1
281
     0
  0
BLOCK_RECORD
  5
2B0
330
1
100
AcDbSymbolTableRecord
100
AcDbBlockTableRecord
  2
block 74
340
0
102
{BLKREFS
331
2B1
102
}
 70
     0
280
     1
281
     0
  0
BLOCK_RECORD
  5
2B5
330
1
100
AcDbSymbolTableRecord
100
AcDbBlockTableRecord
  2
block 75
340
0
102
{BLKREFS
331
2B6
102
}
 70
     0
280
     1
281
     0
  0
BLOCK_RECORD
  5
2BA
330
1
100
AcDbSymbolTableRecord
100
AcDbBlockTableRecord
  2
block 76
340
0
102
{BLKREFS
331
2BB
102
}
 70
     0
280
     1
281
     0
  0
BLOCK_RECORD
  5
2BE
330
1
100
AcDbSymbolTableRecord
100
AcDbBlockTableRecord
  2
block 77
340
0
102
{BLKREFS
331
2BF
102
}
 70
     0
280
     1
281
     0
  0
BLOCK_RECORD
  5
2C3
330
1
100
AcDbSymbolTableRecord
100
AcDbBlockTableRecord
  2
block 78
340
0
102
{BLKREFS
331
2C4
102
}
 70
     0
280
     1
281
     0
  0
BLOCK_RECORD
  5
2C8
330
1
100
AcDbSymbolTableRecord
100
AcDbBlockTableRecord
  2
block 79
340
0
102
{BLKREFS
331
2C9
102
}
 70
     0
280
     1
281
     0
  0
ENDTAB
  0
ENDSEC
  0
SECTION
  2
BLOCKS
  0
BLOCK
  5
20
330
1F
100
AcDbEntity
  8
0
100
AcDbBlockBegin
  2
*Model_Space
 70
     0
 10
0.0
 20
0.0
 30
0.0
  3
*Model_Space
  1

  0
ENDBLK
  5
21
330
1F
100
AcDbEntity
  8
0
100
AcDbBlockEnd
  0
BLOCK
  5
1C
330
1B
100
AcDbEntity
 67
     1
  8
0
100
AcDbBlockBegin
  2
*Paper_Space
 70
     0
 10
0.0
 20
0.0
 30
0.0
  3
*Paper_Space
  1

  0
ENDBLK
  5
1D
330
1B
100
AcDbEntity
 67
     1
  8
0
100
AcDbBlockEnd
  0
BLOCK
  5
24
330
23
100
AcDbEntity
  8
0
100
AcDbBlockBegin
  2
*Paper_Space0
 70
     0
 10
0.0
 20
0.0
 30
0.0
  3
*Paper_Space0
  1

  0
ENDBLK
  5
25
330
23
100
AcDbEntity
  8
0
100
AcDbBlockEnd
  0
BLOCK
  5
45
330
43
100
AcDbEntity
  8
0
100
AcDbBlockBegin
  2
block 2
 70
     0
 10
0.0
 20
0.0
 30
0.0
  3
block 2
  1

  0
SPLINE
  5
47
330
43
100
AcDbEntity
  8
_U+5F6B_U+523B_U+30D1_U+30B9
 62
     7
420
 16777215
370
    50
100
AcDbSpline
210
0.0
220
0.0
230
1.0
 70
     8
 71
     3
 72
    17
 73
    13
 74
     0
 42
0.0000000001
 43
0.0000000001
 12
1.0
 22
0.0
 32
0.0
 13
1.0
 23
0.0
 33
0.0
 40
0.0
 40
0.0
 40
0.0
 40
0.0
 40
1.0
 40
1.0
 40
1.0
 40
2.0
 40
2.0
 40
2.0
 40
3.0
 40
3.0
 40
3.0
 40
4.0
 40
4.0
 40
4.0
 40
4.0
 10
-4.649374888344318
 20
1.850036932699545
 30
0.0
 10
-4.656874224776086
 20
1.877259529294709
 30
0.0
 10
-4.680038847696235
 20
1.890524721202761
 30
0.0
 10
-4.703475143076452
 20
1.890524721202761
 30
0.0
 10
-4.732243545273503
 20
1.890524721202761
 30
0.0
 10
-4.761591390601388
 20
1.870619062884341
 30
0.0
 10
-4.761591390601388
 20
1.829841454460923
 30
0.0
 10
-4.761591390601388
 20
1.788781745205521
 30
0.0
 10
-4.732525378711405
 20
1.768876122229408
 30
0.0
 10
-4.703193042244404
 20
1.768876122229408
 30
0.0
 10
-4.679728100533023
 20
1.768876122229408
 30
0.0
 10
-4.656874224776086
 20
1.782157055050195
 30
0.0
 10
-4.649374888344318
 20
1.809280181020211
 30
0.0
  0
SPLINE
  5
48
330
43
100
AcDbEntity
  8
_U+5F6B_U+523B_U+30D1_U+30B9
 62
     7
420
 16777215
370
    50
100
AcDbSpline
210
0.0
220
0.0
230
1.0
 70
    11
 71
     3
 72
    17
 73
    13
 74
     0
 42
0.0000000001
 43
0.0000000001
 12
1.0
 22
0.0
 32
0.0
 13
1.0
 23
0.0
 33
0.0
 40
0.0
 40
0.0
 40
0.0
 40
0.0
 40
1.0
 40
1.0
 40
1.0
 40
2.0
 40
2.0
 40
2.0
 40
3.0
 40
3.0
 40
3.0
 40
4.0
 40
4.0
 40
4.0
 40
4.0
 10
-4.512061038224866
 20
1.768876122229408
 30
0.0
 10
-4.481125406412906
 20
1.768505246538426
 30
0.0
 10
-4.450134691405297
 20
1.789092457212013
 30
0.0
 10
-4.450134691405297
 20
1.829554273139971
 30
0.0
 10
-4.450134691405297
 20
1.870047106789773
 30
0.0
 10
-4.480817100953837
 20
1.890524721202761
 30
0.0
 10
-4.511201900809371
 20
1.890524721202761
 30
0.0
 10
-4.542163737248416
 20
1.890524721202761
 30
0.0
 10
-4.572830637935971
 20
1.870329207621808
 30
0.0
 10
-4.572830637935971
 20
1.829554273139971
 30
0.0
 10
-4.572830637935971
 20
1.789374558044023
 30
0.0
 10
-4.542461614335517
 20
1.769171057980834
 30
0.0
 10
-4.512061038224866
 20
1.768876122229408
 30
0.0
  0
SPLINE
  5
49
330
43
100
AcDbEntity
  8
_U+5F6B_U+523B_U+30D1_U+30B9
 62
     7
420
 16777215
370
    50
100
AcDbSpline
210
0.0
220
0.0
230
1.0
 70
     8
 71
     3
 72
    11
 73
     7
 74
     0
 42
0.0000000001
 43
0.0000000001
 12
1.0
 22
0.0
 32
0.0
 13
1.0
 23
0.0
 33
0.0
 40
0.0
 40
0.0
 40
0.0
 40
0.0
 40
1.0
 40
1.0
 40
1.0
 40
2.0
 40
2.0
 40
2.0
 40
2.0
 10
-4.296203096822309
 20
1.888984228141604
 30
0.0
 10
-4.331436822259207
 20
1.899387465081367
 30
0.0
 10
-4.364921255143246
 20
1.873783940086266
 30
0.0
 10
-4.364921255143246
 20
1.836847448679312
 30
0.0
 10
-4.364921255143246
 20
1.836847448679312
 30
0.0
 10
-4.364921255143246
 20
1.766380661670332
 30
0.0
 10
-4.364921255143246
 20
1.766380661670332
 30
0.0
  0
SPLINE
  5
4A
330
43
100
AcDbEntity
  8
_U+5F6B_U+523B_U+30D1_U+30B9
 62
     7
420
 16777215
370
    50
100
AcDbSpline
210
0.0
220
0.0
230
1.0
 70
     8
 71
     3
 72
    17
 73
    13
 74
     0
 42
0.0000000001
 43
0.0000000001
 12
1.0
 22
0.0
 32
0.0
 13
1.0
 23
0.0
 33
0.0
 40
0.0
 40
0.0
 40
0.0
 40
0.0
 40
1.0
 40
1.0
 40
1.0
 40
2.0
 40
2.0
 40
2.0
 40
3.0
 40
3.0
 40
3.0
 40
4.0
 40
4.0
 40
4.0
 40
4.0
 10
-4.148739232026539
 20
1.766380661670332
 30
0.0
 10
-4.148739232026539
 20
1.766380661670332
 30
0.0
 10
-4.148739232026539
 20
1.835816109428833
 30
0.0
 10
-4.148739232026539
 20
1.835816109428833
 30
0.0
 10
-4.148739232026539
 20
1.867809285118306
 30
0.0
 10
-4.156980319840374
 20
1.889642320473614
 30
0.0
 10
-4.19326410211843
 20
1.890242852422489
 30
0.0
 10
-4.226435149054433
 20
1.890887807120938
 30
0.0
 10
-4.244742557174517
 20
1.867164330419857
 30
0.0
 10
-4.244742557174517
 20
1.837150406255331
 30
0.0
 10
-4.244742557174517
 20
1.837150406255331
 30
0.0
 10
-4.244742557174517
 20
1.766380661670332
 30
0.0
 10
-4.244742557174517
 20
1.766380661670332
 30
0.0
  0
ENDBLK
  5
46
330
43
100
AcDbEntity
  8
0
100
AcDbBlockEnd
  0
BLOCK
  5
50
330
4E
100
AcDbEntity
  8
0
100
AcDbBlockBegin
  2
block 3
 70
     0
 10
0.0
 20
0.0
 30
0.0
  3
block 3
  1

  0
SPLINE
  5
52
330
4E
100
AcDbEntity
  8
_U+5F6B_U+523B_U+30D1_U+30B9
 62
     7
420
 16777215
370
    50
100
AcDbSpline
210
0.0
220
0.0
230
1.0
 70
     8
 71
     3
 72
    17
 73
    13
 74
     0
 42
0.0000000001
 43
0.0000000001
 12
1.0
 22
0.0
 32
0.0
 13
1.0
 23
0.0
 33
0.0
 40
0.0
 40
0.0
 40
0.0
 40
0.0
 40
1.0
 40
1.0
 40
1.0
 40
2.0
 40
2.0
 40
2.0
 40
3.0
 40
3.0
 40
3.0
 40
4.0
 40
4.0
 40
4.0
 40
4.0
 10
4.343472445690824
 20
-2.383058402387405
 30
0.0
 10
4.335973109259056
 20
-2.35583580579224
 30
0.0
 10
4.312808486338882
 20
-2.342570613884189
 30
0.0
 10
4.289372190958653
 20
-2.342570613884189
 30
0.0
 10
4.260603788761626
 20
-2.342570613884189
 30
0.0
 10
4.231255943433754
 20
-2.362476272202608
 30
0.0
 10
4.231255943433754
 20
-2.403253880626026
 30
0.0
 10
4.231255943433754
 20
-2.444313589881429
 30
0.0
 10
4.260321955323737
 20
-2.464219212857541
 30
0.0
 10
4.289654291790713
 20
-2.464219212857541
 30
0.0
 10
4.313119233502119
 20
-2.464219212857541
 30
0.0
 10
4.335973109259056
 20
-2.450938280036755
 30
0.0
 10
4.343472445690824
 20
-2.423815154066738
 30
0.0
  0
SPLINE
  5
53
330
4E
100
AcDbEntity
  8
_U+5F6B_U+523B_U+30D1_U+30B9
 62
     7
420
 16777215
370
    50
100
AcDbSpline
210
0.0
220
0.0
230
1.0
 70
    11
 71
     3
 72
    17
 73
    13
 74
     0
 42
0.0000000001
 43
0.0000000001
 12
1.0
 22
0.0
 32
0.0
 13
1.0
 23
0.0
 33
0.0
 40
0.0
 40
0.0
 40
0.0
 40
0.0
 40
1.0
 40
1.0
 40
1.0
 40
2.0
 40
2.0
 40
2.0
 40
3.0
 40
3.0
 40
3.0
 40
4.0
 40
4.0
 40
4.0
 40
4.0
 10
4.480786295810276
 20
-2.464219212857541
 30
0.0
 10
4.511721927622223
 20
-2.464590088548523
 30
0.0
 10
4.542712642629845
 20
-2.444002877874937
 30
0.0
 10
4.542712642629845
 20
-2.403541061946978
 30
0.0
 10
4.542712642629845
 20
-2.363048228297177
 30
0.0
 10
4.512030233081279
 20
-2.342570613884189
 30
0.0
 10
4.481645433225771
 20
-2.342570613884189
 30
0.0
 10
4.450683596786702
 20
-2.342570613884189
 30
0.0
 10
4.420016696099158
 20
-2.362766127465142
 30
0.0
 10
4.420016696099158
 20
-2.403541061946978
 30
0.0
 10
4.420016696099158
 20
-2.443720777042927
 30
0.0
 10
4.450385719699625
 20
-2.463924277106116
 30
0.0
 10
4.480786295810276
 20
-2.464219212857541
 30
0.0
  0
SPLINE
  5
54
330
4E
100
AcDbEntity
  8
_U+5F6B_U+523B_U+30D1_U+30B9
 62
     7
420
 16777215
370
    50
100
AcDbSpline
210
0.0
220
0.0
230
1.0
 70
     8
 71
     3
 72
    11
 73
     7
 74
     0
 42
0.0000000001
 43
0.0000000001
 12
1.0
 22
0.0
 32
0.0
 13
1.0
 23
0.0
 33
0.0
 40
0.0
 40
0.0
 40
0.0
 40
0.0
 40
1.0
 40
1.0
 40
1.0
 40
2.0
 40
2.0
 40
2.0
 40
2.0
 10
4.696644237212821
 20
-2.344111106945345
 30
0.0
 10
4.661410511775911
 20
-2.333707870005583
 30
0.0
 10
4.627926078891884
 20
-2.359311395000683
 30
0.0
 10
4.627926078891884
 20
-2.396247886407637
 30
0.0
 10
4.627926078891884
 20
-2.396247886407637
 30
0.0
 10
4.627926078891884
 20
-2.466714673416618
 30
0.0
 10
4.627926078891884
 20
-2.466714673416618
 30
0.0
  0
SPLINE
  5
55
330
4E
100
AcDbEntity
  8
_U+5F6B_U+523B_U+30D1_U+30B9
 62
     7
420
 16777215
370
    50
100
AcDbSpline
210
0.0
220
0.0
230
1.0
 70
     8
 71
     3
 72
    17
 73
    13
 74
     0
 42
0.0000000001
 43
0.0000000001
 12
1.0
 22
0.0
 32
0.0
 13
1.0
 23
0.0
 33
0.0
 40
0.0
 40
0.0
 40
0.0
 40
0.0
 40
1.0
 40
1.0
 40
1.0
 40
2.0
 40
2.0
 40
2.0
 40
3.0
 40
3.0
 40
3.0
 40
4.0
 40
4.0
 40
4.0
 40
4.0
 10
4.844108102008603
 20
-2.466714673416618
 30
0.0
 10
4.844108102008603
 20
-2.466714673416618
 30
0.0
 10
4.844108102008603
 20
-2.397279225658116
 30
0.0
 10
4.844108102008603
 20
-2.397279225658116
 30
0.0
 10
4.844108102008603
 20
-2.365286049968644
 30
0.0
 10
4.835867014194769
 20
-2.343453014613336
 30
0.0
 10
4.799583231916686
 20
-2.342852482664461
 30
0.0
 10
4.766412184980709
 20
-2.342207527966012
 30
0.0
 10
4.7481047768606
 20
-2.365931004667093
 30
0.0
 10
4.7481047768606
 20
-2.395944928831618
 30
0.0
 10
4.7481047768606
 20
-2.395944928831618
 30
0.0
 10
4.7481047768606
 20
-2.466714673416618
 30
0.0
 10
4.7481047768606
 20
-2.466714673416618
 30
0.0
  0
ENDBLK
  5
51
330
4E
100
AcDbEntity
  8
0
100
AcDbBlockEnd
  0
BLOCK
  5
5B
330
59
100
AcDbEntity
  8
0
100
AcDbBlockBegin
  2
block 4
 70
     0
 10
0.0
 20
0.0
 30
0.0
  3
block 4
  1

  0
SPLINE
  5
5D
330
59
100
AcDbEntity
  8
_U+5207_U+65AD_U+30D1_U+30B9
 62
     1
420
 16711680
370
     9
100
AcDbSpline
210
0.0
220
0.0
230
1.0
 70
    11
 71
     3
 72
   128
 73
   124
 74
     0
 42
0.0000000001
 43
0.0000000001
 12
1.0
 22
0.0
 32
0.0
 13
1.0
 23
0.0
 33
0.0
 40
0.0
 40
0.0
 40
0.0
 40
0.0
 40
1.0
 40
1.0
 40
1.0
 40
2.0
 40
2.0
 40
2.0
 40
3.0
 40
3.0
 40
3.0
 40
4.0
 40
4.0
 40
4.0
 40
5.0
 40
5.0
 40
5.0
 40
6.0
 40
6.0
 40
6.0
 40
7.0
 40
7.0
 40
7.0
 40
8.0
 40
8.0
 40
8.0
 40
9.0
 40
9.0
 40
9.0
 40
10.0
 40
10.0
 40
10.0
 40
11.0
 40
11.0
 40
11.0
 40
12.0
 40
12.0
 40
12.0
 40
13.0
 40
13.0
 40
13.0
 40
14.0
 40
14.0
 40
14.0
 40
15.0
 40
15.0
 40
15.0
 40
16.0
 40
16.0
 40
16.0
 40
17.0
 40
17.0
 40
17.0
 40
18.0
 40
18.0
 40
18.0
 40
19.0
 40
19.0
 40
19.0
 40
20.0
 40
20.0
 40
20.0
 40
21.0
 40
21.0
 40
21.0
 40
22.0
 40
22.0
 40
22.0
 40
23.0
 40
23.0
 40
23.0
 40
24.0
 40
24.0
 40
24.0
 40
25.0
 40
25.0
 40
25.0
 40
26.0
 40
26.0
 40
26.0
 40
27.0
 40
27.0
 40
27.0
 40
28.0
 40
28.0
 40
28.0
 40
29.0
 40
29.0
 40
29.0
 40
30.0
 40
30.0
 40
30.0
 40
31.0
 40
31.0
 40
31.0
 40
32.0
 40
32.0
 40
32.0
 40
33.0
 40
33.0
 40
33.0
 40
34.0
 40
34.0
 40
34.0
 40
35.0
 40
35.0
 40
35.0
 40
36.0
 40
36.0
 40
36.0
 40
37.0
 40
37.0
 40
37.0
 40
38.0
 40
38.0
 40
38.0
 40
39.0
 40
39.0
 40
39.0
 40
40.0
 40
40.0
 40
40.0
 40
41.0
 40
41.0
 40
41.0
 40
41.0
 10
-3.442674593948102
 20
1.433866492631953
 30
0.0
 10
-3.446366516788923
 20
1.437558415472722
 30
0.0
 10
-3.45137383871991
 20
1.439632516127606
 30
0.0
 10
-3.456595006072714
 20
1.439632516127606
 30
0.0
 10
-3.456595006072714
 20
1.439632516127606
 30
0.0
 10
-4.87401837073297
 20
1.439632516127606
 30
0.0
 10
-4.87401837073297
 20
1.439632516127606
 30
0.0
 10
-4.87401837073297
 20
1.439632516127606
 30
0.0
 10
-4.952764113214067
 20
1.439632516127606
 30
0.0
 10
-4.952764113214067
 20
1.439632516127606
 30
0.0
 10
-4.952764113214067
 20
1.439632516127606
 30
0.0
 10
-5.622102924303666
 20
1.439632516127606
 30
0.0
 10
-5.622102924303666
 20
1.439632516127606
 30
0.0
 10
-5.632975442475273
 20
1.439632516127606
 30
0.0
 10
-5.641789359923942
 20
1.448446433576515
 30
0.0
 10
-5.641789359923942
 20
1.45931895174787
 30
0.0
 10
-5.641789359923942
 20
1.45931895174787
 30
0.0
 10
-5.641789359923942
 20
3.634670087789093
 30
0.0
 10
-5.641789359923942
 20
3.634670087789093
 30
0.0
 10
-5.641789359923942
 20
3.645542605960701
 30
0.0
 10
-5.632975442475273
 20
3.654356523409458
 30
0.0
 10
-5.622102924303666
 20
3.654356523409458
 30
0.0
 10
-5.622102924303666
 20
3.654356523409458
 30
0.0
 10
-4.952764113214067
 20
3.654356523409458
 30
0.0
 10
-4.952764113214067
 20
3.654356523409458
 30
0.0
 10
-4.952764113214067
 20
3.654356523409458
 30
0.0
 10
-4.87401837073297
 20
3.654356523409458
 30
0.0
 10
-4.87401837073297
 20
3.654356523409458
 30
0.0
 10
-4.87401837073297
 20
3.654356523409458
 30
0.0
 10
-4.165306688402741
 20
3.654356523409458
 30
0.0
 10
-4.165306688402741
 20
3.654356523409458
 30
0.0
 10
-4.154434170231235
 20
3.654356523409458
 30
0.0
 10
-4.145620252782566
 20
3.663170440858064
 30
0.0
 10
-4.145620252782566
 20
3.674042959029824
 30
0.0
 10
-4.145620252782566
 20
3.674042959029824
 30
0.0
 10
-4.145620252782566
 20
3.821691226181883
 30
0.0
 10
-4.145620252782566
 20
3.821691226181883
 30
0.0
 10
-4.145620252782566
 20
3.83256374435339
 30
0.0
 10
-4.136806335333909
 20
3.841377661802249
 30
0.0
 10
-4.1259338171622
 20
3.841377661802249
 30
0.0
 10
-4.1259338171622
 20
3.841377661802249
 30
0.0
 10
-3.417222134832122
 20
3.841377661802249
 30
0.0
 10
-3.417222134832122
 20
3.841377661802249
 30
0.0
 10
-3.406349616660464
 20
3.841377661802249
 30
0.0
 10
-3.397535699211807
 20
3.850191579250703
 30
0.0
 10
-3.397535699211807
 20
3.861064097422362
 30
0.0
 10
-3.397535699211807
 20
3.861064097422362
 30
0.0
 10
-3.397535699211807
 20
3.91028018647325
 30
0.0
 10
-3.397535699211807
 20
3.91028018647325
 30
0.0
 10
-3.397535699211807
 20
3.921152704644757
 30
0.0
 10
-3.388721781763151
 20
3.929966622093363
 30
0.0
 10
-3.377849263591543
 20
3.929966622093363
 30
0.0
 10
-3.377849263591543
 20
3.929966622093363
 30
0.0
 10
-2.708510452501943
 20
3.929966622093363
 30
0.0
 10
-2.708510452501943
 20
3.929966622093363
 30
0.0
 10
-2.697637934330297
 20
3.929966622093363
 30
0.0
 10
-2.688824016881578
 20
3.921152704644757
 30
0.0
 10
-2.688824016881578
 20
3.91028018647325
 30
0.0
 10
-2.688824016881578
 20
3.91028018647325
 30
0.0
 10
-2.688824016881578
 20
3.861064097422362
 30
0.0
 10
-2.688824016881578
 20
3.861064097422362
 30
0.0
 10
-2.688824016881578
 20
3.850191579250703
 30
0.0
 10
-2.680010099432984
 20
3.841377661802249
 30
0.0
 10
-2.669137581261364
 20
3.841377661802249
 30
0.0
 10
-2.669137581261364
 20
3.841377661802249
 30
0.0
 10
-1.960425898931185
 20
3.841377661802249
 30
0.0
 10
-1.960425898931185
 20
3.841377661802249
 30
0.0
 10
-1.949553380759527
 20
3.841377661802249
 30
0.0
 10
-1.940739463310832
 20
3.83256374435339
 30
0.0
 10
-1.940739463310832
 20
3.821691226181883
 30
0.0
 10
-1.940739463310832
 20
3.821691226181883
 30
0.0
 10
-1.940739463310832
 20
3.76263191932109
 30
0.0
 10
-1.940739463310832
 20
3.76263191932109
 30
0.0
 10
-1.940739463310971
 20
3.751759401149279
 30
0.0
 10
-1.931925545862214
 20
3.742945483700825
 30
0.0
 10
-1.921053027690606
 20
3.742945483700825
 30
0.0
 10
-1.921053027690606
 20
3.742945483700825
 30
0.0
 10
-1.212341345360477
 20
3.742945483700825
 30
0.0
 10
-1.212341345360477
 20
3.742945483700825
 30
0.0
 10
-1.20146882718892
 20
3.742945483700825
 30
0.0
 10
-1.192654909740213
 20
3.734131566251967
 30
0.0
 10
-1.192654909740213
 20
3.72325904808046
 30
0.0
 10
-1.192654909740213
 20
3.72325904808046
 30
0.0
 10
-1.192654909740213
 20
3.67465299145033
 30
0.0
 10
-1.192654909740213
 20
3.67465299145033
 30
0.0
 10
-1.191536145371022
 20
3.664097006374656
 30
0.0
 10
-1.183432892012156
 20
3.655626704802823
 30
0.0
 10
-1.172936786110515
 20
3.654041707787554
 30
0.0
 10
-1.172936786110515
 20
3.654041707787554
 30
0.0
 10
-0.3953225791094357
 20
3.654041707787554
 30
0.0
 10
-0.3953225791094357
 20
3.654041707787554
 30
0.0
 10
-0.3844500609379287
 20
3.654041707787554
 30
0.0
 10
-0.3756361434892218
 20
3.645227790338797
 30
0.0
 10
-0.3756361434892218
 20
3.634355272167138
 30
0.0
 10
-0.3756361434892218
 20
3.634355272167138
 30
0.0
 10
-0.3756339791874678
 20
1.31306467476654
 30
0.0
 10
-0.3756339791874678
 20
1.31306467476654
 30
0.0
 10
-0.3773394525387124
 20
1.281044522197438
 30
0.0
 10
-0.3870091097413832
 20
1.24995622947381
 30
0.0
 10
-0.4037664472450868
 20
1.222617786766275
 30
0.0
 10
-0.4037664472450868
 20
1.222617786766275
 30
0.0
 10
-0.9249193853043935
 20
0.3155370422095984
 30
0.0
 10
-0.9249193853043935
 20
0.3155370422095984
 30
0.0
 10
-0.9251061867091468
 20
0.315255483666331
 30
0.0
 10
-0.9252971342156241
 20
0.3149766979657013
 30
0.0
 10
-0.9254921654174318
 20
0.3147007762222023
 30
0.0
 10
-0.9364373340094971
 20
0.2992160231589069
 30
0.0
 10
-0.957863018839008
 20
0.295535962831309
 30
0.0
 10
-0.9733477719025055
 20
0.3064811314234753
 30
0.0
 10
-0.9733477719025055
 20
0.3064811314234753
 30
0.0
 10
-1.554043409935376
 20
0.6407143726737559
 30
0.0
 10
-1.554043409935376
 20
0.6407143726737559
 30
0.0
 10
-1.557635265106152
 20
0.6419631519663905
 30
0.0
 10
-1.561324302600345
 20
0.6429125465591722
 30
0.0
 10
-1.565072755806644
 20
0.6435528370014051
 30
0.0
 10
-1.565072755806644
 20
0.6435528370014051
 30
0.0
 10
-3.013650204616258
 20
0.8588826653294745
 30
0.0
 10
-3.013650204616258
 20
0.8588826653294745
 30
0.0
 10
-3.018738683512614
 20
0.8593992205094056
 30
0.0
 10
-3.02354735656066
 20
0.8614600803871831
 30
0.0
 10
-3.027430709550521
 20
0.8647885960155387
 30
0.0
 10
-3.027430709550521
 20
0.8647885960155387
 30
0.0
 10
-3.442814501138451
 20
1.434050501152241
 30
0.0
 10
-3.442674593948102
 20
1.433866492631953
 30
0.0
  0
ENDBLK
  5
5C
330
59
100
AcDbEntity
  8
0
100
AcDbBlockEnd
  0
BLOCK
  5
60
330
5E
100
AcDbEntity
  8
0
100
AcDbBlockBegin
  2
block 5
 70
     0
 10
0.0
 20
0.0
 30
0.0
  3
block 5
  1

  0
SPLINE
  5
62
330
5E
100
AcDbEntity
  8
_U+5207_U+65AD_U+30D1_U+30B9
 62
     1
420
 16711680
370
     9
100
AcDbSpline
210
0.0
220
0.0
230
1.0
 70
    11
 71
     3
 72
    20
 73
    16
 74
     0
 42
0.0000000001
 43
0.0000000001
 12
1.0
 22
0.0
 32
0.0
 13
1.0
 23
0.0
 33
0.0
 40
0.0
 40
0.0
 40
0.0
 40
0.0
 40
1.0
 40
1.0
 40
1.0
 40
2.0
 40
2.0
 40
2.0
 40
3.0
 40
3.0
 40
3.0
 40
4.0
 40
4.0
 40
4.0
 40
5.0
 40
5.0
 40
5.0
 40
5.0
 10
-3.254087196440196
 20
1.498860131658148
 30
0.0
 10
-3.254087196440196
 20
1.522779671635766
 30
0.0
 10
-3.234696578053141
 20
1.542170290023023
 30
0.0
 10
-3.210777038075523
 20
1.542170290023023
 30
0.0
 10
-3.186857498098056
 20
1.542170290023023
 30
0.0
 10
-3.167466879710901
 20
1.522779671635766
 30
0.0
 10
-3.167466879710901
 20
1.498860131658148
 30
0.0
 10
-3.167466879710901
 20
1.47494059168058
 30
0.0
 10
-3.186857498098056
 20
1.455549973293778
 30
0.0
 10
-3.210777038075523
 20
1.455549973293778
 30
0.0
 10
-3.234696578053141
 20
1.455549973293778
 30
0.0
 10
-3.254087196440196
 20
1.47494059168058
 30
0.0
 10
-3.254087196440196
 20
1.498860131658148
 30
0.0
 10
-3.254087196440196
 20
1.498860131658148
 30
0.0
 10
-3.254087196440196
 20
1.498860131658148
 30
0.0
 10
-3.254087196440196
 20
1.498860131658148
 30
0.0
  0
ENDBLK
  5
61
330
5E
100
AcDbEntity
  8
0
100
AcDbBlockEnd
  0
BLOCK
  5
65
330
63
100
AcDbEntity
  8
0
100
AcDbBlockBegin
  2
block 6
 70
     0
 10
0.0
 20
0.0
 30
0.0
  3
block 6
  1

  0
SPLINE
  5
67
330
63
100
AcDbEntity
  8
_U+5207_U+65AD_U+30D1_U+30B9
 62
     1
420
 16711680
370
     9
100
AcDbSpline
210
0.0
220
0.0
230
1.0
 70
    11
 71
     3
 72
    20
 73
    16
 74
     0
 42
0.0000000001
 43
0.0000000001
 12
1.0
 22
0.0
 32
0.0
 13
1.0
 23
0.0
 33
0.0
 40
0.0
 40
0.0
 40
0.0
 40
0.0
 40
1.0
 40
1.0
 40
1.0
 40
2.0
 40
2.0
 40
2.0
 40
3.0
 40
3.0
 40
3.0
 40
4.0
 40
4.0
 40
4.0
 40
5.0
 40
5.0
 40
5.0
 40
5.0
 10
-1.963603690587358
 20
3.063713411517559
 30
0.0
 10
-1.963603690587358
 20
3.087632951495177
 30
0.0
 10
-1.944213072200303
 20
3.107023569881979
 30
0.0
 10
-1.920293532222685
 20
3.107023569881979
 30
0.0
 10
-1.896373992245218
 20
3.107023569881979
 30
0.0
 10
-1.876983373858163
 20
3.087632951495177
 30
0.0
 10
-1.876983373858163
 20
3.063713411517559
 30
0.0
 10
-1.876983373858163
 20
3.039793871539991
 30
0.0
 10
-1.896373992245218
 20
3.020403253152734
 30
0.0
 10
-1.920293532222685
 20
3.020403253152734
 30
0.0
 10
-1.944213072200303
 20
3.020403253152734
 30
0.0
 10
-1.963603690587358
 20
3.039793871539991
 30
0.0
 10
-1.963603690587358
 20
3.063713411517559
 30
0.0
 10
-1.963603690587358
 20
3.063713411517559
 30
0.0
 10
-1.963603690587358
 20
3.063713411517559
 30
0.0
 10
-1.963603690587358
 20
3.063713411517559
 30
0.0
  0
ENDBLK
  5
66
330
63
100
AcDbEntity
  8
0
100
AcDbBlockEnd
  0
BLOCK
  5
6A
330
68
100
AcDbEntity
  8
0
100
AcDbBlockBegin
  2
block 7
 70
     0
 10
0.0
 20
0.0
 30
0.0
  3
block 7
  1

  0
SPLINE
  5
6C
330
68
100
AcDbEntity
  8
_U+5207_U+65AD_U+30D1_U+30B9
 62
     1
420
 16711680
370
     9
100
AcDbSpline
210
0.0
220
0.0
230
1.0
 70
    11
 71
     3
 72
    20
 73
    16
 74
     0
 42
0.0000000001
 43
0.0000000001
 12
1.0
 22
0.0
 32
0.0
 13
1.0
 23
0.0
 33
0.0
 40
0.0
 40
0.0
 40
0.0
 40
0.0
 40
1.0
 40
1.0
 40
1.0
 40
2.0
 40
2.0
 40
2.0
 40
3.0
 40
3.0
 40
3.0
 40
4.0
 40
4.0
 40
4.0
 40
5.0
 40
5.0
 40
5.0
 40
5.0
 10
-4.956588825480038
 20
2.921099288687552
 30
0.0
 10
-4.956588825480038
 20
2.945018828665019
 30
0.0
 10
-4.937198207092883
 20
2.964409447052276
 30
0.0
 10
-4.913278667115415
 20
2.964409447052276
 30
0.0
 10
-4.889359127137797
 20
2.964409447052276
 30
0.0
 10
-4.869968508750755
 20
2.945018828665019
 30
0.0
 10
-4.869968508750755
 20
2.921099288687552
 30
0.0
 10
-4.869968508750755
 20
2.897179748710136
 30
0.0
 10
-4.889359127137797
 20
2.877789130323031
 30
0.0
 10
-4.913278667115415
 20
2.877789130323031
 30
0.0
 10
-4.937198207092883
 20
2.877789130323031
 30
0.0
 10
-4.956588825480038
 20
2.897179748710136
 30
0.0
 10
-4.956588825480038
 20
2.921099288687552
 30
0.0
 10
-4.956588825480038
 20
2.921099288687552
 30
0.0
 10
-4.956588825480038
 20
2.921099288687552
 30
0.0
 10
-4.956588825480038
 20
2.921099288687552
 30
0.0
  0
ENDBLK
  5
6B
330
68
100
AcDbEntity
  8
0
100
AcDbBlockEnd
  0
BLOCK
  5
6F
330
6D
100
AcDbEntity
  8
0
100
AcDbBlockBegin
  2
block 8
 70
     0
 10
0.0
 20
0.0
 30
0.0
  3
block 8
  1

  0
SPLINE
  5
71
330
6D
100
AcDbEntity
  8
_U+5207_U+65AD_U+30D1_U+30B9
 62
     1
420
 16711680
370
     9
100
AcDbSpline
210
0.0
220
0.0
230
1.0
 70
    11
 71
     3
 72
    20
 73
    16
 74
     0
 42
0.0000000001
 43
0.0000000001
 12
1.0
 22
0.0
 32
0.0
 13
1.0
 23
0.0
 33
0.0
 40
0.0
 40
0.0
 40
0.0
 40
0.0
 40
1.0
 40
1.0
 40
1.0
 40
2.0
 40
2.0
 40
2.0
 40
3.0
 40
3.0
 40
3.0
 40
4.0
 40
4.0
 40
4.0
 40
5.0
 40
5.0
 40
5.0
 40
5.0
 10
-4.956935101426248
 20
2.172471508136318
 30
0.0
 10
-4.956935101426248
 20
2.196391048113886
 30
0.0
 10
-4.937544483039194
 20
2.215781666500991
 30
0.0
 10
-4.913624943061588
 20
2.215781666500991
 30
0.0
 10
-4.889705403084172
 20
2.215781666500991
 30
0.0
 10
-4.870314784696953
 20
2.196391048113886
 30
0.0
 10
-4.870314784696953
 20
2.172471508136318
 30
0.0
 10
-4.870314784696953
 20
2.148551968158699
 30
0.0
 10
-4.889705403084172
 20
2.129161349771746
 30
0.0
 10
-4.913624943061588
 20
2.129161349771746
 30
0.0
 10
-4.937544483039194
 20
2.129161349771746
 30
0.0
 10
-4.956935101426248
 20
2.148551968158699
 30
0.0
 10
-4.956935101426248
 20
2.172471508136318
 30
0.0
 10
-4.956935101426248
 20
2.172471508136318
 30
0.0
 10
-4.956935101426248
 20
2.172471508136318
 30
0.0
 10
-4.956935101426248
 20
2.172471508136318
 30
0.0
  0
ENDBLK
  5
70
330
6D
100
AcDbEntity
  8
0
100
AcDbBlockEnd
  0
BLOCK
  5
74
330
72
100
AcDbEntity
  8
0
100
AcDbBlockBegin
  2
block 9
 70
     0
 10
0.0
 20
0.0
 30
0.0
  3
block 9
  1

  0
SPLINE
  5
76
330
72
100
AcDbEntity
  8
_U+5207_U+65AD_U+30D1_U+30B9
 62
     1
420
 16711680
370
     9
100
AcDbSpline
210
0.0
220
0.0
230
1.0
 70
    11
 71
     3
 72
    20
 73
    16
 74
     0
 42
0.0000000001
 43
0.0000000001
 12
1.0
 22
0.0
 32
0.0
 13
1.0
 23
0.0
 33
0.0
 40
0.0
 40
0.0
 40
0.0
 40
0.0
 40
1.0
 40
1.0
 40
1.0
 40
2.0
 40
2.0
 40
2.0
 40
3.0
 40
3.0
 40
3.0
 40
4.0
 40
4.0
 40
4.0
 40
5.0
 40
5.0
 40
5.0
 40
5.0
 10
-1.422591965712349
 20
1.193564477075445
 30
0.0
 10
-1.422591965712349
 20
1.217484017053064
 30
0.0
 10
-1.403201347325345
 20
1.23687463544032
 30
0.0
 10
-1.379281807347727
 20
1.23687463544032
 30
0.0
 10
-1.355362267370209
 20
1.23687463544032
 30
0.0
 10
-1.335971648983104
 20
1.217484017053064
 30
0.0
 10
-1.335971648983104
 20
1.193564477075445
 30
0.0
 10
-1.335971648983104
 20
1.169644937098181
 30
0.0
 10
-1.355362267370209
 20
1.150254318711025
 30
0.0
 10
-1.379281807347727
 20
1.150254318711025
 30
0.0
 10
-1.403201347325345
 20
1.150254318711025
 30
0.0
 10
-1.422591965712349
 20
1.169644937098181
 30
0.0
 10
-1.422591965712349
 20
1.193564477075445
 30
0.0
 10
-1.422591965712349
 20
1.193564477075445
 30
0.0
 10
-1.422591965712349
 20
1.193564477075445
 30
0.0
 10
-1.422591965712349
 20
1.193564477075445
 30
0.0
  0
ENDBLK
  5
75
330
72
100
AcDbEntity
  8
0
100
AcDbBlockEnd
  0
BLOCK
  5
79
330
77
100
AcDbEntity
  8
0
100
AcDbBlockBegin
  2
block 10
 70
     0
 10
0.0
 20
0.0
 30
0.0
  3
block 10
  1

  0
INSERT
  5
7C
330
77
100
AcDbEntity
  8
_U+5207_U+65AD_U+30D1_U+30B9
100
AcDbBlockReference
  2
block 11
 10
0.0
 20
0.0
 30
0.0
  0
INSERT
  5
81
330
77
100
AcDbEntity
  8
_U+5207_U+65AD_U+30D1_U+30B9
100
AcDbBlockReference
  2
block 12
 10
0.0
 20
0.0
 30
0.0
  0
INSERT
  5
86
330
77
100
AcDbEntity
  8
_U+5207_U+65AD_U+30D1_U+30B9
100
AcDbBlockReference
  2
block 13
 10
0.0
 20
0.0
 30
0.0
  0
INSERT
  5
8B
330
77
100
AcDbEntity
  8
_U+5207_U+65AD_U+30D1_U+30B9
100
AcDbBlockReference
  2
block 14
 10
0.0
 20
0.0
 30
0.0
  0
INSERT
  5
90
330
77
100
AcDbEntity
  8
_U+5207_U+65AD_U+30D1_U+30B9
100
AcDbBlockReference
  2
block 15
 10
0.0
 20
0.0
 30
0.0
  0
INSERT
  5
95
330
77
100
AcDbEntity
  8
_U+5207_U+65AD_U+30D1_U+30B9
100
AcDbBlockReference
  2
block 16
 10
0.0
 20
0.0
 30
0.0
  0
INSERT
  5
9A
330
77
100
AcDbEntity
  8
_U+5207_U+65AD_U+30D1_U+30B9
100
AcDbBlockReference
  2
block 17
 10
0.0
 20
0.0
 30
0.0
  0
INSERT
  5
A5
330
77
100
AcDbEntity
  8
_U+5207_U+65AD_U+30D1_U+30B9
100
AcDbBlockReference
  2
block 18
 10
0.0
 20
0.0
 30
0.0
  0
INSERT
  5
B0
330
77
100
AcDbEntity
  8
_U+5207_U+65AD_U+30D1_U+30B9
100
AcDbBlockReference
  2
block 19
 10
0.0
 20
0.0
 30
0.0
  0
INSERT
  5
BB
330
77
100
AcDbEntity
  8
_U+5207_U+65AD_U+30D1_U+30B9
100
AcDbBlockReference
  2
block 20
 10
0.0
 20
0.0
 30
0.0
  0
INSERT
  5
C6
330
77
100
AcDbEntity
  8
_U+5207_U+65AD_U+30D1_U+30B9
100
AcDbBlockReference
  2
block 21
 10
0.0
 20
0.0
 30
0.0
  0
INSERT
  5
D1
330
77
100
AcDbEntity
  8
_U+5207_U+65AD_U+30D1_U+30B9
100
AcDbBlockReference
  2
block 22
 10
0.0
 20
0.0
 30
0.0
  0
INSERT
  5
DC
330
77
100
AcDbEntity
  8
_U+5207_U+65AD_U+30D1_U+30B9
100
AcDbBlockReference
  2
block 23
 10
0.0
 20
0.0
 30
0.0
  0
INSERT
  5
E7
330
77
100
AcDbEntity
  8
_U+5207_U+65AD_U+30D1_U+30B9
100
AcDbBlockReference
  2
block 24
 10
0.0
 20
0.0
 30
0.0
  0
INSERT
  5
F2
330
77
100
AcDbEntity
  8
_U+5207_U+65AD_U+30D1_U+30B9
100
AcDbBlockReference
  2
block 25
 10
0.0
 20
0.0
 30
0.0
  0
INSERT
  5
FD
330
77
100
AcDbEntity
  8
_U+5207_U+65AD_U+30D1_U+30B9
100
AcDbBlockReference
  2
block 26
 10
0.0
 20
0.0
 30
0.0
  0
INSERT
  5
108
330
77
100
AcDbEntity
  8
_U+5207_U+65AD_U+30D1_U+30B9
100
AcDbBlockReference
  2
block 27
 10
0.0
 20
0.0
 30
0.0
  0
INSERT
  5
113
330
77
100
AcDbEntity
  8
_U+5207_U+65AD_U+30D1_U+30B9
100
AcDbBlockReference
  2
block 28
 10
0.0
 20
0.0
 30
0.0
  0
INSERT
  5
11E
330
77
100
AcDbEntity
  8
_U+5207_U+65AD_U+30D1_U+30B9
100
AcDbBlockReference
  2
block 29
 10
0.0
 20
0.0
 30
0.0
  0
INSERT
  5
129
330
77
100
AcDbEntity
  8
_U+5207_U+65AD_U+30D1_U+30B9
100
AcDbBlockReference
  2
block 30
 10
0.0
 20
0.0
 30
0.0
  0
INSERT
  5
134
330
77
100
AcDbEntity
  8
_U+5207_U+65AD_U+30D1_U+30B9
100
AcDbBlockReference
  2
block 31
 10
0.0
 20
0.0
 30
0.0
  0
INSERT
  5
13F
330
77
100
AcDbEntity
  8
_U+5207_U+65AD_U+30D1_U+30B9
100
AcDbBlockReference
  2
block 32
 10
0.0
 20
0.0
 30
0.0
  0
INSERT
  5
14A
330
77
100
AcDbEntity
  8
_U+5207_U+65AD_U+30D1_U+30B9
100
AcDbBlockReference
  2
block 33
 10
0.0
 20
0.0
 30
0.0
  0
INSERT
  5
155
330
77
100
AcDbEntity
  8
_U+5207_U+65AD_U+30D1_U+30B9
100
AcDbBlockReference
  2
block 34
 10
0.0
 20
0.0
 30
0.0
  0
INSERT
  5
160
330
77
100
AcDbEntity
  8
_U+5207_U+65AD_U+30D1_U+30B9
100
AcDbBlockReference
  2
block 35
 10
0.0
 20
0.0
 30
0.0
  0
INSERT
  5
16B
330
77
100
AcDbEntity
  8
_U+5207_U+65AD_U+30D1_U+30B9
100
AcDbBlockReference
  2
block 36
 10
0.0
 20
0.0
 30
0.0
  0
INSERT
  5
176
330
77
100
AcDbEntity
  8
_U+5207_U+65AD_U+30D1_U+30B9
100
AcDbBlockReference
  2
block 37
 10
0.0
 20
0.0
 30
0.0
  0
ENDBLK
  5
7A
330
77
100
AcDbEntity
  8
0
100
AcDbBlockEnd
  0
BLOCK
  5
7D
330
7B
100
AcDbEntity
  8
0
100
AcDbBlockBegin
  2
block 11
 70
     0
 10
0.0
 20
0.0
 30
0.0
  3
block 11
  1

  0
SPLINE
  5
7F
330
7B
100
AcDbEntity
  8
_U+5207_U+65AD_U+30D1_U+30B9
 62
     1
420
 16711680
370
     9
100
AcDbSpline
210
0.0
220
0.0
230
1.0
 70
    11
 71
     3
 72
   128
 73
   124
 74
     0
 42
0.0000000001
 43
0.0000000001
 12
1.0
 22
0.0
 32
0.0
 13
1.0
 23
0.0
 33
0.0
 40
0.0
 40
0.0
 40
0.0
 40
0.0
 40
1.0
 40
1.0
 40
1.0
 40
2.0
 40
2.0
 40
2.0
 40
3.0
 40
3.0
 40
3.0
 40
4.0
 40
4.0
 40
4.0
 40
5.0
 40
5.0
 40
5.0
 40
6.0
 40
6.0
 40
6.0
 40
7.0
 40
7.0
 40
7.0
 40
8.0
 40
8.0
 40
8.0
 40
9.0
 40
9.0
 40
9.0
 40
10.0
 40
10.0
 40
10.0
 40
11.0
 40
11.0
 40
11.0
 40
12.0
 40
12.0
 40
12.0
 40
13.0
 40
13.0
 40
13.0
 40
14.0
 40
14.0
 40
14.0
 40
15.0
 40
15.0
 40
15.0
 40
16.0
 40
16.0
 40
16.0
 40
17.0
 40
17.0
 40
17.0
 40
18.0
 40
18.0
 40
18.0
 40
19.0
 40
19.0
 40
19.0
 40
20.0
 40
20.0
 40
20.0
 40
21.0
 40
21.0
 40
21.0
 40
22.0
 40
22.0
 40
22.0
 40
23.0
 40
23.0
 40
23.0
 40
24.0
 40
24.0
 40
24.0
 40
25.0
 40
25.0
 40
25.0
 40
26.0
 40
26.0
 40
26.0
 40
27.0
 40
27.0
 40
27.0
 40
28.0
 40
28.0
 40
28.0
 40
29.0
 40
29.0
 40
29.0
 40
30.0
 40
30.0
 40
30.0
 40
31.0
 40
31.0
 40
31.0
 40
32.0
 40
32.0
 40
32.0
 40
33.0
 40
33.0
 40
33.0
 40
34.0
 40
34.0
 40
34.0
 40
35.0
 40
35.0
 40
35.0
 40
36.0
 40
36.0
 40
36.0
 40
37.0
 40
37.0
 40
37.0
 40
38.0
 40
38.0
 40
38.0
 40
39.0
 40
39.0
 40
39.0
 40
40.0
 40
40.0
 40
40.0
 40
41.0
 40
41.0
 40
41.0
 40
41.0
 10
2.459419211243888
 20
1.336644270409781
 30
0.0
 10
2.455727288403169
 20
1.340336193250449
 30
0.0
 10
2.450719966472207
 20
1.342410293905333
 30
0.0
 10
2.445498799119428
 20
1.342410293905333
 30
0.0
 10
2.445498799119428
 20
1.342410293905333
 30
0.0
 10
1.028075434459273
 20
1.342410293905333
 30
0.0
 10
1.028075434459273
 20
1.342410293905333
 30
0.0
 10
1.028075434459273
 20
1.342410293905333
 30
0.0
 10
0.9493296919781642
 20
1.342410293905333
 30
0.0
 10
0.9493296919781642
 20
1.342410293905333
 30
0.0
 10
0.9493296919781642
 20
1.342410293905333
 30
0.0
 10
0.2799908808884639
 20
1.342410293905333
 30
0.0
 10
0.2799908808884639
 20
1.342410293905333
 30
0.0
 10
0.2691183627168559
 20
1.342410293905333
 30
0.0
 10
0.2603044452681489
 20
1.351224211354242
 30
0.0
 10
0.2603044452681489
 20
1.362096729525749
 30
0.0
 10
0.2603044452681489
 20
1.362096729525749
 30
0.0
 10
0.2603044452681489
 20
3.537447865566971
 30
0.0
 10
0.2603044452681489
 20
3.537447865566971
 30
0.0
 10
0.2603044452681489
 20
3.548320383738731
 30
0.0
 10
0.2691183627168559
 20
3.557134301187185
 30
0.0
 10
0.2799908808884639
 20
3.557134301187185
 30
0.0
 10
0.2799908808884639
 20
3.557134301187185
 30
0.0
 10
0.949329691977962
 20
3.557134301187185
 30
0.0
 10
0.949329691977962
 20
3.557134301187185
 30
0.0
 10
0.949329691977962
 20
3.557134301187185
 30
0.0
 10
1.028075434459273
 20
3.557134301187185
 30
0.0
 10
1.028075434459273
 20
3.557134301187185
 30
0.0
 10
1.028075434459273
 20
3.557134301187185
 30
0.0
 10
1.736787116789249
 20
3.557134301187185
 30
0.0
 10
1.736787116789249
 20
3.557134301187185
 30
0.0
 10
1.747659634961009
 20
3.557134301187185
 30
0.0
 10
1.756473552409615
 20
3.565948218636095
 30
0.0
 10
1.756473552409615
 20
3.576820736807551
 30
0.0
 10
1.756473552409615
 20
3.576820736807551
 30
0.0
 10
1.756473552409615
 20
3.72446900395961
 30
0.0
 10
1.756473552409615
 20
3.72446900395961
 30
0.0
 10
1.756473552409615
 20
3.735341522131269
 30
0.0
 10
1.765287469858322
 20
3.744155439580128
 30
0.0
 10
1.77615998802998
 20
3.744155439580128
 30
0.0
 10
1.77615998802998
 20
3.744155439580128
 30
0.0
 10
2.484871670360108
 20
3.744155439580128
 30
0.0
 10
2.484871670360108
 20
3.744155439580128
 30
0.0
 10
2.495744188531666
 20
3.744155439580128
 30
0.0
 10
2.504558105980423
 20
3.752969357028582
 30
0.0
 10
2.504558105980423
 20
3.76384187520019
 30
0.0
 10
2.504558105980423
 20
3.76384187520019
 30
0.0
 10
2.504558105980423
 20
3.813057964250977
 30
0.0
 10
2.504558105980423
 20
3.813057964250977
 30
0.0
 10
2.504558105980423
 20
3.823930482422636
 30
0.0
 10
2.513372023429029
 20
3.83274439987109
 30
0.0
 10
2.524244541600486
 20
3.83274439987109
 30
0.0
 10
2.524244541600486
 20
3.83274439987109
 30
0.0
 10
3.193583352690338
 20
3.83274439987109
 30
0.0
 10
3.193583352690338
 20
3.83274439987109
 30
0.0
 10
3.204455870861845
 20
3.83274439987109
 30
0.0
 10
3.2132697883104
 20
3.823930482422636
 30
0.0
 10
3.2132697883104
 20
3.813057964250977
 30
0.0
 10
3.2132697883104
 20
3.813057964250977
 30
0.0
 10
3.2132697883104
 20
3.76384187520019
 30
0.0
 10
3.2132697883104
 20
3.76384187520019
 30
0.0
 10
3.2132697883104
 20
3.752969357028582
 30
0.0
 10
3.222083705759157
 20
3.744155439580128
 30
0.0
 10
3.232956223930715
 20
3.744155439580128
 30
0.0
 10
3.232956223930715
 20
3.744155439580128
 30
0.0
 10
3.941667906260894
 20
3.744155439580128
 30
0.0
 10
3.941667906260894
 20
3.744155439580128
 30
0.0
 10
3.952540424432451
 20
3.744155439580128
 30
0.0
 10
3.96135434188131
 20
3.735341522131269
 30
0.0
 10
3.96135434188131
 20
3.72446900395961
 30
0.0
 10
3.96135434188131
 20
3.72446900395961
 30
0.0
 10
3.96135434188131
 20
3.665409697098918
 30
0.0
 10
3.96135434188131
 20
3.665409697098918
 30
0.0
 10
3.96135434188131
 20
3.654537178927158
 30
0.0
 10
3.970168259329815
 20
3.645723261478552
 30
0.0
 10
3.981040777501625
 20
3.645723261478552
 30
0.0
 10
3.981040777501625
 20
3.645723261478552
 30
0.0
 10
4.68975245983145
 20
3.645723261478552
 30
0.0
 10
4.68975245983145
 20
3.645723261478552
 30
0.0
 10
4.700624978003311
 20
3.645723261478552
 30
0.0
 10
4.709438895451917
 20
3.636909344029846
 30
0.0
 10
4.709438895451917
 20
3.626036825858187
 30
0.0
 10
4.709438895451917
 20
3.626036825858187
 30
0.0
 10
4.709438895451917
 20
3.577430769228057
 30
0.0
 10
4.709438895451917
 20
3.577430769228057
 30
0.0
 10
4.709438895451917
 20
3.577430769228057
 30
0.0
 10
4.709411512565162
 20
2.937243330379109
 30
0.0
 10
4.709411512565162
 20
2.937243330379109
 30
0.0
 10
4.709411512565162
 20
2.937243330379109
 30
0.0
 10
4.709419545492588
 20
1.665872247325347
 30
0.0
 10
4.709419545492588
 20
1.665872247325347
 30
0.0
 10
4.712649808581217
 20
1.650779805285159
 30
0.0
 10
4.720634017223801
 20
1.637120700083313
 30
0.0
 10
4.732199770705342
 20
1.626900633901591
 30
0.0
 10
4.732199770705342
 20
1.626900633901591
 30
0.0
 10
5.483260764182179
 20
1.192358203499225
 30
0.0
 10
5.483260764182179
 20
1.192358203499225
 30
0.0
 10
5.504025230905982
 20
1.176752712727092
 30
0.0
 10
5.510406639087907
 20
1.148390898585856
 30
0.0
 10
5.498327357947144
 20
1.125395564544002
 30
0.0
 10
5.498327357947144
 20
1.125395564544002
 30
0.0
 10
4.977174419887837
 20
0.2183148199874773
 30
0.0
 10
4.977174419887837
 20
0.2183148199874773
 30
0.0
 10
4.976987618483084
 20
0.2180332614440582
 30
0.0
 10
4.976796670976555
 20
0.2177544757435296
 30
0.0
 10
4.976601639774647
 20
0.2174785540000812
 30
0.0
 10
4.965656471182582
 20
0.2019938009366342
 30
0.0
 10
4.944230786353172
 20
0.1983137406091373
 30
0.0
 10
4.928746033289472
 20
0.2092589092014552
 30
0.0
 10
4.928746033289472
 20
0.2092589092014552
 30
0.0
 10
4.348050395256703
 20
0.5434921504514831
 30
0.0
 10
4.348050395256703
 20
0.5434921504514831
 30
0.0
 10
4.344458540085876
 20
0.5447409297442188
 30
0.0
 10
4.340769502591785
 20
0.5456903243368995
 30
0.0
 10
4.337021049385435
 20
0.5463306147792839
 30
0.0
 10
4.337021049385435
 20
0.5463306147792839
 30
0.0
 10
2.88844360057596
 20
0.7616604431072017
 30
0.0
 10
2.88844360057596
 20
0.7616604431072017
 30
0.0
 10
2.883355121679566
 20
0.7621769982871329
 30
0.0
 10
2.878546448631469
 20
0.7642378581650114
 30
0.0
 10
2.874663095641709
 20
0.7675663737934175
 30
0.0
 10
2.874663095641709
 20
0.7675663737934175
 30
0.0
 10
2.459279304053679
 20
1.33682827893012
 30
0.0
 10
2.459419211243888
 20
1.336644270409781
 30
0.0
  0
ENDBLK
  5
7E
330
7B
100
AcDbEntity
  8
0
100
AcDbBlockEnd
  0
BLOCK
  5
82
330
80
100
AcDbEntity
  8
0
100
AcDbBlockBegin
  2
block 12
 70
     0
 10
0.0
 20
0.0
 30
0.0
  3
block 12
  1

  0
SPLINE
  5
84
330
80
100
AcDbEntity
  8
_U+5207_U+65AD_U+30D1_U+30B9
 62
     1
420
 16711680
370
     9
100
AcDbSpline
210
0.0
220
0.0
230
1.0
 70
    11
 71
     3
 72
    20
 73
    16
 74
     0
 42
0.0000000001
 43
0.0000000001
 12
1.0
 22
0.0
 32
0.0
 13
1.0
 23
0.0
 33
0.0
 40
0.0
 40
0.0
 40
0.0
 40
0.0
 40
1.0
 40
1.0
 40
1.0
 40
2.0
 40
2.0
 40
2.0
 40
3.0
 40
3.0
 40
3.0
 40
4.0
 40
4.0
 40
4.0
 40
5.0
 40
5.0
 40
5.0
 40
5.0
 10
3.938490114604671
 20
2.966544137449596
 30
0.0
 10
3.938490114604671
 20
2.990463677427063
 30
0.0
 10
3.957880732991826
 20
3.009854295814016
 30
0.0
 10
3.981800272969445
 20
3.009854295814016
 30
0.0
 10
4.005719812947063
 20
3.009854295814016
 30
0.0
 10
4.025110431333916
 20
2.990463677427063
 30
0.0
 10
4.025110431333916
 20
2.966544137449596
 30
0.0
 10
4.025110431333916
 20
2.942624597471877
 30
0.0
 10
4.005719812947063
 20
2.923233979084772
 30
0.0
 10
3.981800272969445
 20
2.923233979084772
 30
0.0
 10
3.957880732991826
 20
2.923233979084772
 30
0.0
 10
3.938490114604671
 20
2.942624597471877
 30
0.0
 10
3.938490114604671
 20
2.966544137449596
 30
0.0
 10
3.938490114604671
 20
2.966544137449596
 30
0.0
 10
3.938490114604671
 20
2.966544137449596
 30
0.0
 10
3.938490114604671
 20
2.966544137449596
 30
0.0
  0
ENDBLK
  5
83
330
80
100
AcDbEntity
  8
0
100
AcDbBlockEnd
  0
BLOCK
  5
87
330
85
100
AcDbEntity
  8
0
100
AcDbBlockBegin
  2
block 13
 70
     0
 10
0.0
 20
0.0
 30
0.0
  3
block 13
  1

  0
SPLINE
  5
89
330
85
100
AcDbEntity
  8
_U+5207_U+65AD_U+30D1_U+30B9
 62
     1
420
 16711680
370
     9
100
AcDbSpline
210
0.0
220
0.0
230
1.0
 70
    11
 71
     3
 72
    20
 73
    16
 74
     0
 42
0.0000000001
 43
0.0000000001
 12
1.0
 22
0.0
 32
0.0
 13
1.0
 23
0.0
 33
0.0
 40
0.0
 40
0.0
 40
0.0
 40
0.0
 40
1.0
 40
1.0
 40
1.0
 40
2.0
 40
2.0
 40
2.0
 40
3.0
 40
3.0
 40
3.0
 40
4.0
 40
4.0
 40
4.0
 40
5.0
 40
5.0
 40
5.0
 40
5.0
 10
0.9455049797121925
 20
2.82393001461959
 30
0.0
 10
0.9455049797121925
 20
2.847849554597057
 30
0.0
 10
0.9648955980991457
 20
2.867240172984161
 30
0.0
 10
0.9888151380767137
 20
2.867240172984161
 30
0.0
 10
1.012734678054332
 20
2.867240172984161
 30
0.0
 10
1.032125296441488
 20
2.847849554597057
 30
0.0
 10
1.032125296441488
 20
2.82393001461959
 30
0.0
 10
1.032125296441488
 20
2.800010474642173
 30
0.0
 10
1.012734678054332
 20
2.780619856255069
 30
0.0
 10
0.9888151380767137
 20
2.780619856255069
 30
0.0
 10
0.9648955980991457
 20
2.780619856255069
 30
0.0
 10
0.9455049797121925
 20
2.800010474642173
 30
0.0
 10
0.9455049797121925
 20
2.82393001461959
 30
0.0
 10
0.9455049797121925
 20
2.82393001461959
 30
0.0
 10
0.9455049797121925
 20
2.82393001461959
 30
0.0
 10
0.9455049797121925
 20
2.82393001461959
 30
0.0
  0
ENDBLK
  5
88
330
85
100
AcDbEntity
  8
0
100
AcDbBlockEnd
  0
BLOCK
  5
8C
330
8A
100
AcDbEntity
  8
0
100
AcDbBlockBegin
  2
block 14
 70
     0
 10
0.0
 20
0.0
 30
0.0
  3
block 14
  1

  0
SPLINE
  5
8E
330
8A
100
AcDbEntity
  8
_U+5207_U+65AD_U+30D1_U+30B9
 62
     1
420
 16711680
370
     9
100
AcDbSpline
210
0.0
220
0.0
230
1.0
 70
    11
 71
     3
 72
    20
 73
    16
 74
     0
 42
0.0000000001
 43
0.0000000001
 12
1.0
 22
0.0
 32
0.0
 13
1.0
 23
0.0
 33
0.0
 40
0.0
 40
0.0
 40
0.0
 40
0.0
 40
1.0
 40
1.0
 40
1.0
 40
2.0
 40
2.0
 40
2.0
 40
3.0
 40
3.0
 40
3.0
 40
4.0
 40
4.0
 40
4.0
 40
5.0
 40
5.0
 40
5.0
 40
5.0
 10
0.9451587037658807
 20
2.075302234068355
 30
0.0
 10
0.9451587037658807
 20
2.099221774045771
 30
0.0
 10
0.9645493221530361
 20
2.118612392433179
 30
0.0
 10
0.9884688621303515
 20
2.118612392433179
 30
0.0
 10
1.012388402108021
 20
2.118612392433179
 30
0.0
 10
1.031779020495125
 20
2.099221774045771
 30
0.0
 10
1.031779020495125
 20
2.075302234068355
 30
0.0
 10
1.031779020495125
 20
2.051382694090737
 30
0.0
 10
1.012388402108021
 20
2.031992075703783
 30
0.0
 10
0.9884688621303515
 20
2.031992075703783
 30
0.0
 10
0.9645493221530361
 20
2.031992075703783
 30
0.0
 10
0.9451587037658807
 20
2.051382694090737
 30
0.0
 10
0.9451587037658807
 20
2.075302234068355
 30
0.0
 10
0.9451587037658807
 20
2.075302234068355
 30
0.0
 10
0.9451587037658807
 20
2.075302234068355
 30
0.0
 10
0.9451587037658807
 20
2.075302234068355
 30
0.0
  0
ENDBLK
  5
8D
330
8A
100
AcDbEntity
  8
0
100
AcDbBlockEnd
  0
BLOCK
  5
91
330
8F
100
AcDbEntity
  8
0
100
AcDbBlockBegin
  2
block 15
 70
     0
 10
0.0
 20
0.0
 30
0.0
  3
block 15
  1

  0
SPLINE
  5
93
330
8F
100
AcDbEntity
  8
_U+5207_U+65AD_U+30D1_U+30B9
 62
     1
420
 16711680
370
     9
100
AcDbSpline
210
0.0
220
0.0
230
1.0
 70
    11
 71
     3
 72
    20
 73
    16
 74
     0
 42
0.0000000001
 43
0.0000000001
 12
1.0
 22
0.0
 32
0.0
 13
1.0
 23
0.0
 33
0.0
 40
0.0
 40
0.0
 40
0.0
 40
0.0
 40
1.0
 40
1.0
 40
1.0
 40
2.0
 40
2.0
 40
2.0
 40
3.0
 40
3.0
 40
3.0
 40
4.0
 40
4.0
 40
4.0
 40
5.0
 40
5.0
 40
5.0
 40
5.0
 10
4.479501839479932
 20
1.096395203007483
 30
0.0
 10
4.479501839479932
 20
1.120314742985101
 30
0.0
 10
4.498892457866835
 20
1.139705361372206
 30
0.0
 10
4.522811997844352
 20
1.139705361372206
 30
0.0
 10
4.54673153782197
 20
1.139705361372206
 30
0.0
 10
4.566122156208873
 20
1.120314742985101
 30
0.0
 10
4.566122156208873
 20
1.096395203007483
 30
0.0
 10
4.566122156208873
 20
1.072475663030218
 30
0.0
 10
4.54673153782197
 20
1.053085044642962
 30
0.0
 10
4.522811997844352
 20
1.053085044642962
 30
0.0
 10
4.498892457866835
 20
1.053085044642962
 30
0.0
 10
4.479501839479932
 20
1.072475663030218
 30
0.0
 10
4.479501839479932
 20
1.096395203007483
 30
0.0
 10
4.479501839479932
 20
1.096395203007483
 30
0.0
 10
4.479501839479932
 20
1.096395203007483
 30
0.0
 10
4.479501839479932
 20
1.096395203007483
 30
0.0
  0
ENDBLK
  5
92
330
8F
100
AcDbEntity
  8
0
100
AcDbBlockEnd
  0
BLOCK
  5
96
330
94
100
AcDbEntity
  8
0
100
AcDbBlockBegin
  2
block 16
 70
     0
 10
0.0
 20
0.0
 30
0.0
  3
block 16
  1

  0
SPLINE
  5
98
330
94
100
AcDbEntity
  8
_U+5207_U+65AD_U+30D1_U+30B9
 62
     1
420
 16711680
370
     9
100
AcDbSpline
210
0.0
220
0.0
230
1.0
 70
    11
 71
     3
 72
    20
 73
    16
 74
     0
 42
0.0000000001
 43
0.0000000001
 12
1.0
 22
0.0
 32
0.0
 13
1.0
 23
0.0
 33
0.0
 40
0.0
 40
0.0
 40
0.0
 40
0.0
 40
1.0
 40
1.0
 40
1.0
 40
2.0
 40
2.0
 40
2.0
 40
3.0
 40
3.0
 40
3.0
 40
4.0
 40
4.0
 40
4.0
 40
5.0
 40
5.0
 40
5.0
 40
5.0
 10
2.648006608752085
 20
1.401690857590185
 30
0.0
 10
2.648006608752085
 20
1.425610397567804
 30
0.0
 10
2.667397227138938
 20
1.445001015954909
 30
0.0
 10
2.691316767116607
 20
1.445001015954909
 30
0.0
 10
2.715236307094225
 20
1.445001015954909
 30
0.0
 10
2.734626925481078
 20
1.425610397567804
 30
0.0
 10
2.734626925481078
 20
1.401690857590185
 30
0.0
 10
2.734626925481078
 20
1.377771317612617
 30
0.0
 10
2.715236307094225
 20
1.358380699225816
 30
0.0
 10
2.691316767116607
 20
1.358380699225816
 30
0.0
 10
2.667397227138938
 20
1.358380699225816
 30
0.0
 10
2.648006608752085
 20
1.377771317612617
 30
0.0
 10
2.648006608752085
 20
1.401690857590185
 30
0.0
 10
2.648006608752085
 20
1.401690857590185
 30
0.0
 10
2.648006608752085
 20
1.401690857590185
 30
0.0
 10
2.648006608752085
 20
1.401690857590185
 30
0.0
  0
ENDBLK
  5
97
330
94
100
AcDbEntity
  8
0
100
AcDbBlockEnd
  0
BLOCK
  5
9B
330
99
100
AcDbEntity
  8
0
100
AcDbBlockBegin
  2
block 17
 70
     0
 10
0.0
 20
0.0
 30
0.0
  3
block 17
  1

  0
POLYLINE
  5
9D
330
99
100
AcDbEntity
  8
_U+5207_U+65AD_U+30D1_U+30B9
 62
     1
420
 16711680
370
     9
100
AcDb2dPolyline
 66
     1
 10
0.0
 20
0.0
 30
0.0
  0
VERTEX
  5
9E
330
9D
100
AcDbEntity
  8
_U+5207_U+65AD_U+30D1_U+30B9
 62
     1
420
 16711680
370
     9
100
AcDbVertex
100
AcDb2dVertex
 10
0.3417842575616608
 20
3.470899342252626
 30
0.0
  0
VERTEX
  5
9F
330
9D
100
AcDbEntity
  8
_U+5207_U+65AD_U+30D1_U+30B9
 62
     1
420
 16711680
370
     9
100
AcDbVertex
100
AcDb2dVertex
 10
0.3417842575616608
 20
2.92558507557078
 30
0.0
  0
VERTEX
  5
A0
330
9D
100
AcDbEntity
  8
_U+5207_U+65AD_U+30D1_U+30B9
 62
     1
420
 16711680
370
     9
100
AcDbVertex
100
AcDb2dVertex
 10
0.8870985242434573
 20
2.92558507557078
 30
0.0
  0
VERTEX
  5
A1
330
9D
100
AcDbEntity
  8
_U+5207_U+65AD_U+30D1_U+30B9
 62
     1
420
 16711680
370
     9
100
AcDbVertex
100
AcDb2dVertex
 10
0.8870985242434573
 20
3.470899342252626
 30
0.0
  0
VERTEX
  5
A2
330
9D
100
AcDbEntity
  8
_U+5207_U+65AD_U+30D1_U+30B9
 62
     1
420
 16711680
370
     9
100
AcDbVertex
100
AcDb2dVertex
 10
0.3417842575616608
 20
3.470899342252626
 30
0.0
  0
SEQEND
  5
A3
330
9D
100
AcDbEntity
  8
_U+5207_U+65AD_U+30D1_U+30B9
 62
     1
420
 16711680
370
     9
  0
ENDBLK
  5
9C
330
99
100
AcDbEntity
  8
0
100
AcDbBlockEnd
  0
BLOCK
  5
A6
330
A4
100
AcDbEntity
  8
0
100
AcDbBlockBegin
  2
block 18
 70
     0
 10
0.0
 20
0.0
 30
0.0
  3
block 18
  1

  0
POLYLINE
  5
A8
330
A4
100
AcDbEntity
  8
_U+5207_U+65AD_U+30D1_U+30B9
 62
     1
420
 16711680
370
     9
100
AcDb2dPolyline
 66
     1
 10
0.0
 20
0.0
 30
0.0
  0
VERTEX
  5
A9
330
A8
100
AcDbEntity
  8
_U+5207_U+65AD_U+30D1_U+30B9
 62
     1
420
 16711680
370
     9
100
AcDbVertex
100
AcDb2dVertex
 10
0.3417842575616608
 20
2.72281478868202
 30
0.0
  0
VERTEX
  5
AA
330
A8
100
AcDbEntity
  8
_U+5207_U+65AD_U+30D1_U+30B9
 62
     1
420
 16711680
370
     9
100
AcDbVertex
100
AcDb2dVertex
 10
0.3417842575616608
 20
2.177500522000021
 30
0.0
  0
VERTEX
  5
AB
330
A8
100
AcDbEntity
  8
_U+5207_U+65AD_U+30D1_U+30B9
 62
     1
420
 16711680
370
     9
100
AcDbVertex
100
AcDb2dVertex
 10
0.8870985242434573
 20
2.177500522000021
 30
0.0
  0
VERTEX
  5
AC
330
A8
100
AcDbEntity
  8
_U+5207_U+65AD_U+30D1_U+30B9
 62
     1
420
 16711680
370
     9
100
AcDbVertex
100
AcDb2dVertex
 10
0.8870985242434573
 20
2.72281478868202
 30
0.0
  0
VERTEX
  5
AD
330
A8
100
AcDbEntity
  8
_U+5207_U+65AD_U+30D1_U+30B9
 62
     1
420
 16711680
370
     9
100
AcDbVertex
100
AcDb2dVertex
 10
0.3417842575616608
 20
2.72281478868202
 30
0.0
  0
SEQEND
  5
AE
330
A8
100
AcDbEntity
  8
_U+5207_U+65AD_U+30D1_U+30B9
 62
     1
420
 16711680
370
     9
  0
ENDBLK
  5
A7
330
A4
100
AcDbEntity
  8
0
100
AcDbBlockEnd
  0
BLOCK
  5
B1
330
AF
100
AcDbEntity
  8
0
100
AcDbBlockBegin
  2
block 19
 70
     0
 10
0.0
 20
0.0
 30
0.0
  3
block 19
  1

  0
POLYLINE
  5
B3
330
AF
100
AcDbEntity
  8
_U+5207_U+65AD_U+30D1_U+30B9
 62
     1
420
 16711680
370
     9
100
AcDb2dPolyline
 66
     1
 10
0.0
 20
0.0
 30
0.0
  0
VERTEX
  5
B4
330
B3
100
AcDbEntity
  8
_U+5207_U+65AD_U+30D1_U+30B9
 62
     1
420
 16711680
370
     9
100
AcDbVertex
100
AcDb2dVertex
 10
0.3417842575616608
 20
1.974730235111262
 30
0.0
  0
VERTEX
  5
B5
330
B3
100
AcDbEntity
  8
_U+5207_U+65AD_U+30D1_U+30B9
 62
     1
420
 16711680
370
     9
100
AcDbVertex
100
AcDb2dVertex
 10
0.3417842575616608
 20
1.429415968429465
 30
0.0
  0
VERTEX
  5
B6
330
B3
100
AcDbEntity
  8
_U+5207_U+65AD_U+30D1_U+30B9
 62
     1
420
 16711680
370
     9
100
AcDbVertex
100
AcDb2dVertex
 10
0.8870985242434573
 20
1.429415968429465
 30
0.0
  0
VERTEX
  5
B7
330
B3
100
AcDbEntity
  8
_U+5207_U+65AD_U+30D1_U+30B9
 62
     1
420
 16711680
370
     9
100
AcDbVertex
100
AcDb2dVertex
 10
0.8870985242434573
 20
1.974730235111262
 30
0.0
  0
VERTEX
  5
B8
330
B3
100
AcDbEntity
  8
_U+5207_U+65AD_U+30D1_U+30B9
 62
     1
420
 16711680
370
     9
100
AcDbVertex
100
AcDb2dVertex
 10
0.3417842575616608
 20
1.974730235111262
 30
0.0
  0
SEQEND
  5
B9
330
B3
100
AcDbEntity
  8
_U+5207_U+65AD_U+30D1_U+30B9
 62
     1
420
 16711680
370
     9
  0
ENDBLK
  5
B2
330
AF
100
AcDbEntity
  8
0
100
AcDbBlockEnd
  0
BLOCK
  5
BC
330
BA
100
AcDbEntity
  8
0
100
AcDbBlockBegin
  2
block 20
 70
     0
 10
0.0
 20
0.0
 30
0.0
  3
block 20
  1

  0
POLYLINE
  5
BE
330
BA
100
AcDbEntity
  8
_U+5207_U+65AD_U+30D1_U+30B9
 62
     1
420
 16711680
370
     9
100
AcDb2dPolyline
 66
     1
 10
0.0
 20
0.0
 30
0.0
  0
VERTEX
  5
BF
330
BE
100
AcDbEntity
  8
_U+5207_U+65AD_U+30D1_U+30B9
 62
     1
420
 16711680
370
     9
100
AcDbVertex
100
AcDb2dVertex
 10
1.089888812550776
 20
3.470899342252626
 30
0.0
  0
VERTEX
  5
C0
330
BE
100
AcDbEntity
  8
_U+5207_U+65AD_U+30D1_U+30B9
 62
     1
420
 16711680
370
     9
100
AcDbVertex
100
AcDb2dVertex
 10
1.089888812550776
 20
2.92558507557078
 30
0.0
  0
VERTEX
  5
C1
330
BE
100
AcDbEntity
  8
_U+5207_U+65AD_U+30D1_U+30B9
 62
     1
420
 16711680
370
     9
100
AcDbVertex
100
AcDb2dVertex
 10
1.635203079232636
 20
2.92558507557078
 30
0.0
  0
VERTEX
  5
C2
330
BE
100
AcDbEntity
  8
_U+5207_U+65AD_U+30D1_U+30B9
 62
     1
420
 16711680
370
     9
100
AcDbVertex
100
AcDb2dVertex
 10
1.635203079232636
 20
3.470899342252626
 30
0.0
  0
VERTEX
  5
C3
330
BE
100
AcDbEntity
  8
_U+5207_U+65AD_U+30D1_U+30B9
 62
     1
420
 16711680
370
     9
100
AcDbVertex
100
AcDb2dVertex
 10
1.089888812550776
 20
3.470899342252626
 30
0.0
  0
SEQEND
  5
C4
330
BE
100
AcDbEntity
  8
_U+5207_U+65AD_U+30D1_U+30B9
 62
     1
420
 16711680
370
     9
  0
ENDBLK
  5
BD
330
BA
100
AcDbEntity
  8
0
100
AcDbBlockEnd
  0
BLOCK
  5
C7
330
C5
100
AcDbEntity
  8
0
100
AcDbBlockBegin
  2
block 21
 70
     0
 10
0.0
 20
0.0
 30
0.0
  3
block 21
  1

  0
POLYLINE
  5
C9
330
C5
100
AcDbEntity
  8
_U+5207_U+65AD_U+30D1_U+30B9
 62
     1
420
 16711680
370
     9
100
AcDb2dPolyline
 66
     1
 10
0.0
 20
0.0
 30
0.0
  0
VERTEX
  5
CA
330
C9
100
AcDbEntity
  8
_U+5207_U+65AD_U+30D1_U+30B9
 62
     1
420
 16711680
370
     9
100
AcDbVertex
100
AcDb2dVertex
 10
1.089888812550776
 20
2.72281478868202
 30
0.0
  0
VERTEX
  5
CB
330
C9
100
AcDbEntity
  8
_U+5207_U+65AD_U+30D1_U+30B9
 62
     1
420
 16711680
370
     9
100
AcDbVertex
100
AcDb2dVertex
 10
1.089888812550776
 20
2.177500522000021
 30
0.0
  0
VERTEX
  5
CC
330
C9
100
AcDbEntity
  8
_U+5207_U+65AD_U+30D1_U+30B9
 62
     1
420
 16711680
370
     9
100
AcDbVertex
100
AcDb2dVertex
 10
1.635203079232636
 20
2.177500522000021
 30
0.0
  0
VERTEX
  5
CD
330
C9
100
AcDbEntity
  8
_U+5207_U+65AD_U+30D1_U+30B9
 62
     1
420
 16711680
370
     9
100
AcDbVertex
100
AcDb2dVertex
 10
1.635203079232636
 20
2.72281478868202
 30
0.0
  0
VERTEX
  5
CE
330
C9
100
AcDbEntity
  8
_U+5207_U+65AD_U+30D1_U+30B9
 62
     1
420
 16711680
370
     9
100
AcDbVertex
100
AcDb2dVertex
 10
1.089888812550776
 20
2.72281478868202
 30
0.0
  0
SEQEND
  5
CF
330
C9
100
AcDbEntity
  8
_U+5207_U+65AD_U+30D1_U+30B9
 62
     1
420
 16711680
370
     9
  0
ENDBLK
  5
C8
330
C5
100
AcDbEntity
  8
0
100
AcDbBlockEnd
  0
BLOCK
  5
D2
330
D0
100
AcDbEntity
  8
0
100
AcDbBlockBegin
  2
block 22
 70
     0
 10
0.0
 20
0.0
 30
0.0
  3
block 22
  1

  0
POLYLINE
  5
D4
330
D0
100
AcDbEntity
  8
_U+5207_U+65AD_U+30D1_U+30B9
 62
     1
420
 16711680
370
     9
100
AcDb2dPolyline
 66
     1
 10
0.0
 20
0.0
 30
0.0
  0
VERTEX
  5
D5
330
D4
100
AcDbEntity
  8
_U+5207_U+65AD_U+30D1_U+30B9
 62
     1
420
 16711680
370
     9
100
AcDbVertex
100
AcDb2dVertex
 10
1.089888812550776
 20
1.974730235111262
 30
0.0
  0
VERTEX
  5
D6
330
D4
100
AcDbEntity
  8
_U+5207_U+65AD_U+30D1_U+30B9
 62
     1
420
 16711680
370
     9
100
AcDbVertex
100
AcDb2dVertex
 10
1.089888812550776
 20
1.429415968429465
 30
0.0
  0
VERTEX
  5
D7
330
D4
100
AcDbEntity
  8
_U+5207_U+65AD_U+30D1_U+30B9
 62
     1
420
 16711680
370
     9
100
AcDbVertex
100
AcDb2dVertex
 10
1.635203079232636
 20
1.429415968429465
 30
0.0
  0
VERTEX
  5
D8
330
D4
100
AcDbEntity
  8
_U+5207_U+65AD_U+30D1_U+30B9
 62
     1
420
 16711680
370
     9
100
AcDbVertex
100
AcDb2dVertex
 10
1.635203079232636
 20
1.974730235111262
 30
0.0
  0
VERTEX
  5
D9
330
D4
100
AcDbEntity
  8
_U+5207_U+65AD_U+30D1_U+30B9
 62
     1
420
 16711680
370
     9
100
AcDbVertex
100
AcDb2dVertex
 10
1.089888812550776
 20
1.974730235111262
 30
0.0
  0
SEQEND
  5
DA
330
D4
100
AcDbEntity
  8
_U+5207_U+65AD_U+30D1_U+30B9
 62
     1
420
 16711680
370
     9
  0
ENDBLK
  5
D3
330
D0
100
AcDbEntity
  8
0
100
AcDbBlockEnd
  0
BLOCK
  5
DD
330
DB
100
AcDbEntity
  8
0
100
AcDbBlockBegin
  2
block 23
 70
     0
 10
0.0
 20
0.0
 30
0.0
  3
block 23
  1

  0
POLYLINE
  5
DF
330
DB
100
AcDbEntity
  8
_U+5207_U+65AD_U+30D1_U+30B9
 62
     1
420
 16711680
370
     9
100
AcDb2dPolyline
 66
     1
 10
0.0
 20
0.0
 30
0.0
  0
VERTEX
  5
E0
330
DF
100
AcDbEntity
  8
_U+5207_U+65AD_U+30D1_U+30B9
 62
     1
420
 16711680
370
     9
100
AcDbVertex
100
AcDb2dVertex
 10
1.837973366121736
 20
3.657920480645266
 30
0.0
  0
VERTEX
  5
E1
330
DF
100
AcDbEntity
  8
_U+5207_U+65AD_U+30D1_U+30B9
 62
     1
420
 16711680
370
     9
100
AcDbVertex
100
AcDb2dVertex
 10
1.837973366121736
 20
3.11260621396357
 30
0.0
  0
VERTEX
  5
E2
330
DF
100
AcDbEntity
  8
_U+5207_U+65AD_U+30D1_U+30B9
 62
     1
420
 16711680
370
     9
100
AcDbVertex
100
AcDb2dVertex
 10
2.383287632803482
 20
3.11260621396357
 30
0.0
  0
VERTEX
  5
E3
330
DF
100
AcDbEntity
  8
_U+5207_U+65AD_U+30D1_U+30B9
 62
     1
420
 16711680
370
     9
100
AcDbVertex
100
AcDb2dVertex
 10
2.383287632803482
 20
3.657920480645266
 30
0.0
  0
VERTEX
  5
E4
330
DF
100
AcDbEntity
  8
_U+5207_U+65AD_U+30D1_U+30B9
 62
     1
420
 16711680
370
     9
100
AcDbVertex
100
AcDb2dVertex
 10
1.837973366121736
 20
3.657920480645266
 30
0.0
  0
SEQEND
  5
E5
330
DF
100
AcDbEntity
  8
_U+5207_U+65AD_U+30D1_U+30B9
 62
     1
420
 16711680
370
     9
  0
ENDBLK
  5
DE
330
DB
100
AcDbEntity
  8
0
100
AcDbBlockEnd
  0
BLOCK
  5
E8
330
E6
100
AcDbEntity
  8
0
100
AcDbBlockBegin
  2
block 24
 70
     0
 10
0.0
 20
0.0
 30
0.0
  3
block 24
  1

  0
POLYLINE
  5
EA
330
E6
100
AcDbEntity
  8
_U+5207_U+65AD_U+30D1_U+30B9
 62
     1
420
 16711680
370
     9
100
AcDb2dPolyline
 66
     1
 10
0.0
 20
0.0
 30
0.0
  0
VERTEX
  5
EB
330
EA
100
AcDbEntity
  8
_U+5207_U+65AD_U+30D1_U+30B9
 62
     1
420
 16711680
370
     9
100
AcDbVertex
100
AcDb2dVertex
 10
1.837973366121736
 20
2.909835927074659
 30
0.0
  0
VERTEX
  5
EC
330
EA
100
AcDbEntity
  8
_U+5207_U+65AD_U+30D1_U+30B9
 62
     1
420
 16711680
370
     9
100
AcDbVertex
100
AcDb2dVertex
 10
1.837973366121736
 20
2.364521660392964
 30
0.0
  0
VERTEX
  5
ED
330
EA
100
AcDbEntity
  8
_U+5207_U+65AD_U+30D1_U+30B9
 62
     1
420
 16711680
370
     9
100
AcDbVertex
100
AcDb2dVertex
 10
2.383287632803482
 20
2.364521660392964
 30
0.0
  0
VERTEX
  5
EE
330
EA
100
AcDbEntity
  8
_U+5207_U+65AD_U+30D1_U+30B9
 62
     1
420
 16711680
370
     9
100
AcDbVertex
100
AcDb2dVertex
 10
2.383287632803482
 20
2.909835927074659
 30
0.0
  0
VERTEX
  5
EF
330
EA
100
AcDbEntity
  8
_U+5207_U+65AD_U+30D1_U+30B9
 62
     1
420
 16711680
370
     9
100
AcDbVertex
100
AcDb2dVertex
 10
1.837973366121736
 20
2.909835927074659
 30
0.0
  0
SEQEND
  5
F0
330
EA
100
AcDbEntity
  8
_U+5207_U+65AD_U+30D1_U+30B9
 62
     1
420
 16711680
370
     9
  0
ENDBLK
  5
E9
330
E6
100
AcDbEntity
  8
0
100
AcDbBlockEnd
  0
BLOCK
  5
F3
330
F1
100
AcDbEntity
  8
0
100
AcDbBlockBegin
  2
block 25
 70
     0
 10
0.0
 20
0.0
 30
0.0
  3
block 25
  1

  0
POLYLINE
  5
F5
330
F1
100
AcDbEntity
  8
_U+5207_U+65AD_U+30D1_U+30B9
 62
     1
420
 16711680
370
     9
100
AcDb2dPolyline
 66
     1
 10
0.0
 20
0.0
 30
0.0
  0
VERTEX
  5
F6
330
F5
100
AcDbEntity
  8
_U+5207_U+65AD_U+30D1_U+30B9
 62
     1
420
 16711680
370
     9
100
AcDbVertex
100
AcDb2dVertex
 10
1.837973366121736
 20
2.161751373503749
 30
0.0
  0
VERTEX
  5
F7
330
F5
100
AcDbEntity
  8
_U+5207_U+65AD_U+30D1_U+30B9
 62
     1
420
 16711680
370
     9
100
AcDbVertex
100
AcDb2dVertex
 10
1.837973366121736
 20
1.616437106822104
 30
0.0
  0
VERTEX
  5
F8
330
F5
100
AcDbEntity
  8
_U+5207_U+65AD_U+30D1_U+30B9
 62
     1
420
 16711680
370
     9
100
AcDbVertex
100
AcDb2dVertex
 10
2.383287632803482
 20
1.616437106822104
 30
0.0
  0
VERTEX
  5
F9
330
F5
100
AcDbEntity
  8
_U+5207_U+65AD_U+30D1_U+30B9
 62
     1
420
 16711680
370
     9
100
AcDbVertex
100
AcDb2dVertex
 10
2.383287632803482
 20
2.161751373503749
 30
0.0
  0
VERTEX
  5
FA
330
F5
100
AcDbEntity
  8
_U+5207_U+65AD_U+30D1_U+30B9
 62
     1
420
 16711680
370
     9
100
AcDbVertex
100
AcDb2dVertex
 10
1.837973366121736
 20
2.161751373503749
 30
0.0
  0
SEQEND
  5
FB
330
F5
100
AcDbEntity
  8
_U+5207_U+65AD_U+30D1_U+30B9
 62
     1
420
 16711680
370
     9
  0
ENDBLK
  5
F4
330
F1
100
AcDbEntity
  8
0
100
AcDbBlockEnd
  0
BLOCK
  5
FE
330
FC
100
AcDbEntity
  8
0
100
AcDbBlockBegin
  2
block 26
 70
     0
 10
0.0
 20
0.0
 30
0.0
  3
block 26
  1

  0
POLYLINE
  5
100
330
FC
100
AcDbEntity
  8
_U+5207_U+65AD_U+30D1_U+30B9
 62
     1
420
 16711680
370
     9
100
AcDb2dPolyline
 66
     1
 10
0.0
 20
0.0
 30
0.0
  0
VERTEX
  5
101
330
100
100
AcDbEntity
  8
_U+5207_U+65AD_U+30D1_U+30B9
 62
     1
420
 16711680
370
     9
100
AcDbVertex
100
AcDb2dVertex
 10
2.586057919692292
 20
3.751431049841509
 30
0.0
  0
VERTEX
  5
102
330
100
100
AcDbEntity
  8
_U+5207_U+65AD_U+30D1_U+30B9
 62
     1
420
 16711680
370
     9
100
AcDbVertex
100
AcDb2dVertex
 10
2.586057919692292
 20
3.206116783159864
 30
0.0
  0
VERTEX
  5
103
330
100
100
AcDbEntity
  8
_U+5207_U+65AD_U+30D1_U+30B9
 62
     1
420
 16711680
370
     9
100
AcDbVertex
100
AcDb2dVertex
 10
3.131372186374089
 20
3.206116783159864
 30
0.0
  0
VERTEX
  5
104
330
100
100
AcDbEntity
  8
_U+5207_U+65AD_U+30D1_U+30B9
 62
     1
420
 16711680
370
     9
100
AcDbVertex
100
AcDb2dVertex
 10
3.131372186374089
 20
3.751431049841509
 30
0.0
  0
VERTEX
  5
105
330
100
100
AcDbEntity
  8
_U+5207_U+65AD_U+30D1_U+30B9
 62
     1
420
 16711680
370
     9
100
AcDbVertex
100
AcDb2dVertex
 10
2.586057919692292
 20
3.751431049841509
 30
0.0
  0
SEQEND
  5
106
330
100
100
AcDbEntity
  8
_U+5207_U+65AD_U+30D1_U+30B9
 62
     1
420
 16711680
370
     9
  0
ENDBLK
  5
FF
330
FC
100
AcDbEntity
  8
0
100
AcDbBlockEnd
  0
BLOCK
  5
109
330
107
100
AcDbEntity
  8
0
100
AcDbBlockBegin
  2
block 27
 70
     0
 10
0.0
 20
0.0
 30
0.0
  3
block 27
  1

  0
POLYLINE
  5
10B
330
107
100
AcDbEntity
  8
_U+5207_U+65AD_U+30D1_U+30B9
 62
     1
420
 16711680
370
     9
100
AcDb2dPolyline
 66
     1
 10
0.0
 20
0.0
 30
0.0
  0
VERTEX
  5
10C
330
10B
100
AcDbEntity
  8
_U+5207_U+65AD_U+30D1_U+30B9
 62
     1
420
 16711680
370
     9
100
AcDbVertex
100
AcDb2dVertex
 10
2.586057919692292
 20
3.003346496271054
 30
0.0
  0
VERTEX
  5
10D
330
10B
100
AcDbEntity
  8
_U+5207_U+65AD_U+30D1_U+30B9
 62
     1
420
 16711680
370
     9
100
AcDbVertex
100
AcDb2dVertex
 10
2.586057919692292
 20
2.458032229589258
 30
0.0
  0
VERTEX
  5
10E
330
10B
100
AcDbEntity
  8
_U+5207_U+65AD_U+30D1_U+30B9
 62
     1
420
 16711680
370
     9
100
AcDbVertex
100
AcDb2dVertex
 10
3.131372186374089
 20
2.458032229589258
 30
0.0
  0
VERTEX
  5
10F
330
10B
100
AcDbEntity
  8
_U+5207_U+65AD_U+30D1_U+30B9
 62
     1
420
 16711680
370
     9
100
AcDbVertex
100
AcDb2dVertex
 10
3.131372186374089
 20
3.003346496271054
 30
0.0
  0
VERTEX
  5
110
330
10B
100
AcDbEntity
  8
_U+5207_U+65AD_U+30D1_U+30B9
 62
     1
420
 16711680
370
     9
100
AcDbVertex
100
AcDb2dVertex
 10
2.586057919692292
 20
3.003346496271054
 30
0.0
  0
SEQEND
  5
111
330
10B
100
AcDbEntity
  8
_U+5207_U+65AD_U+30D1_U+30B9
 62
     1
420
 16711680
370
     9
  0
ENDBLK
  5
10A
330
107
100
AcDbEntity
  8
0
100
AcDbBlockEnd
  0
BLOCK
  5
114
330
112
100
AcDbEntity
  8
0
100
AcDbBlockBegin
  2
block 28
 70
     0
 10
0.0
 20
0.0
 30
0.0
  3
block 28
  1

  0
POLYLINE
  5
116
330
112
100
AcDbEntity
  8
_U+5207_U+65AD_U+30D1_U+30B9
 62
     1
420
 16711680
370
     9
100
AcDb2dPolyline
 66
     1
 10
0.0
 20
0.0
 30
0.0
  0
VERTEX
  5
117
330
116
100
AcDbEntity
  8
_U+5207_U+65AD_U+30D1_U+30B9
 62
     1
420
 16711680
370
     9
100
AcDbVertex
100
AcDb2dVertex
 10
2.586057919692292
 20
2.255261942700447
 30
0.0
  0
VERTEX
  5
118
330
116
100
AcDbEntity
  8
_U+5207_U+65AD_U+30D1_U+30B9
 62
     1
420
 16711680
370
     9
100
AcDbVertex
100
AcDb2dVertex
 10
2.586057919692292
 20
1.7099476760185
 30
0.0
  0
VERTEX
  5
119
330
116
100
AcDbEntity
  8
_U+5207_U+65AD_U+30D1_U+30B9
 62
     1
420
 16711680
370
     9
100
AcDbVertex
100
AcDb2dVertex
 10
3.131372186374089
 20
1.7099476760185
 30
0.0
  0
VERTEX
  5
11A
330
116
100
AcDbEntity
  8
_U+5207_U+65AD_U+30D1_U+30B9
 62
     1
420
 16711680
370
     9
100
AcDbVertex
100
AcDb2dVertex
 10
3.131372186374089
 20
2.255261942700447
 30
0.0
  0
VERTEX
  5
11B
330
116
100
AcDbEntity
  8
_U+5207_U+65AD_U+30D1_U+30B9
 62
     1
420
 16711680
370
     9
100
AcDbVertex
100
AcDb2dVertex
 10
2.586057919692292
 20
2.255261942700447
 30
0.0
  0
SEQEND
  5
11C
330
116
100
AcDbEntity
  8
_U+5207_U+65AD_U+30D1_U+30B9
 62
     1
420
 16711680
370
     9
  0
ENDBLK
  5
115
330
112
100
AcDbEntity
  8
0
100
AcDbBlockEnd
  0
BLOCK
  5
11F
330
11D
100
AcDbEntity
  8
0
100
AcDbBlockBegin
  2
block 29
 70
     0
 10
0.0
 20
0.0
 30
0.0
  3
block 29
  1

  0
POLYLINE
  5
121
330
11D
100
AcDbEntity
  8
_U+5207_U+65AD_U+30D1_U+30B9
 62
     1
420
 16711680
370
     9
100
AcDb2dPolyline
 66
     1
 10
0.0
 20
0.0
 30
0.0
  0
VERTEX
  5
122
330
121
100
AcDbEntity
  8
_U+5207_U+65AD_U+30D1_U+30B9
 62
     1
420
 16711680
370
     9
100
AcDbVertex
100
AcDb2dVertex
 10
3.33414247326295
 20
3.657920480645266
 30
0.0
  0
VERTEX
  5
123
330
121
100
AcDbEntity
  8
_U+5207_U+65AD_U+30D1_U+30B9
 62
     1
420
 16711680
370
     9
100
AcDbVertex
100
AcDb2dVertex
 10
3.33414247326295
 20
3.11260621396357
 30
0.0
  0
VERTEX
  5
124
330
121
100
AcDbEntity
  8
_U+5207_U+65AD_U+30D1_U+30B9
 62
     1
420
 16711680
370
     9
100
AcDbVertex
100
AcDb2dVertex
 10
3.879456739944796
 20
3.11260621396357
 30
0.0
  0
VERTEX
  5
125
330
121
100
AcDbEntity
  8
_U+5207_U+65AD_U+30D1_U+30B9
 62
     1
420
 16711680
370
     9
100
AcDbVertex
100
AcDb2dVertex
 10
3.879456739944796
 20
3.657920480645266
 30
0.0
  0
VERTEX
  5
126
330
121
100
AcDbEntity
  8
_U+5207_U+65AD_U+30D1_U+30B9
 62
     1
420
 16711680
370
     9
100
AcDbVertex
100
AcDb2dVertex
 10
3.33414247326295
 20
3.657920480645266
 30
0.0
  0
SEQEND
  5
127
330
121
100
AcDbEntity
  8
_U+5207_U+65AD_U+30D1_U+30B9
 62
     1
420
 16711680
370
     9
  0
ENDBLK
  5
120
330
11D
100
AcDbEntity
  8
0
100
AcDbBlockEnd
  0
BLOCK
  5
12A
330
128
100
AcDbEntity
  8
0
100
AcDbBlockBegin
  2
block 30
 70
     0
 10
0.0
 20
0.0
 30
0.0
  3
block 30
  1

  0
POLYLINE
  5
12C
330
128
100
AcDbEntity
  8
_U+5207_U+65AD_U+30D1_U+30B9
 62
     1
420
 16711680
370
     9
100
AcDb2dPolyline
 66
     1
 10
0.0
 20
0.0
 30
0.0
  0
VERTEX
  5
12D
330
12C
100
AcDbEntity
  8
_U+5207_U+65AD_U+30D1_U+30B9
 62
     1
420
 16711680
370
     9
100
AcDbVertex
100
AcDb2dVertex
 10
3.33414247326295
 20
2.909835927074659
 30
0.0
  0
VERTEX
  5
12E
330
12C
100
AcDbEntity
  8
_U+5207_U+65AD_U+30D1_U+30B9
 62
     1
420
 16711680
370
     9
100
AcDbVertex
100
AcDb2dVertex
 10
3.33414247326295
 20
2.364521660392964
 30
0.0
  0
VERTEX
  5
12F
330
12C
100
AcDbEntity
  8
_U+5207_U+65AD_U+30D1_U+30B9
 62
     1
420
 16711680
370
     9
100
AcDbVertex
100
AcDb2dVertex
 10
3.879456739944796
 20
2.364521660392964
 30
0.0
  0
VERTEX
  5
130
330
12C
100
AcDbEntity
  8
_U+5207_U+65AD_U+30D1_U+30B9
 62
     1
420
 16711680
370
     9
100
AcDbVertex
100
AcDb2dVertex
 10
3.879456739944796
 20
2.909835927074659
 30
0.0
  0
VERTEX
  5
131
330
12C
100
AcDbEntity
  8
_U+5207_U+65AD_U+30D1_U+30B9
 62
     1
420
 16711680
370
     9
100
AcDbVertex
100
AcDb2dVertex
 10
3.33414247326295
 20
2.909835927074659
 30
0.0
  0
SEQEND
  5
132
330
12C
100
AcDbEntity
  8
_U+5207_U+65AD_U+30D1_U+30B9
 62
     1
420
 16711680
370
     9
  0
ENDBLK
  5
12B
330
128
100
AcDbEntity
  8
0
100
AcDbBlockEnd
  0
BLOCK
  5
135
330
133
100
AcDbEntity
  8
0
100
AcDbBlockBegin
  2
block 31
 70
     0
 10
0.0
 20
0.0
 30
0.0
  3
block 31
  1

  0
POLYLINE
  5
137
330
133
100
AcDbEntity
  8
_U+5207_U+65AD_U+30D1_U+30B9
 62
     1
420
 16711680
370
     9
100
AcDb2dPolyline
 66
     1
 10
0.0
 20
0.0
 30
0.0
  0
VERTEX
  5
138
330
137
100
AcDbEntity
  8
_U+5207_U+65AD_U+30D1_U+30B9
 62
     1
420
 16711680
370
     9
100
AcDbVertex
100
AcDb2dVertex
 10
3.33414247326295
 20
2.161751373503749
 30
0.0
  0
VERTEX
  5
139
330
137
100
AcDbEntity
  8
_U+5207_U+65AD_U+30D1_U+30B9
 62
     1
420
 16711680
370
     9
100
AcDbVertex
100
AcDb2dVertex
 10
3.33414247326295
 20
1.616437106822104
 30
0.0
  0
VERTEX
  5
13A
330
137
100
AcDbEntity
  8
_U+5207_U+65AD_U+30D1_U+30B9
 62
     1
420
 16711680
370
     9
100
AcDbVertex
100
AcDb2dVertex
 10
3.879456739944796
 20
1.616437106822104
 30
0.0
  0
VERTEX
  5
13B
330
137
100
AcDbEntity
  8
_U+5207_U+65AD_U+30D1_U+30B9
 62
     1
420
 16711680
370
     9
100
AcDbVertex
100
AcDb2dVertex
 10
3.879456739944796
 20
2.161751373503749
 30
0.0
  0
VERTEX
  5
13C
330
137
100
AcDbEntity
  8
_U+5207_U+65AD_U+30D1_U+30B9
 62
     1
420
 16711680
370
     9
100
AcDbVertex
100
AcDb2dVertex
 10
3.33414247326295
 20
2.161751373503749
 30
0.0
  0
SEQEND
  5
13D
330
137
100
AcDbEntity
  8
_U+5207_U+65AD_U+30D1_U+30B9
 62
     1
420
 16711680
370
     9
  0
ENDBLK
  5
136
330
133
100
AcDbEntity
  8
0
100
AcDbBlockEnd
  0
BLOCK
  5
140
330
13E
100
AcDbEntity
  8
0
100
AcDbBlockBegin
  2
block 32
 70
     0
 10
0.0
 20
0.0
 30
0.0
  3
block 32
  1

  0
POLYLINE
  5
142
330
13E
100
AcDbEntity
  8
_U+5207_U+65AD_U+30D1_U+30B9
 62
     1
420
 16711680
370
     9
100
AcDb2dPolyline
 66
     1
 10
0.0
 20
0.0
 30
0.0
  0
VERTEX
  5
143
330
142
100
AcDbEntity
  8
_U+5207_U+65AD_U+30D1_U+30B9
 62
     1
420
 16711680
370
     9
100
AcDbVertex
100
AcDb2dVertex
 10
4.082227026833758
 20
3.564409911449022
 30
0.0
  0
VERTEX
  5
144
330
142
100
AcDbEntity
  8
_U+5207_U+65AD_U+30D1_U+30B9
 62
     1
420
 16711680
370
     9
100
AcDbVertex
100
AcDb2dVertex
 10
4.082227026833758
 20
3.019095644767326
 30
0.0
  0
VERTEX
  5
145
330
142
100
AcDbEntity
  8
_U+5207_U+65AD_U+30D1_U+30B9
 62
     1
420
 16711680
370
     9
100
AcDbVertex
100
AcDb2dVertex
 10
4.627541293515656
 20
3.019095644767326
 30
0.0
  0
VERTEX
  5
146
330
142
100
AcDbEntity
  8
_U+5207_U+65AD_U+30D1_U+30B9
 62
     1
420
 16711680
370
     9
100
AcDbVertex
100
AcDb2dVertex
 10
4.627541293515656
 20
3.564409911449022
 30
0.0
  0
VERTEX
  5
147
330
142
100
AcDbEntity
  8
_U+5207_U+65AD_U+30D1_U+30B9
 62
     1
420
 16711680
370
     9
100
AcDbVertex
100
AcDb2dVertex
 10
4.082227026833758
 20
3.564409911449022
 30
0.0
  0
SEQEND
  5
148
330
142
100
AcDbEntity
  8
_U+5207_U+65AD_U+30D1_U+30B9
 62
     1
420
 16711680
370
     9
  0
ENDBLK
  5
141
330
13E
100
AcDbEntity
  8
0
100
AcDbBlockEnd
  0
BLOCK
  5
14B
330
149
100
AcDbEntity
  8
0
100
AcDbBlockBegin
  2
block 33
 70
     0
 10
0.0
 20
0.0
 30
0.0
  3
block 33
  1

  0
POLYLINE
  5
14D
330
149
100
AcDbEntity
  8
_U+5207_U+65AD_U+30D1_U+30B9
 62
     1
420
 16711680
370
     9
100
AcDb2dPolyline
 66
     1
 10
0.0
 20
0.0
 30
0.0
  0
VERTEX
  5
14E
330
14D
100
AcDbEntity
  8
_U+5207_U+65AD_U+30D1_U+30B9
 62
     1
420
 16711680
370
     9
100
AcDbVertex
100
AcDb2dVertex
 10
4.082227026833758
 20
2.816325357878263
 30
0.0
  0
VERTEX
  5
14F
330
14D
100
AcDbEntity
  8
_U+5207_U+65AD_U+30D1_U+30B9
 62
     1
420
 16711680
370
     9
100
AcDbVertex
100
AcDb2dVertex
 10
4.082227026833758
 20
2.271011091196316
 30
0.0
  0
VERTEX
  5
150
330
14D
100
AcDbEntity
  8
_U+5207_U+65AD_U+30D1_U+30B9
 62
     1
420
 16711680
370
     9
100
AcDbVertex
100
AcDb2dVertex
 10
4.627541293515656
 20
2.271011091196316
 30
0.0
  0
VERTEX
  5
151
330
14D
100
AcDbEntity
  8
_U+5207_U+65AD_U+30D1_U+30B9
 62
     1
420
 16711680
370
     9
100
AcDbVertex
100
AcDb2dVertex
 10
4.627541293515656
 20
2.816325357878263
 30
0.0
  0
VERTEX
  5
152
330
14D
100
AcDbEntity
  8
_U+5207_U+65AD_U+30D1_U+30B9
 62
     1
420
 16711680
370
     9
100
AcDbVertex
100
AcDb2dVertex
 10
4.082227026833758
 20
2.816325357878263
 30
0.0
  0
SEQEND
  5
153
330
14D
100
AcDbEntity
  8
_U+5207_U+65AD_U+30D1_U+30B9
 62
     1
420
 16711680
370
     9
  0
ENDBLK
  5
14C
330
149
100
AcDbEntity
  8
0
100
AcDbBlockEnd
  0
BLOCK
  5
156
330
154
100
AcDbEntity
  8
0
100
AcDbBlockBegin
  2
block 34
 70
     0
 10
0.0
 20
0.0
 30
0.0
  3
block 34
  1

  0
POLYLINE
  5
158
330
154
100
AcDbEntity
  8
_U+5207_U+65AD_U+30D1_U+30B9
 62
     1
420
 16711680
370
     9
100
AcDb2dPolyline
 66
     1
 10
0.0
 20
0.0
 30
0.0
  0
VERTEX
  5
159
330
158
100
AcDbEntity
  8
_U+5207_U+65AD_U+30D1_U+30B9
 62
     1
420
 16711680
370
     9
100
AcDbVertex
100
AcDb2dVertex
 10
4.082227026833758
 20
2.068240804307505
 30
0.0
  0
VERTEX
  5
15A
330
158
100
AcDbEntity
  8
_U+5207_U+65AD_U+30D1_U+30B9
 62
     1
420
 16711680
370
     9
100
AcDbVertex
100
AcDb2dVertex
 10
4.082227026833758
 20
1.52292653762586
 30
0.0
  0
VERTEX
  5
15B
330
158
100
AcDbEntity
  8
_U+5207_U+65AD_U+30D1_U+30B9
 62
     1
420
 16711680
370
     9
100
AcDbVertex
100
AcDb2dVertex
 10
4.627541293515656
 20
1.52292653762586
 30
0.0
  0
VERTEX
  5
15C
330
158
100
AcDbEntity
  8
_U+5207_U+65AD_U+30D1_U+30B9
 62
     1
420
 16711680
370
     9
100
AcDbVertex
100
AcDb2dVertex
 10
4.627541293515656
 20
2.068240804307505
 30
0.0
  0
VERTEX
  5
15D
330
158
100
AcDbEntity
  8
_U+5207_U+65AD_U+30D1_U+30B9
 62
     1
420
 16711680
370
     9
100
AcDbVertex
100
AcDb2dVertex
 10
4.082227026833758
 20
2.068240804307505
 30
0.0
  0
SEQEND
  5
15E
330
158
100
AcDbEntity
  8
_U+5207_U+65AD_U+30D1_U+30B9
 62
     1
420
 16711680
370
     9
  0
ENDBLK
  5
157
330
154
100
AcDbEntity
  8
0
100
AcDbBlockEnd
  0
BLOCK
  5
161
330
15F
100
AcDbEntity
  8
0
100
AcDbBlockBegin
  2
block 35
 70
     0
 10
0.0
 20
0.0
 30
0.0
  3
block 35
  1

  0
POLYLINE
  5
163
330
15F
100
AcDbEntity
  8
_U+5207_U+65AD_U+30D1_U+30B9
 62
     1
420
 16711680
370
     9
100
AcDb2dPolyline
 66
     1
 10
0.0
 20
0.0
 30
0.0
  0
VERTEX
  5
164
330
163
100
AcDbEntity
  8
_U+5207_U+65AD_U+30D1_U+30B9
 62
     1
420
 16711680
370
     9
100
AcDbVertex
100
AcDb2dVertex
 10
2.960100196477672
 20
1.389058775407951
 30
0.0
  0
VERTEX
  5
165
330
163
100
AcDbEntity
  8
_U+5207_U+65AD_U+30D1_U+30B9
 62
     1
420
 16711680
370
     9
100
AcDbVertex
100
AcDb2dVertex
 10
2.960100196477672
 20
0.843744508726104
 30
0.0
  0
VERTEX
  5
166
330
163
100
AcDbEntity
  8
_U+5207_U+65AD_U+30D1_U+30B9
 62
     1
420
 16711680
370
     9
100
AcDbVertex
100
AcDb2dVertex
 10
3.505414463159468
 20
0.843744508726104
 30
0.0
  0
VERTEX
  5
167
330
163
100
AcDbEntity
  8
_U+5207_U+65AD_U+30D1_U+30B9
 62
     1
420
 16711680
370
     9
100
AcDbVertex
100
AcDb2dVertex
 10
3.505414463159468
 20
1.389058775407951
 30
0.0
  0
VERTEX
  5
168
330
163
100
AcDbEntity
  8
_U+5207_U+65AD_U+30D1_U+30B9
 62
     1
420
 16711680
370
     9
100
AcDbVertex
100
AcDb2dVertex
 10
2.960100196477672
 20
1.389058775407951
 30
0.0
  0
SEQEND
  5
169
330
163
100
AcDbEntity
  8
_U+5207_U+65AD_U+30D1_U+30B9
 62
     1
420
 16711680
370
     9
  0
ENDBLK
  5
162
330
15F
100
AcDbEntity
  8
0
100
AcDbBlockEnd
  0
BLOCK
  5
16C
330
16A
100
AcDbEntity
  8
0
100
AcDbBlockBegin
  2
block 36
 70
     0
 10
0.0
 20
0.0
 30
0.0
  3
block 36
  1

  0
POLYLINE
  5
16E
330
16A
100
AcDbEntity
  8
_U+5207_U+65AD_U+30D1_U+30B9
 62
     1
420
 16711680
370
     9
100
AcDb2dPolyline
 66
     1
 10
0.0
 20
0.0
 30
0.0
  0
VERTEX
  5
16F
330
16E
100
AcDbEntity
  8
_U+5207_U+65AD_U+30D1_U+30B9
 62
     1
420
 16711680
370
     9
100
AcDbVertex
100
AcDb2dVertex
 10
3.866759371978737
 20
1.341832737966645
 30
0.0
  0
VERTEX
  5
170
330
16E
100
AcDbEntity
  8
_U+5207_U+65AD_U+30D1_U+30B9
 62
     1
420
 16711680
370
     9
100
AcDbVertex
100
AcDb2dVertex
 10
3.726156880632465
 20
0.8149564822158228
 30
0.0
  0
VERTEX
  5
171
330
16E
100
AcDbEntity
  8
_U+5207_U+65AD_U+30D1_U+30B9
 62
     1
420
 16711680
370
     9
100
AcDbVertex
100
AcDb2dVertex
 10
4.253033136383187
 20
0.6743539908694502
 30
0.0
  0
VERTEX
  5
172
330
16E
100
AcDbEntity
  8
_U+5207_U+65AD_U+30D1_U+30B9
 62
     1
420
 16711680
370
     9
100
AcDbVertex
100
AcDb2dVertex
 10
4.393635627729408
 20
1.201230246620323
 30
0.0
  0
VERTEX
  5
173
330
16E
100
AcDbEntity
  8
_U+5207_U+65AD_U+30D1_U+30B9
 62
     1
420
 16711680
370
     9
100
AcDbVertex
100
AcDb2dVertex
 10
3.866759371978737
 20
1.341832737966645
 30
0.0
  0
SEQEND
  5
174
330
16E
100
AcDbEntity
  8
_U+5207_U+65AD_U+30D1_U+30B9
 62
     1
420
 16711680
370
     9
  0
ENDBLK
  5
16D
330
16A
100
AcDbEntity
  8
0
100
AcDbBlockEnd
  0
BLOCK
  5
177
330
175
100
AcDbEntity
  8
0
100
AcDbBlockBegin
  2
block 37
 70
     0
 10
0.0
 20
0.0
 30
0.0
  3
block 37
  1

  0
POLYLINE
  5
179
330
175
100
AcDbEntity
  8
_U+5207_U+65AD_U+30D1_U+30B9
 62
     1
420
 16711680
370
     9
100
AcDb2dPolyline
 66
     1
 10
0.0
 20
0.0
 30
0.0
  0
VERTEX
  5
17A
330
179
100
AcDbEntity
  8
_U+5207_U+65AD_U+30D1_U+30B9
 62
     1
420
 16711680
370
     9
100
AcDbVertex
100
AcDb2dVertex
 10
4.835759055577506
 20
1.233106870154693
 30
0.0
  0
VERTEX
  5
17B
330
179
100
AcDbEntity
  8
_U+5207_U+65AD_U+30D1_U+30B9
 62
     1
420
 16711680
370
     9
100
AcDbVertex
100
AcDb2dVertex
 10
4.563424226845856
 20
0.7606649260955641
 30
0.0
  0
VERTEX
  5
17C
330
179
100
AcDbEntity
  8
_U+5207_U+65AD_U+30D1_U+30B9
 62
     1
420
 16711680
370
     9
100
AcDbVertex
100
AcDb2dVertex
 10
5.035866170905289
 20
0.4883300973640163
 30
0.0
  0
VERTEX
  5
17D
330
179
100
AcDbEntity
  8
_U+5207_U+65AD_U+30D1_U+30B9
 62
     1
420
 16711680
370
     9
100
AcDbVertex
100
AcDb2dVertex
 10
5.308200999636837
 20
0.9607720414234487
 30
0.0
  0
VERTEX
  5
17E
330
179
100
AcDbEntity
  8
_U+5207_U+65AD_U+30D1_U+30B9
 62
     1
420
 16711680
370
     9
100
AcDbVertex
100
AcDb2dVertex
 10
4.835759055577506
 20
1.233106870154693
 30
0.0
  0
SEQEND
  5
17F
330
179
100
AcDbEntity
  8
_U+5207_U+65AD_U+30D1_U+30B9
 62
     1
420
 16711680
370
     9
  0
ENDBLK
  5
178
330
175
100
AcDbEntity
  8
0
100
AcDbBlockEnd
  0
BLOCK
  5
182
330
180
100
AcDbEntity
  8
0
100
AcDbBlockBegin
  2
block 38
 70
     0
 10
0.0
 20
0.0
 30
0.0
  3
block 38
  1

  0
SPLINE
  5
184
330
180
100
AcDbEntity
  8
_U+5207_U+65AD_U+30D1_U+30B9
 62
     1
420
 16711680
370
     9
100
AcDbSpline
210
0.0
220
0.0
230
1.0
 70
    11
 71
     3
 72
   128
 73
   124
 74
     0
 42
0.0000000001
 43
0.0000000001
 12
1.0
 22
0.0
 32
0.0
 13
1.0
 23
0.0
 33
0.0
 40
0.0
 40
0.0
 40
0.0
 40
0.0
 40
1.0
 40
1.0
 40
1.0
 40
2.0
 40
2.0
 40
2.0
 40
3.0
 40
3.0
 40
3.0
 40
4.0
 40
4.0
 40
4.0
 40
5.0
 40
5.0
 40
5.0
 40
6.0
 40
6.0
 40
6.0
 40
7.0
 40
7.0
 40
7.0
 40
8.0
 40
8.0
 40
8.0
 40
9.0
 40
9.0
 40
9.0
 40
10.0
 40
10.0
 40
10.0
 40
11.0
 40
11.0
 40
11.0
 40
12.0
 40
12.0
 40
12.0
 40
13.0
 40
13.0
 40
13.0
 40
14.0
 40
14.0
 40
14.0
 40
15.0
 40
15.0
 40
15.0
 40
16.0
 40
16.0
 40
16.0
 40
17.0
 40
17.0
 40
17.0
 40
18.0
 40
18.0
 40
18.0
 40
19.0
 40
19.0
 40
19.0
 40
20.0
 40
20.0
 40
20.0
 40
21.0
 40
21.0
 40
21.0
 40
22.0
 40
22.0
 40
22.0
 40
23.0
 40
23.0
 40
23.0
 40
24.0
 40
24.0
 40
24.0
 40
25.0
 40
25.0
 40
25.0
 40
26.0
 40
26.0
 40
26.0
 40
27.0
 40
27.0
 40
27.0
 40
28.0
 40
28.0
 40
28.0
 40
29.0
 40
29.0
 40
29.0
 40
30.0
 40
30.0
 40
30.0
 40
31.0
 40
31.0
 40
31.0
 40
32.0
 40
32.0
 40
32.0
 40
33.0
 40
33.0
 40
33.0
 40
34.0
 40
34.0
 40
34.0
 40
35.0
 40
35.0
 40
35.0
 40
36.0
 40
36.0
 40
36.0
 40
37.0
 40
37.0
 40
37.0
 40
38.0
 40
38.0
 40
38.0
 40
39.0
 40
39.0
 40
39.0
 40
40.0
 40
40.0
 40
40.0
 40
41.0
 40
41.0
 40
41.0
 40
41.0
 10
3.45340789903043
 20
-2.796132183140799
 30
0.0
 10
3.457099821871452
 20
-2.792440260300206
 30
0.0
 10
3.462107143802516
 20
-2.79036615964555
 30
0.0
 10
3.467328311155294
 20
-2.790366159645777
 30
0.0
 10
3.467328311155294
 20
-2.790366159645777
 30
0.0
 10
4.884751675815601
 20
-2.790366159709416
 30
0.0
 10
4.884751675815601
 20
-2.790366159709416
 30
0.0
 10
4.884751675815601
 20
-2.790366159709416
 30
0.0
 10
4.963497418296659
 20
-2.790366159712953
 30
0.0
 10
4.963497418296659
 20
-2.790366159712953
 30
0.0
 10
4.963497418296659
 20
-2.790366159712953
 30
0.0
 10
5.632836229386258
 20
-2.790366159742992
 30
0.0
 10
5.632836229386258
 20
-2.790366159742992
 30
0.0
 10
5.643708747557866
 20
-2.790366159743497
 30
0.0
 10
5.652522665006978
 20
-2.781552242294967
 30
0.0
 10
5.652522665007433
 20
-2.770679724123612
 30
0.0
 10
5.652522665007433
 20
-2.770679724123612
 30
0.0
 10
5.652522665105102
 20
-0.5953285880823892
 30
0.0
 10
5.652522665105102
 20
-0.5953285880823892
 30
0.0
 10
5.652522665105607
 20
-0.5844560699107811
 30
0.0
 10
5.643708747657304
 20
-0.5756421524616446
 30
0.0
 10
5.632836229485696
 20
-0.5756421524611394
 30
0.0
 10
5.632836229485696
 20
-0.5756421524611394
 30
0.0
 10
4.963497418396097
 20
-0.5756421524311008
 30
0.0
 10
4.963497418396097
 20
-0.5756421524311008
 30
0.0
 10
4.963497418396097
 20
-0.5756421524311008
 30
0.0
 10
4.884751675915039
 20
-0.5756421524275639
 30
0.0
 10
4.884751675915039
 20
-0.5756421524275639
 30
0.0
 10
4.884751675915039
 20
-0.5756421524275639
 30
0.0
 10
4.17603999358476
 20
-0.5756421523957568
 30
0.0
 10
4.17603999358476
 20
-0.5756421523957568
 30
0.0
 10
4.165167475413303
 20
-0.5756421523952515
 30
0.0
 10
4.156353557965
 20
-0.5668282349462667
 30
0.0
 10
4.156353557965505
 20
-0.5559557167745071
 30
0.0
 10
4.156353557965505
 20
-0.5559557167745071
 30
0.0
 10
4.156353557972125
 20
-0.4083074496224475
 30
0.0
 10
4.156353557972125
 20
-0.4083074496224475
 30
0.0
 10
4.15635355797263
 20
-0.3974349314509406
 30
0.0
 10
4.147539640524378
 20
-0.3886210140016778
 30
0.0
 10
4.136667122352669
 20
-0.3886210140011978
 30
0.0
 10
4.136667122352669
 20
-0.3886210140011978
 30
0.0
 10
3.427955440022591
 20
-0.3886210139693654
 30
0.0
 10
3.427955440022591
 20
-0.3886210139693654
 30
0.0
 10
3.417082921850932
 20
-0.3886210139688854
 30
0.0
 10
3.40826900440263
 20
-0.3798070965200269
 30
0.0
 10
3.408269004403135
 20
-0.3689345783483683
 30
0.0
 10
3.408269004403135
 20
-0.3689345783483683
 30
0.0
 10
3.408269004405358
 20
-0.3197184892974797
 30
0.0
 10
3.408269004405358
 20
-0.3197184892974797
 30
0.0
 10
3.408269004405813
 20
-0.3088459711259727
 30
0.0
 10
3.39945508695756
 20
-0.3000320536769878
 30
0.0
 10
3.388582568785953
 20
-0.3000320536764826
 30
0.0
 10
3.388582568785953
 20
-0.3000320536764826
 30
0.0
 10
2.719243757696353
 20
-0.300032053646444
 30
0.0
 10
2.719243757696353
 20
-0.300032053646444
 30
0.0
 10
2.708371239524695
 20
-0.3000320536459387
 30
0.0
 10
2.699557322075584
 20
-0.3088459710941657
 30
0.0
 10
2.699557322075129
 20
-0.3197184892656726
 30
0.0
 10
2.699557322075129
 20
-0.3197184892656726
 30
0.0
 10
2.699557322072906
 20
-0.3689345783165612
 30
0.0
 10
2.699557322072906
 20
-0.3689345783165612
 30
0.0
 10
2.6995573220724
 20
-0.3798070964882198
 30
0.0
 10
2.69074340462344
 20
-0.38862101393627
 30
0.0
 10
2.679870886451833
 20
-0.38862101393579
 30
0.0
 10
2.679870886451833
 20
-0.38862101393579
 30
0.0
 10
1.971159204121629
 20
-0.3886210139039576
 30
0.0
 10
1.971159204121629
 20
-0.3886210139039576
 30
0.0
 10
1.96028668594997
 20
-0.3886210139034776
 30
0.0
 10
1.951472768500871
 20
-0.397434931351932
 30
0.0
 10
1.951472768500391
 20
-0.4083074495234389
 30
0.0
 10
1.951472768500391
 20
-0.4083074495234389
 30
0.0
 10
1.951472768497739
 20
-0.4673667563842324
 30
0.0
 10
1.951472768497739
 20
-0.4673667563842324
 30
0.0
 10
1.951472768497385
 20
-0.4782392745560426
 30
0.0
 10
1.942658851048236
 20
-0.487053192004118
 30
0.0
 10
1.931786332876628
 20
-0.4870531920036127
 30
0.0
 10
1.931786332876628
 20
-0.4870531920036127
 30
0.0
 10
1.2230746505465
 20
-0.4870531919718056
 30
0.0
 10
1.2230746505465
 20
-0.4870531919718056
 30
0.0
 10
1.212202132374942
 20
-0.4870531919713256
 30
0.0
 10
1.203388214925831
 20
-0.49586710941978
 30
0.0
 10
1.203388214925351
 20
-0.506739627591287
 30
0.0
 10
1.203388214925351
 20
-0.506739627591287
 30
0.0
 10
1.203388214923166
 20
-0.555345684221417
 30
0.0
 10
1.203388214923166
 20
-0.555345684221417
 30
0.0
 10
1.202269450553495
 20
-0.5659016692970403
 30
0.0
 10
1.194166197194249
 20
-0.5743719708684946
 30
0.0
 10
1.183670091292546
 20
-0.5759569678833082
 30
0.0
 10
1.183670091292546
 20
-0.5759569678833082
 30
0.0
 10
0.4060558842914664
 20
-0.5759569678483937
 30
0.0
 10
0.4060558842914664
 20
-0.5759569678483937
 30
0.0
 10
0.3951833661199594
 20
-0.5759569678479136
 30
0.0
 10
0.3863694486708482
 20
-0.584770885296267
 30
0.0
 10
0.3863694486703682
 20
-0.5956434034679255
 30
0.0
 10
0.3863694486703682
 20
-0.5956434034679255
 30
0.0
 10
0.3863672842643887
 20
-2.916934000868524
 30
0.0
 10
0.3863672842643887
 20
-2.916934000868524
 30
0.0
 10
0.3880727576142059
 20
-2.948954153437701
 30
0.0
 10
0.3977424148154745
 20
-2.980042446161759
 30
0.0
 10
0.4144997523179528
 20
-3.007380888870052
 30
0.0
 10
0.4144997523179528
 20
-3.007380888870052
 30
0.0
 10
0.9356526903365344
 20
-3.914461633450123
 30
0.0
 10
0.9356526903365344
 20
-3.914461633450123
 30
0.0
 10
0.935839491741275
 20
-3.91474319199339
 30
0.0
 10
0.9360304392477398
 20
-3.915021977694045
 30
0.0
 10
0.9362254704495347
 20
-3.915297899437544
 30
0.0
 10
0.9471706390409054
 20
-3.930782652501345
 30
0.0
 10
0.9685963238702521
 20
-3.934462712829903
 30
0.0
 10
0.9840810769342422
 20
-3.923517544238418
 30
0.0
 10
0.9840810769342422
 20
-3.923517544238418
 30
0.0
 10
1.564776714982119
 20
-3.58928430301421
 30
0.0
 10
1.564776714982119
 20
-3.58928430301421
 30
0.0
 10
1.568368570152946
 20
-3.588035523721727
 30
0.0
 10
1.572057607647177
 20
-3.587086129129122
 30
0.0
 10
1.575806060853514
 20
-3.586445838687066
 30
0.0
 10
1.575806060853514
 20
-3.586445838687066
 30
0.0
 10
3.024383509672791
 20
-3.371116010424025
 30
0.0
 10
3.024383509672791
 20
-3.371116010424025
 30
0.0
 10
3.029471988569185
 20
-3.370599455244322
 30
0.0
 10
3.034280661617332
 20
-3.368538595366772
 30
0.0
 10
3.038164014607345
 20
-3.365210079738568
 30
0.0
 10
3.038164014607345
 20
-3.365210079738568
 30
0.0
 10
3.45354780622079
 20
-2.795948174620535
 30
0.0
 10
3.45340789903043
 20
-2.796132183140799
 30
0.0
  0
ENDBLK
  5
183
330
180
100
AcDbEntity
  8
0
100
AcDbBlockEnd
  0
BLOCK
  5
187
330
185
100
AcDbEntity
  8
0
100
AcDbBlockBegin
  2
block 39
 70
     0
 10
0.0
 20
0.0
 30
0.0
  3
block 39
  1

  0
SPLINE
  5
189
330
185
100
AcDbEntity
  8
_U+5207_U+65AD_U+30D1_U+30B9
 62
     1
420
 16711680
370
     9
100
AcDbSpline
210
0.0
220
0.0
230
1.0
 70
    11
 71
     3
 72
    20
 73
    16
 74
     0
 42
0.0000000001
 43
0.0000000001
 12
1.0
 22
0.0
 32
0.0
 13
1.0
 23
0.0
 33
0.0
 40
0.0
 40
0.0
 40
0.0
 40
0.0
 40
1.0
 40
1.0
 40
1.0
 40
2.0
 40
2.0
 40
2.0
 40
3.0
 40
3.0
 40
3.0
 40
4.0
 40
4.0
 40
4.0
 40
5.0
 40
5.0
 40
5.0
 40
5.0
 10
3.264820501525466
 20
-2.73113854410614
 30
0.0
 10
3.264820501526527
 20
-2.707219004128521
 30
0.0
 10
3.245429883140382
 20
-2.687828385740406
 30
0.0
 10
3.221510343162764
 20
-2.68782838573932
 30
0.0
 10
3.197590803185297
 20
-2.687828385738258
 30
0.0
 10
3.178200184797232
 20
-2.707219004124631
 30
0.0
 10
3.178200184796171
 20
-2.731138544102249
 30
0.0
 10
3.17820018479511
 20
-2.755058084079817
 30
0.0
 10
3.197590803181406
 20
-2.774448702467503
 30
0.0
 10
3.221510343158873
 20
-2.774448702468564
 30
0.0
 10
3.245429883136492
 20
-2.77444870246965
 30
0.0
 10
3.264820501524405
 20
-2.755058084083708
 30
0.0
 10
3.264820501525466
 20
-2.73113854410614
 30
0.0
 10
3.264820501525466
 20
-2.73113854410614
 30
0.0
 10
3.264820501525466
 20
-2.73113854410614
 30
0.0
 10
3.264820501525466
 20
-2.73113854410614
 30
0.0
  0
ENDBLK
  5
188
330
185
100
AcDbEntity
  8
0
100
AcDbBlockEnd
  0
BLOCK
  5
18C
330
18A
100
AcDbEntity
  8
0
100
AcDbBlockBegin
  2
block 40
 70
     0
 10
0.0
 20
0.0
 30
0.0
  3
block 40
  1

  0
SPLINE
  5
18E
330
18A
100
AcDbEntity
  8
_U+5207_U+65AD_U+30D1_U+30B9
 62
     1
420
 16711680
370
     9
100
AcDbSpline
210
0.0
220
0.0
230
1.0
 70
    11
 71
     3
 72
    20
 73
    16
 74
     0
 42
0.0000000001
 43
0.0000000001
 12
1.0
 22
0.0
 32
0.0
 13
1.0
 23
0.0
 33
0.0
 40
0.0
 40
0.0
 40
0.0
 40
0.0
 40
1.0
 40
1.0
 40
1.0
 40
2.0
 40
2.0
 40
2.0
 40
3.0
 40
3.0
 40
3.0
 40
4.0
 40
4.0
 40
4.0
 40
5.0
 40
5.0
 40
5.0
 40
5.0
 10
1.974336995742886
 20
-1.166285264188799
 30
0.0
 10
1.97433699574396
 20
-1.142365724211181
 30
0.0
 10
1.954946377357765
 20
-1.122975105823495
 30
0.0
 10
1.931026837380159
 20
-1.122975105822434
 30
0.0
 10
1.907107297402679
 20
-1.122975105821347
 30
0.0
 10
1.887716679014766
 20
-1.14236572420729
 30
0.0
 10
1.887716679013693
 20
-1.166285264184909
 30
0.0
 10
1.887716679012631
 20
-1.190204804162477
 30
0.0
 10
1.907107297398801
 20
-1.209595422550592
 30
0.0
 10
1.931026837376268
 20
-1.209595422551678
 30
0.0
 10
1.954946377353887
 20
-1.209595422552739
 30
0.0
 10
1.974336995741826
 20
-1.190204804166367
 30
0.0
 10
1.974336995742886
 20
-1.166285264188799
 30
0.0
 10
1.974336995742886
 20
-1.166285264188799
 30
0.0
 10
1.974336995742886
 20
-1.166285264188799
 30
0.0
 10
1.974336995742886
 20
-1.166285264188799
 30
0.0
  0
ENDBLK
  5
18D
330
18A
100
AcDbEntity
  8
0
100
AcDbBlockEnd
  0
BLOCK
  5
191
330
18F
100
AcDbEntity
  8
0
100
AcDbBlockBegin
  2
block 41
 70
     0
 10
0.0
 20
0.0
 30
0.0
  3
block 41
  1

  0
SPLINE
  5
193
330
18F
100
AcDbEntity
  8
_U+5207_U+65AD_U+30D1_U+30B9
 62
     1
420
 16711680
370
     9
100
AcDbSpline
210
0.0
220
0.0
230
1.0
 70
    11
 71
     3
 72
    20
 73
    16
 74
     0
 42
0.0000000001
 43
0.0000000001
 12
1.0
 22
0.0
 32
0.0
 13
1.0
 23
0.0
 33
0.0
 40
0.0
 40
0.0
 40
0.0
 40
0.0
 40
1.0
 40
1.0
 40
1.0
 40
2.0
 40
2.0
 40
2.0
 40
3.0
 40
3.0
 40
3.0
 40
4.0
 40
4.0
 40
4.0
 40
5.0
 40
5.0
 40
5.0
 40
5.0
 10
4.967322130629175
 20
-1.308899387153183
 30
0.0
 10
4.967322130630237
 20
-1.284979847175716
 30
0.0
 10
4.94793151224394
 20
-1.265589228787576
 30
0.0
 10
4.924011972266473
 20
-1.265589228786515
 30
0.0
 10
4.900092432288854
 20
-1.265589228785428
 30
0.0
 10
4.880701813900941
 20
-1.284979847171826
 30
0.0
 10
4.88070181389988
 20
-1.308899387149293
 30
0.0
 10
4.880701813898819
 20
-1.332818927126709
 30
0.0
 10
4.900092432284964
 20
-1.352209545514673
 30
0.0
 10
4.924011972262583
 20
-1.352209545515759
 30
0.0
 10
4.947931512240049
 20
-1.35220954551682
 30
0.0
 10
4.967322130628114
 20
-1.3328189271306
 30
0.0
 10
4.967322130629175
 20
-1.308899387153183
 30
0.0
 10
4.967322130629175
 20
-1.308899387153183
 30
0.0
 10
4.967322130629175
 20
-1.308899387153183
 30
0.0
 10
4.967322130629175
 20
-1.308899387153183
 30
0.0
  0
ENDBLK
  5
192
330
18F
100
AcDbEntity
  8
0
100
AcDbBlockEnd
  0
BLOCK
  5
196
330
194
100
AcDbEntity
  8
0
100
AcDbBlockBegin
  2
block 42
 70
     0
 10
0.0
 20
0.0
 30
0.0
  3
block 42
  1

  0
SPLINE
  5
198
330
194
100
AcDbEntity
  8
_U+5207_U+65AD_U+30D1_U+30B9
 62
     1
420
 16711680
370
     9
100
AcDbSpline
210
0.0
220
0.0
230
1.0
 70
    11
 71
     3
 72
    20
 73
    16
 74
     0
 42
0.0000000001
 43
0.0000000001
 12
1.0
 22
0.0
 32
0.0
 13
1.0
 23
0.0
 33
0.0
 40
0.0
 40
0.0
 40
0.0
 40
0.0
 40
1.0
 40
1.0
 40
1.0
 40
2.0
 40
2.0
 40
2.0
 40
3.0
 40
3.0
 40
3.0
 40
4.0
 40
4.0
 40
4.0
 40
5.0
 40
5.0
 40
5.0
 40
5.0
 10
4.967668406541785
 20
-2.057527167704418
 30
0.0
 10
4.967668406542846
 20
-2.03360762772685
 30
0.0
 10
4.948277788156651
 20
-2.014217009338886
 30
0.0
 10
4.924358248179033
 20
-2.0142170093378
 30
0.0
 10
4.900438708201616
 20
-2.014217009336739
 30
0.0
 10
4.881048089813551
 20
-2.033607627722959
 30
0.0
 10
4.88104808981249
 20
-2.057527167700528
 30
0.0
 10
4.881048089811379
 20
-2.081446707678146
 30
0.0
 10
4.900438708197726
 20
-2.100837326065983
 30
0.0
 10
4.924358248175142
 20
-2.100837326067045
 30
0.0
 10
4.94827778815276
 20
-2.100837326068131
 30
0.0
 10
4.967668406540674
 20
-2.081446707682037
 30
0.0
 10
4.967668406541785
 20
-2.057527167704418
 30
0.0
 10
4.967668406541785
 20
-2.057527167704418
 30
0.0
 10
4.967668406541785
 20
-2.057527167704418
 30
0.0
 10
4.967668406541785
 20
-2.057527167704418
 30
0.0
  0
ENDBLK
  5
197
330
194
100
AcDbEntity
  8
0
100
AcDbBlockEnd
  0
BLOCK
  5
19B
330
199
100
AcDbEntity
  8
0
100
AcDbBlockBegin
  2
block 43
 70
     0
 10
0.0
 20
0.0
 30
0.0
  3
block 43
  1

  0
SPLINE
  5
19D
330
199
100
AcDbEntity
  8
_U+5207_U+65AD_U+30D1_U+30B9
 62
     1
420
 16711680
370
     9
100
AcDbSpline
210
0.0
220
0.0
230
1.0
 70
    11
 71
     3
 72
    20
 73
    16
 74
     0
 42
0.0000000001
 43
0.0000000001
 12
1.0
 22
0.0
 32
0.0
 13
1.0
 23
0.0
 33
0.0
 40
0.0
 40
0.0
 40
0.0
 40
0.0
 40
1.0
 40
1.0
 40
1.0
 40
2.0
 40
2.0
 40
2.0
 40
3.0
 40
3.0
 40
3.0
 40
4.0
 40
4.0
 40
4.0
 40
5.0
 40
5.0
 40
5.0
 40
5.0
 10
1.433325270783914
 20
-3.036434198606609
 30
0.0
 10
1.433325270784988
 20
-3.01251465862899
 30
0.0
 10
1.413934652398855
 20
-2.993124040240875
 30
0.0
 10
1.390015112421237
 20
-2.993124040239814
 30
0.0
 10
1.366095572443719
 20
-2.993124040238727
 30
0.0
 10
1.346704954055743
 20
-3.012514658625125
 30
0.0
 10
1.346704954054669
 20
-3.036434198602743
 30
0.0
 10
1.346704954053596
 20
-3.060353738580008
 30
0.0
 10
1.366095572439829
 20
-3.079744356968023
 30
0.0
 10
1.390015112417346
 20
-3.079744356969109
 30
0.0
 10
1.413934652394952
 20
-3.07974435697017
 30
0.0
 10
1.433325270782853
 20
-3.060353738583874
 30
0.0
 10
1.433325270783914
 20
-3.036434198606609
 30
0.0
 10
1.433325270783914
 20
-3.036434198606609
 30
0.0
 10
1.433325270783914
 20
-3.036434198606609
 30
0.0
 10
1.433325270783914
 20
-3.036434198606609
 30
0.0
  0
ENDBLK
  5
19C
330
199
100
AcDbEntity
  8
0
100
AcDbBlockEnd
  0
BLOCK
  5
1A0
330
19E
100
AcDbEntity
  8
0
100
AcDbBlockBegin
  2
block 44
 70
     0
 10
0.0
 20
0.0
 30
0.0
  3
block 44
  1

  0
INSERT
  5
1A3
330
19E
100
AcDbEntity
  8
_U+5207_U+65AD_U+30D1_U+30B9
100
AcDbBlockReference
  2
block 45
 10
0.0
 20
0.0
 30
0.0
  0
INSERT
  5
1A8
330
19E
100
AcDbEntity
  8
_U+5207_U+65AD_U+30D1_U+30B9
100
AcDbBlockReference
  2
block 46
 10
0.0
 20
0.0
 30
0.0
  0
INSERT
  5
1AD
330
19E
100
AcDbEntity
  8
_U+5207_U+65AD_U+30D1_U+30B9
100
AcDbBlockReference
  2
block 47
 10
0.0
 20
0.0
 30
0.0
  0
INSERT
  5
1B2
330
19E
100
AcDbEntity
  8
_U+5207_U+65AD_U+30D1_U+30B9
100
AcDbBlockReference
  2
block 48
 10
0.0
 20
0.0
 30
0.0
  0
INSERT
  5
1B7
330
19E
100
AcDbEntity
  8
_U+5207_U+65AD_U+30D1_U+30B9
100
AcDbBlockReference
  2
block 49
 10
0.0
 20
0.0
 30
0.0
  0
INSERT
  5
1BC
330
19E
100
AcDbEntity
  8
_U+5207_U+65AD_U+30D1_U+30B9
100
AcDbBlockReference
  2
block 50
 10
0.0
 20
0.0
 30
0.0
  0
INSERT
  5
1C1
330
19E
100
AcDbEntity
  8
_U+5207_U+65AD_U+30D1_U+30B9
100
AcDbBlockReference
  2
block 51
 10
0.0
 20
0.0
 30
0.0
  0
INSERT
  5
1CC
330
19E
100
AcDbEntity
  8
_U+5207_U+65AD_U+30D1_U+30B9
100
AcDbBlockReference
  2
block 52
 10
0.0
 20
0.0
 30
0.0
  0
INSERT
  5
1D7
330
19E
100
AcDbEntity
  8
_U+5207_U+65AD_U+30D1_U+30B9
100
AcDbBlockReference
  2
block 53
 10
0.0
 20
0.0
 30
0.0
  0
INSERT
  5
1E2
330
19E
100
AcDbEntity
  8
_U+5207_U+65AD_U+30D1_U+30B9
100
AcDbBlockReference
  2
block 54
 10
0.0
 20
0.0
 30
0.0
  0
INSERT
  5
1ED
330
19E
100
AcDbEntity
  8
_U+5207_U+65AD_U+30D1_U+30B9
100
AcDbBlockReference
  2
block 55
 10
0.0
 20
0.0
 30
0.0
  0
INSERT
  5
1F8
330
19E
100
AcDbEntity
  8
_U+5207_U+65AD_U+30D1_U+30B9
100
AcDbBlockReference
  2
block 56
 10
0.0
 20
0.0
 30
0.0
  0
INSERT
  5
203
330
19E
100
AcDbEntity
  8
_U+5207_U+65AD_U+30D1_U+30B9
100
AcDbBlockReference
  2
block 57
 10
0.0
 20
0.0
 30
0.0
  0
INSERT
  5
20E
330
19E
100
AcDbEntity
  8
_U+5207_U+65AD_U+30D1_U+30B9
100
AcDbBlockReference
  2
block 58
 10
0.0
 20
0.0
 30
0.0
  0
INSERT
  5
219
330
19E
100
AcDbEntity
  8
_U+5207_U+65AD_U+30D1_U+30B9
100
AcDbBlockReference
  2
block 59
 10
0.0
 20
0.0
 30
0.0
  0
INSERT
  5
224
330
19E
100
AcDbEntity
  8
_U+5207_U+65AD_U+30D1_U+30B9
100
AcDbBlockReference
  2
block 60
 10
0.0
 20
0.0
 30
0.0
  0
INSERT
  5
22F
330
19E
100
AcDbEntity
  8
_U+5207_U+65AD_U+30D1_U+30B9
100
AcDbBlockReference
  2
block 61
 10
0.0
 20
0.0
 30
0.0
  0
INSERT
  5
23A
330
19E
100
AcDbEntity
  8
_U+5207_U+65AD_U+30D1_U+30B9
100
AcDbBlockReference
  2
block 62
 10
0.0
 20
0.0
 30
0.0
  0
INSERT
  5
245
330
19E
100
AcDbEntity
  8
_U+5207_U+65AD_U+30D1_U+30B9
100
AcDbBlockReference
  2
block 63
 10
0.0
 20
0.0
 30
0.0
  0
INSERT
  5
250
330
19E
100
AcDbEntity
  8
_U+5207_U+65AD_U+30D1_U+30B9
100
AcDbBlockReference
  2
block 64
 10
0.0
 20
0.0
 30
0.0
  0
INSERT
  5
25B
330
19E
100
AcDbEntity
  8
_U+5207_U+65AD_U+30D1_U+30B9
100
AcDbBlockReference
  2
block 65
 10
0.0
 20
0.0
 30
0.0
  0
INSERT
  5
266
330
19E
100
AcDbEntity
  8
_U+5207_U+65AD_U+30D1_U+30B9
100
AcDbBlockReference
  2
block 66
 10
0.0
 20
0.0
 30
0.0
  0
INSERT
  5
271
330
19E
100
AcDbEntity
  8
_U+5207_U+65AD_U+30D1_U+30B9
100
AcDbBlockReference
  2
block 67
 10
0.0
 20
0.0
 30
0.0
  0
INSERT
  5
27C
330
19E
100
AcDbEntity
  8
_U+5207_U+65AD_U+30D1_U+30B9
100
AcDbBlockReference
  2
block 68
 10
0.0
 20
0.0
 30
0.0
  0
INSERT
  5
287
330
19E
100
AcDbEntity
  8
_U+5207_U+65AD_U+30D1_U+30B9
100
AcDbBlockReference
  2
block 69
 10
0.0
 20
0.0
 30
0.0
  0
INSERT
  5
292
330
19E
100
AcDbEntity
  8
_U+5207_U+65AD_U+30D1_U+30B9
100
AcDbBlockReference
  2
block 70
 10
0.0
 20
0.0
 30
0.0
  0
INSERT
  5
29D
330
19E
100
AcDbEntity
  8
_U+5207_U+65AD_U+30D1_U+30B9
100
AcDbBlockReference
  2
block 71
 10
0.0
 20
0.0
 30
0.0
  0
ENDBLK
  5
1A1
330
19E
100
AcDbEntity
  8
0
100
AcDbBlockEnd
  0
BLOCK
  5
1A4
330
1A2
100
AcDbEntity
  8
0
100
AcDbBlockBegin
  2
block 45
 70
     0
 10
0.0
 20
0.0
 30
0.0
  3
block 45
  1

  0
SPLINE
  5
1A6
330
1A2
100
AcDbEntity
  8
_U+5207_U+65AD_U+30D1_U+30B9
 62
     1
420
 16711680
370
     9
100
AcDbSpline
210
0.0
220
0.0
230
1.0
 70
    11
 71
     3
 72
   128
 73
   124
 74
     0
 42
0.0000000001
 43
0.0000000001
 12
1.0
 22
0.0
 32
0.0
 13
1.0
 23
0.0
 33
0.0
 40
0.0
 40
0.0
 40
0.0
 40
0.0
 40
1.0
 40
1.0
 40
1.0
 40
2.0
 40
2.0
 40
2.0
 40
3.0
 40
3.0
 40
3.0
 40
4.0
 40
4.0
 40
4.0
 40
5.0
 40
5.0
 40
5.0
 40
6.0
 40
6.0
 40
6.0
 40
7.0
 40
7.0
 40
7.0
 40
8.0
 40
8.0
 40
8.0
 40
9.0
 40
9.0
 40
9.0
 40
10.0
 40
10.0
 40
10.0
 40
11.0
 40
11.0
 40
11.0
 40
12.0
 40
12.0
 40
12.0
 40
13.0
 40
13.0
 40
13.0
 40
14.0
 40
14.0
 40
14.0
 40
15.0
 40
15.0
 40
15.0
 40
16.0
 40
16.0
 40
16.0
 40
17.0
 40
17.0
 40
17.0
 40
18.0
 40
18.0
 40
18.0
 40
19.0
 40
19.0
 40
19.0
 40
20.0
 40
20.0
 40
20.0
 40
21.0
 40
21.0
 40
21.0
 40
22.0
 40
22.0
 40
22.0
 40
23.0
 40
23.0
 40
23.0
 40
24.0
 40
24.0
 40
24.0
 40
25.0
 40
25.0
 40
25.0
 40
26.0
 40
26.0
 40
26.0
 40
27.0
 40
27.0
 40
27.0
 40
28.0
 40
28.0
 40
28.0
 40
29.0
 40
29.0
 40
29.0
 40
30.0
 40
30.0
 40
30.0
 40
31.0
 40
31.0
 40
31.0
 40
32.0
 40
32.0
 40
32.0
 40
33.0
 40
33.0
 40
33.0
 40
34.0
 40
34.0
 40
34.0
 40
35.0
 40
35.0
 40
35.0
 40
36.0
 40
36.0
 40
36.0
 40
37.0
 40
37.0
 40
37.0
 40
38.0
 40
38.0
 40
38.0
 40
39.0
 40
39.0
 40
39.0
 40
40.0
 40
40.0
 40
40.0
 40
41.0
 40
41.0
 40
41.0
 40
41.0
 10
-2.448685906161561
 20
-2.837798849539316
 30
0.0
 10
-2.444993983320665
 20
-2.834106926698824
 30
0.0
 10
-2.439986661389601
 20
-2.832032826044168
 30
0.0
 10
-2.434765494036823
 20
-2.832032826044395
 30
0.0
 10
-2.434765494036823
 20
-2.832032826044395
 30
0.0
 10
-1.017342129376667
 20
-2.832032826108035
 30
0.0
 10
-1.017342129376667
 20
-2.832032826108035
 30
0.0
 10
-1.017342129376667
 20
-2.832032826108035
 30
0.0
 10
-0.9385963868955589
 20
-2.832032826111572
 30
0.0
 10
-0.9385963868955589
 20
-2.832032826111572
 30
0.0
 10
-0.9385963868955589
 20
-2.832032826111572
 30
0.0
 10
-0.2692575758058587
 20
-2.832032826141611
 30
0.0
 10
-0.2692575758058587
 20
-2.832032826141611
 30
0.0
 10
-0.2583850576342507
 20
-2.832032826142115
 30
0.0
 10
-0.2495711401851395
 20
-2.823218908693585
 30
0.0
 10
-0.2495711401846595
 20
-2.812346390522078
 30
0.0
 10
-0.2495711401846595
 20
-2.812346390522078
 30
0.0
 10
-0.2495711400869898
 20
-0.6369952544808559
 30
0.0
 10
-0.2495711400869898
 20
-0.6369952544808559
 30
0.0
 10
-0.2495711400864972
 20
-0.6261227363090963
 30
0.0
 10
-0.2583850575348126
 20
-0.617308818860263
 30
0.0
 10
-0.2692575757064206
 20
-0.6173088188597577
 30
0.0
 10
-0.2692575757064206
 20
-0.6173088188597577
 30
0.0
 10
-0.9385963867959187
 20
-0.6173088188297192
 30
0.0
 10
-0.9385963867959187
 20
-0.6173088188297192
 30
0.0
 10
-0.9385963867959187
 20
-0.6173088188297192
 30
0.0
 10
-1.017342129277229
 20
-0.6173088188261823
 30
0.0
 10
-1.017342129277229
 20
-0.6173088188261823
 30
0.0
 10
-1.017342129277229
 20
-0.6173088188261823
 30
0.0
 10
-1.726053811607206
 20
-0.61730881879435
 30
0.0
 10
-1.726053811607206
 20
-0.61730881879435
 30
0.0
 10
-1.736926329778978
 20
-0.6173088187938699
 30
0.0
 10
-1.74574024722718
 20
-0.6084949013445566
 30
0.0
 10
-1.745740247226675
 20
-0.5976223831731001
 30
0.0
 10
-1.745740247226675
 20
-0.5976223831731001
 30
0.0
 10
-1.745740247220056
 20
-0.4499741160210406
 30
0.0
 10
-1.745740247220056
 20
-0.4499741160210406
 30
0.0
 10
-1.745740247219576
 20
-0.4391015978493821
 30
0.0
 10
-1.754554164667878
 20
-0.4302876804001445
 30
0.0
 10
-1.765426682839537
 20
-0.4302876803996645
 30
0.0
 10
-1.765426682839537
 20
-0.4302876803996645
 30
0.0
 10
-2.474138365169678
 20
-0.4302876803678322
 30
0.0
 10
-2.474138365169678
 20
-0.4302876803678322
 30
0.0
 10
-2.485010883341235
 20
-0.4302876803673522
 30
0.0
 10
-2.493824800789614
 20
-0.4214737629184936
 30
0.0
 10
-2.493824800789108
 20
-0.4106012447468856
 30
0.0
 10
-2.493824800789108
 20
-0.4106012447468856
 30
0.0
 10
-2.493824800786911
 20
-0.3613851556960981
 30
0.0
 10
-2.493824800786911
 20
-0.3613851556960981
 30
0.0
 10
-2.493824800786405
 20
-0.3505126375244395
 30
0.0
 10
-2.502638718234645
 20
-0.3416987200755809
 30
0.0
 10
-2.513511236406089
 20
-0.3416987200751009
 30
0.0
 10
-2.513511236406089
 20
-0.3416987200751009
 30
0.0
 10
-3.18285004749594
 20
-0.3416987200450624
 30
0.0
 10
-3.18285004749594
 20
-0.3416987200450624
 30
0.0
 10
-3.193722565667447
 20
-0.341698720044557
 30
0.0
 10
-3.202536483116394
 20
-0.3505126374926325
 30
0.0
 10
-3.202536483116887
 20
-0.361385155664291
 30
0.0
 10
-3.202536483116887
 20
-0.361385155664291
 30
0.0
 10
-3.202536483119085
 20
-0.4106012447150786
 30
0.0
 10
-3.202536483119085
 20
-0.4106012447150786
 30
0.0
 10
-3.202536483119603
 20
-0.4214737628866866
 30
0.0
 10
-3.211350400568727
 20
-0.4302876803347367
 30
0.0
 10
-3.222222918740272
 20
-0.4302876803342567
 30
0.0
 10
-3.222222918740272
 20
-0.4302876803342567
 30
0.0
 10
-3.930934601070463
 20
-0.4302876803024244
 30
0.0
 10
-3.930934601070463
 20
-0.4302876803024244
 30
0.0
 10
-3.941807119242033
 20
-0.4302876803019444
 30
0.0
 10
-3.950621036691283
 20
-0.4391015977503988
 30
0.0
 10
-3.950621036691763
 20
-0.4499741159220573
 30
0.0
 10
-3.950621036691763
 20
-0.4499741159220573
 30
0.0
 10
-3.950621036694416
 20
-0.5090334227827498
 30
0.0
 10
-3.950621036694416
 20
-0.5090334227827498
 30
0.0
 10
-3.950621036694908
 20
-0.5199059409545094
 30
0.0
 10
-3.959434954143805
 20
-0.5287198584027364
 30
0.0
 10
-3.970307472315615
 20
-0.528719858402231
 30
0.0
 10
-3.970307472315615
 20
-0.528719858402231
 30
0.0
 10
-4.67901915464544
 20
-0.528719858370424
 30
0.0
 10
-4.67901915464544
 20
-0.528719858370424
 30
0.0
 10
-4.689891672817301
 20
-0.5287198583699187
 30
0.0
 10
-4.698705590266311
 20
-0.5375337758182468
 30
0.0
 10
-4.698705590266791
 20
-0.5484062939899054
 30
0.0
 10
-4.698705590266791
 20
-0.5484062939899054
 30
0.0
 10
-4.698705590268989
 20
-0.5970123506200353
 30
0.0
 10
-4.698705590268989
 20
-0.5970123506200353
 30
0.0
 10
-4.698705590268989
 20
-0.5970123506200353
 30
0.0
 10
-4.698678207410959
 20
-1.237199789468983
 30
0.0
 10
-4.698678207410959
 20
-1.237199789468983
 30
0.0
 10
-4.698678207410959
 20
-1.237199789468983
 30
0.0
 10
-4.698686240395483
 20
-2.508570872522745
 30
0.0
 10
-4.698686240395483
 20
-2.508570872522745
 30
0.0
 10
-4.701916503484767
 20
-2.523663314562782
 30
0.0
 10
-4.709900712127983
 20
-2.537322419764273
 30
0.0
 10
-4.721466465609965
 20
-2.547542485945466
 30
0.0
 10
-4.721466465609965
 20
-2.547542485945466
 30
0.0
 10
-5.47252745910632
 20
-2.982084916314129
 30
0.0
 10
-5.47252745910632
 20
-2.982084916314129
 30
0.0
 10
-5.49329192583083
 20
-2.997690407085328
 30
0.0
 10
-5.499673334014018
 20
-3.026052221226261
 30
0.0
 10
-5.48759405287429
 20
-3.04904755526867
 30
0.0
 10
-5.48759405287429
 20
-3.04904755526867
 30
0.0
 10
-4.966441114855709
 20
-3.95612829984859
 30
0.0
 10
-4.966441114855709
 20
-3.95612829984859
 30
0.0
 10
-4.966254313450981
 20
-3.956409858392008
 30
0.0
 10
-4.966063365944453
 20
-3.956688644092562
 30
0.0
 10
-4.965868334742569
 20
-3.956964565836011
 30
0.0
 10
-4.954923166151174
 20
-3.972449318899938
 30
0.0
 10
-4.933497481321953
 20
-3.976129379228395
 30
0.0
 10
-4.918012728257748
 20
-3.965184210636784
 30
0.0
 10
-4.918012728257748
 20
-3.965184210636784
 30
0.0
 10
-4.337317090209972
 20
-3.630950969412829
 30
0.0
 10
-4.337317090209972
 20
-3.630950969412829
 30
0.0
 10
-4.333725235039095
 20
-3.629702190120244
 30
0.0
 10
-4.330036197544953
 20
-3.628752795527741
 30
0.0
 10
-4.326287744338578
 20
-3.628112505085533
 30
0.0
 10
-4.326287744338578
 20
-3.628112505085533
 30
0.0
 10
-2.877710295519427
 20
-3.412782676822644
 30
0.0
 10
-2.877710295519427
 20
-3.412782676822644
 30
0.0
 10
-2.872621816623033
 20
-3.41226612164294
 30
0.0
 10
-2.867813143574836
 20
-3.410205261765264
 30
0.0
 10
-2.863929790584936
 20
-3.406876746137034
 30
0.0
 10
-2.863929790584936
 20
-3.406876746137034
 30
0.0
 10
-2.448545998971339
 20
-2.837614841019002
 30
0.0
 10
-2.448685906161561
 20
-2.837798849539316
 30
0.0
  0
ENDBLK
  5
1A5
330
1A2
100
AcDbEntity
  8
0
100
AcDbBlockEnd
  0
BLOCK
  5
1A9
330
1A7
100
AcDbEntity
  8
0
100
AcDbBlockBegin
  2
block 46
 70
     0
 10
0.0
 20
0.0
 30
0.0
  3
block 46
  1

  0
SPLINE
  5
1AB
330
1A7
100
AcDbEntity
  8
_U+5207_U+65AD_U+30D1_U+30B9
 62
     1
420
 16711680
370
     9
100
AcDbSpline
210
0.0
220
0.0
230
1.0
 70
    11
 71
     3
 72
    20
 73
    16
 74
     0
 42
0.0000000001
 43
0.0000000001
 12
1.0
 22
0.0
 32
0.0
 13
1.0
 23
0.0
 33
0.0
 40
0.0
 40
0.0
 40
0.0
 40
0.0
 40
1.0
 40
1.0
 40
1.0
 40
2.0
 40
2.0
 40
2.0
 40
3.0
 40
3.0
 40
3.0
 40
4.0
 40
4.0
 40
4.0
 40
5.0
 40
5.0
 40
5.0
 40
5.0
 10
-3.927756809449154
 20
-1.207898982433107
 30
0.0
 10
-3.927756809448093
 20
-1.18397944245564
 30
0.0
 10
-3.947147427834365
 20
-1.164588824067803
 30
0.0
 10
-3.971066967811983
 20
-1.164588824066742
 30
0.0
 10
-3.994986507789601
 20
-1.164588824065655
 30
0.0
 10
-4.014377126177338
 20
-1.18397944245175
 30
0.0
 10
-4.014377126178399
 20
-1.207898982429217
 30
0.0
 10
-4.014377126179485
 20
-1.231818522406936
 30
0.0
 10
-3.99498650779348
 20
-1.2512091407949
 30
0.0
 10
-3.971066967815874
 20
-1.251209140795986
 30
0.0
 10
-3.947147427838255
 20
-1.251209140797048
 30
0.0
 10
-3.927756809450241
 20
-1.231818522410827
 30
0.0
 10
-3.927756809449154
 20
-1.207898982433107
 30
0.0
 10
-3.927756809449154
 20
-1.207898982433107
 30
0.0
 10
-3.927756809449154
 20
-1.207898982433107
 30
0.0
 10
-3.927756809449154
 20
-1.207898982433107
 30
0.0
  0
ENDBLK
  5
1AA
330
1A7
100
AcDbEntity
  8
0
100
AcDbBlockEnd
  0
BLOCK
  5
1AE
330
1AC
100
AcDbEntity
  8
0
100
AcDbBlockBegin
  2
block 47
 70
     0
 10
0.0
 20
0.0
 30
0.0
  3
block 47
  1

  0
SPLINE
  5
1B0
330
1AC
100
AcDbEntity
  8
_U+5207_U+65AD_U+30D1_U+30B9
 62
     1
420
 16711680
370
     9
100
AcDbSpline
210
0.0
220
0.0
230
1.0
 70
    11
 71
     3
 72
    20
 73
    16
 74
     0
 42
0.0000000001
 43
0.0000000001
 12
1.0
 22
0.0
 32
0.0
 13
1.0
 23
0.0
 33
0.0
 40
0.0
 40
0.0
 40
0.0
 40
0.0
 40
1.0
 40
1.0
 40
1.0
 40
2.0
 40
2.0
 40
2.0
 40
3.0
 40
3.0
 40
3.0
 40
4.0
 40
4.0
 40
4.0
 40
5.0
 40
5.0
 40
5.0
 40
5.0
 10
-0.9347716745630679
 20
-1.350513105397491
 30
0.0
 10
-0.9347716745619942
 20
-1.326593565420025
 30
0.0
 10
-0.9541622929480758
 20
-1.307202947032035
 30
0.0
 10
-0.9780818329256438
 20
-1.307202947030975
 30
0.0
 10
-1.002001372903262
 20
-1.307202947029888
 30
0.0
 10
-1.021391991291289
 20
-1.326593565416134
 30
0.0
 10
-1.021391991292363
 20
-1.350513105393601
 30
0.0
 10
-1.021391991293437
 20
-1.374432645371017
 30
0.0
 10
-1.002001372907153
 20
-1.393823263758981
 30
0.0
 10
-0.9780818329295344
 20
-1.393823263760068
 30
0.0
 10
-0.9541622929519664
 20
-1.393823263761129
 30
0.0
 10
-0.9347716745641416
 20
-1.374432645374908
 30
0.0
 10
-0.9347716745630679
 20
-1.350513105397491
 30
0.0
 10
-0.9347716745630679
 20
-1.350513105397491
 30
0.0
 10
-0.9347716745630679
 20
-1.350513105397491
 30
0.0
 10
-0.9347716745630679
 20
-1.350513105397491
 30
0.0
  0
ENDBLK
  5
1AF
330
1AC
100
AcDbEntity
  8
0
100
AcDbBlockEnd
  0
BLOCK
  5
1B3
330
1B1
100
AcDbEntity
  8
0
100
AcDbBlockBegin
  2
block 48
 70
     0
 10
0.0
 20
0.0
 30
0.0
  3
block 48
  1

  0
SPLINE
  5
1B5
330
1B1
100
AcDbEntity
  8
_U+5207_U+65AD_U+30D1_U+30B9
 62
     1
420
 16711680
370
     9
100
AcDbSpline
210
0.0
220
0.0
230
1.0
 70
    11
 71
     3
 72
    20
 73
    16
 74
     0
 42
0.0000000001
 43
0.0000000001
 12
1.0
 22
0.0
 32
0.0
 13
1.0
 23
0.0
 33
0.0
 40
0.0
 40
0.0
 40
0.0
 40
0.0
 40
1.0
 40
1.0
 40
1.0
 40
2.0
 40
2.0
 40
2.0
 40
3.0
 40
3.0
 40
3.0
 40
4.0
 40
4.0
 40
4.0
 40
5.0
 40
5.0
 40
5.0
 40
5.0
 10
-0.9344253986503696
 20
-2.099140885948726
 30
0.0
 10
-0.9344253986492959
 20
-2.07522134597131
 30
0.0
 10
-0.9538160170355796
 20
-2.055830727583043
 30
0.0
 10
-0.9777355570128949
 20
-2.055830727581957
 30
0.0
 10
-1.001655096990564
 20
-2.055830727580895
 30
0.0
 10
-1.02104571537854
 20
-2.075221345967419
 30
0.0
 10
-1.021045715379614
 20
-2.099140885944835
 30
0.0
 10
-1.021045715380688
 20
-2.123060425922454
 30
0.0
 10
-1.001655096994455
 20
-2.142451044310292
 30
0.0
 10
-0.9777355570167856
 20
-2.142451044311353
 30
0.0
 10
-0.9538160170394702
 20
-2.142451044312439
 30
0.0
 10
-0.9344253986514433
 20
-2.123060425926345
 30
0.0
 10
-0.9344253986503696
 20
-2.099140885948726
 30
0.0
 10
-0.9344253986503696
 20
-2.099140885948726
 30
0.0
 10
-0.9344253986503696
 20
-2.099140885948726
 30
0.0
 10
-0.9344253986503696
 20
-2.099140885948726
 30
0.0
  0
ENDBLK
  5
1B4
330
1B1
100
AcDbEntity
  8
0
100
AcDbBlockEnd
  0
BLOCK
  5
1B8
330
1B6
100
AcDbEntity
  8
0
100
AcDbBlockBegin
  2
block 49
 70
     0
 10
0.0
 20
0.0
 30
0.0
  3
block 49
  1

  0
SPLINE
  5
1BA
330
1B6
100
AcDbEntity
  8
_U+5207_U+65AD_U+30D1_U+30B9
 62
     1
420
 16711680
370
     9
100
AcDbSpline
210
0.0
220
0.0
230
1.0
 70
    11
 71
     3
 72
    20
 73
    16
 74
     0
 42
0.0000000001
 43
0.0000000001
 12
1.0
 22
0.0
 32
0.0
 13
1.0
 23
0.0
 33
0.0
 40
0.0
 40
0.0
 40
0.0
 40
0.0
 40
1.0
 40
1.0
 40
1.0
 40
2.0
 40
2.0
 40
2.0
 40
3.0
 40
3.0
 40
3.0
 40
4.0
 40
4.0
 40
4.0
 40
5.0
 40
5.0
 40
5.0
 40
5.0
 10
-4.468768534408392
 20
-3.078047916850917
 30
0.0
 10
-4.468768534407306
 20
-3.054128376873298
 30
0.0
 10
-4.48815915279335
 20
-3.034737758485335
 30
0.0
 10
-4.512078692770855
 20
-3.034737758484248
 30
0.0
 10
-4.535998232748486
 20
-3.034737758483187
 30
0.0
 10
-4.555388851136247
 20
-3.054128376869408
 30
0.0
 10
-4.555388851137334
 20
-3.078047916847026
 30
0.0
 10
-4.555388851138383
 20
-3.101967456824291
 30
0.0
 10
-4.535998232752377
 20
-3.121358075212432
 30
0.0
 10
-4.512078692774758
 20
-3.121358075213493
 30
0.0
 10
-4.48815915279724
 20
-3.121358075214579
 30
0.0
 10
-4.468768534409453
 20
-3.101967456828182
 30
0.0
 10
-4.468768534408392
 20
-3.078047916850917
 30
0.0
 10
-4.468768534408392
 20
-3.078047916850917
 30
0.0
 10
-4.468768534408392
 20
-3.078047916850917
 30
0.0
 10
-4.468768534408392
 20
-3.078047916850917
 30
0.0
  0
ENDBLK
  5
1B9
330
1B6
100
AcDbEntity
  8
0
100
AcDbBlockEnd
  0
BLOCK
  5
1BD
330
1BB
100
AcDbEntity
  8
0
100
AcDbBlockBegin
  2
block 50
 70
     0
 10
0.0
 20
0.0
 30
0.0
  3
block 50
  1

  0
SPLINE
  5
1BF
330
1BB
100
AcDbEntity
  8
_U+5207_U+65AD_U+30D1_U+30B9
 62
     1
420
 16711680
370
     9
100
AcDbSpline
210
0.0
220
0.0
230
1.0
 70
    11
 71
     3
 72
    20
 73
    16
 74
     0
 42
0.0000000001
 43
0.0000000001
 12
1.0
 22
0.0
 32
0.0
 13
1.0
 23
0.0
 33
0.0
 40
0.0
 40
0.0
 40
0.0
 40
0.0
 40
1.0
 40
1.0
 40
1.0
 40
2.0
 40
2.0
 40
2.0
 40
3.0
 40
3.0
 40
3.0
 40
4.0
 40
4.0
 40
4.0
 40
5.0
 40
5.0
 40
5.0
 40
5.0
 10
-2.637273303666828
 20
-2.772752262350448
 30
0.0
 10
-2.637273303665766
 20
-2.748832722372829
 30
0.0
 10
-2.656663922051735
 20
-2.729442103984866
 30
0.0
 10
-2.680583462029404
 20
-2.729442103983779
 30
0.0
 10
-2.704503002007022
 20
-2.729442103982718
 30
0.0
 10
-2.723893620394759
 20
-2.748832722368939
 30
0.0
 10
-2.72389362039582
 20
-2.772752262346557
 30
0.0
 10
-2.723893620396906
 20
-2.796671802324125
 30
0.0
 10
-2.704503002010913
 20
-2.816062420711811
 30
0.0
 10
-2.680583462033294
 20
-2.816062420712872
 30
0.0
 10
-2.656663922055625
 20
-2.816062420713959
 30
0.0
 10
-2.637273303667914
 20
-2.796671802328016
 30
0.0
 10
-2.637273303666828
 20
-2.772752262350448
 30
0.0
 10
-2.637273303666828
 20
-2.772752262350448
 30
0.0
 10
-2.637273303666828
 20
-2.772752262350448
 30
0.0
 10
-2.637273303666828
 20
-2.772752262350448
 30
0.0
  0
ENDBLK
  5
1BE
330
1BB
100
AcDbEntity
  8
0
100
AcDbBlockEnd
  0
BLOCK
  5
1C2
330
1C0
100
AcDbEntity
  8
0
100
AcDbBlockBegin
  2
block 51
 70
     0
 10
0.0
 20
0.0
 30
0.0
  3
block 51
  1

  0
POLYLINE
  5
1C4
330
1C0
100
AcDbEntity
  8
_U+5207_U+65AD_U+30D1_U+30B9
 62
     1
420
 16711680
370
     9
100
AcDb2dPolyline
 66
     1
 10
0.0
 20
0.0
 30
0.0
  0
VERTEX
  5
1C5
330
1C4
100
AcDbEntity
  8
_U+5207_U+65AD_U+30D1_U+30B9
 62
     1
420
 16711680
370
     9
100
AcDbVertex
100
AcDb2dVertex
 10
-0.3310509523834955
 20
-0.7035437777915629
 30
0.0
  0
VERTEX
  5
1C6
330
1C4
100
AcDbEntity
  8
_U+5207_U+65AD_U+30D1_U+30B9
 62
     1
420
 16711680
370
     9
100
AcDbVertex
100
AcDb2dVertex
 10
-0.3310509524079761
 20
-1.24885804447341
 30
0.0
  0
VERTEX
  5
1C7
330
1C4
100
AcDbEntity
  8
_U+5207_U+65AD_U+30D1_U+30B9
 62
     1
420
 16711680
370
     9
100
AcDbVertex
100
AcDb2dVertex
 10
-0.8763652190897725
 20
-1.248858044448904
 30
0.0
  0
VERTEX
  5
1C8
330
1C4
100
AcDbEntity
  8
_U+5207_U+65AD_U+30D1_U+30B9
 62
     1
420
 16711680
370
     9
100
AcDbVertex
100
AcDb2dVertex
 10
-0.876365219065292
 20
-0.703543777767057
 30
0.0
  0
VERTEX
  5
1C9
330
1C4
100
AcDbEntity
  8
_U+5207_U+65AD_U+30D1_U+30B9
 62
     1
420
 16711680
370
     9
100
AcDbVertex
100
AcDb2dVertex
 10
-0.3310509523834955
 20
-0.7035437777915629
 30
0.0
  0
SEQEND
  5
1CA
330
1C4
100
AcDbEntity
  8
_U+5207_U+65AD_U+30D1_U+30B9
 62
     1
420
 16711680
370
     9
  0
ENDBLK
  5
1C3
330
1C0
100
AcDbEntity
  8
0
100
AcDbBlockEnd
  0
BLOCK
  5
1CD
330
1CB
100
AcDbEntity
  8
0
100
AcDbBlockBegin
  2
block 52
 70
     0
 10
0.0
 20
0.0
 30
0.0
  3
block 52
  1

  0
POLYLINE
  5
1CF
330
1CB
100
AcDbEntity
  8
_U+5207_U+65AD_U+30D1_U+30B9
 62
     1
420
 16711680
370
     9
100
AcDb2dPolyline
 66
     1
 10
0.0
 20
0.0
 30
0.0
  0
VERTEX
  5
1D0
330
1CF
100
AcDbEntity
  8
_U+5207_U+65AD_U+30D1_U+30B9
 62
     1
420
 16711680
370
     9
100
AcDbVertex
100
AcDb2dVertex
 10
-0.3310509524170837
 20
-1.451628331362169
 30
0.0
  0
VERTEX
  5
1D1
330
1CF
100
AcDbEntity
  8
_U+5207_U+65AD_U+30D1_U+30B9
 62
     1
420
 16711680
370
     9
100
AcDbVertex
100
AcDb2dVertex
 10
-0.3310509524415642
 20
-1.996942598044168
 30
0.0
  0
VERTEX
  5
1D2
330
1CF
100
AcDbEntity
  8
_U+5207_U+65AD_U+30D1_U+30B9
 62
     1
420
 16711680
370
     9
100
AcDbVertex
100
AcDb2dVertex
 10
-0.8763652191233606
 20
-1.996942598019662
 30
0.0
  0
VERTEX
  5
1D3
330
1CF
100
AcDbEntity
  8
_U+5207_U+65AD_U+30D1_U+30B9
 62
     1
420
 16711680
370
     9
100
AcDbVertex
100
AcDb2dVertex
 10
-0.8763652190988801
 20
-1.451628331337664
 30
0.0
  0
VERTEX
  5
1D4
330
1CF
100
AcDbEntity
  8
_U+5207_U+65AD_U+30D1_U+30B9
 62
     1
420
 16711680
370
     9
100
AcDbVertex
100
AcDb2dVertex
 10
-0.3310509524170837
 20
-1.451628331362169
 30
0.0
  0
SEQEND
  5
1D5
330
1CF
100
AcDbEntity
  8
_U+5207_U+65AD_U+30D1_U+30B9
 62
     1
420
 16711680
370
     9
  0
ENDBLK
  5
1CE
330
1CB
100
AcDbEntity
  8
0
100
AcDbBlockEnd
  0
BLOCK
  5
1D8
330
1D6
100
AcDbEntity
  8
0
100
AcDbBlockBegin
  2
block 53
 70
     0
 10
0.0
 20
0.0
 30
0.0
  3
block 53
  1

  0
POLYLINE
  5
1DA
330
1D6
100
AcDbEntity
  8
_U+5207_U+65AD_U+30D1_U+30B9
 62
     1
420
 16711680
370
     9
100
AcDb2dPolyline
 66
     1
 10
0.0
 20
0.0
 30
0.0
  0
VERTEX
  5
1DB
330
1DA
100
AcDbEntity
  8
_U+5207_U+65AD_U+30D1_U+30B9
 62
     1
420
 16711680
370
     9
100
AcDbVertex
100
AcDb2dVertex
 10
-0.3310509524506591
 20
-2.199712884932928
 30
0.0
  0
VERTEX
  5
1DC
330
1DA
100
AcDbEntity
  8
_U+5207_U+65AD_U+30D1_U+30B9
 62
     1
420
 16711680
370
     9
100
AcDbVertex
100
AcDb2dVertex
 10
-0.3310509524751524
 20
-2.745027151614724
 30
0.0
  0
VERTEX
  5
1DD
330
1DA
100
AcDbEntity
  8
_U+5207_U+65AD_U+30D1_U+30B9
 62
     1
420
 16711680
370
     9
100
AcDbVertex
100
AcDb2dVertex
 10
-0.8763652191569488
 20
-2.745027151590218
 30
0.0
  0
VERTEX
  5
1DE
330
1DA
100
AcDbEntity
  8
_U+5207_U+65AD_U+30D1_U+30B9
 62
     1
420
 16711680
370
     9
100
AcDbVertex
100
AcDb2dVertex
 10
-0.8763652191324556
 20
-2.199712884908422
 30
0.0
  0
VERTEX
  5
1DF
330
1DA
100
AcDbEntity
  8
_U+5207_U+65AD_U+30D1_U+30B9
 62
     1
420
 16711680
370
     9
100
AcDbVertex
100
AcDb2dVertex
 10
-0.3310509524506591
 20
-2.199712884932928
 30
0.0
  0
SEQEND
  5
1E0
330
1DA
100
AcDbEntity
  8
_U+5207_U+65AD_U+30D1_U+30B9
 62
     1
420
 16711680
370
     9
  0
ENDBLK
  5
1D9
330
1D6
100
AcDbEntity
  8
0
100
AcDbBlockEnd
  0
BLOCK
  5
1E3
330
1E1
100
AcDbEntity
  8
0
100
AcDbBlockBegin
  2
block 54
 70
     0
 10
0.0
 20
0.0
 30
0.0
  3
block 54
  1

  0
POLYLINE
  5
1E5
330
1E1
100
AcDbEntity
  8
_U+5207_U+65AD_U+30D1_U+30B9
 62
     1
420
 16711680
370
     9
100
AcDb2dPolyline
 66
     1
 10
0.0
 20
0.0
 30
0.0
  0
VERTEX
  5
1E6
330
1E5
100
AcDbEntity
  8
_U+5207_U+65AD_U+30D1_U+30B9
 62
     1
420
 16711680
370
     9
100
AcDbVertex
100
AcDb2dVertex
 10
-1.079155507372611
 20
-0.7035437777579621
 30
0.0
  0
VERTEX
  5
1E7
330
1E5
100
AcDbEntity
  8
_U+5207_U+65AD_U+30D1_U+30B9
 62
     1
420
 16711680
370
     9
100
AcDbVertex
100
AcDb2dVertex
 10
-1.079155507397091
 20
-1.248858044439809
 30
0.0
  0
VERTEX
  5
1E8
330
1E5
100
AcDbEntity
  8
_U+5207_U+65AD_U+30D1_U+30B9
 62
     1
420
 16711680
370
     9
100
AcDbVertex
100
AcDb2dVertex
 10
-1.624469774078938
 20
-1.248858044415329
 30
0.0
  0
VERTEX
  5
1E9
330
1E5
100
AcDbEntity
  8
_U+5207_U+65AD_U+30D1_U+30B9
 62
     1
420
 16711680
370
     9
100
AcDbVertex
100
AcDb2dVertex
 10
-1.62446977405447
 20
-0.7035437777334815
 30
0.0
  0
VERTEX
  5
1EA
330
1E5
100
AcDbEntity
  8
_U+5207_U+65AD_U+30D1_U+30B9
 62
     1
420
 16711680
370
     9
100
AcDbVertex
100
AcDb2dVertex
 10
-1.079155507372611
 20
-0.7035437777579621
 30
0.0
  0
SEQEND
  5
1EB
330
1E5
100
AcDbEntity
  8
_U+5207_U+65AD_U+30D1_U+30B9
 62
     1
420
 16711680
370
     9
  0
ENDBLK
  5
1E4
330
1E1
100
AcDbEntity
  8
0
100
AcDbBlockEnd
  0
BLOCK
  5
1EE
330
1EC
100
AcDbEntity
  8
0
100
AcDbBlockBegin
  2
block 55
 70
     0
 10
0.0
 20
0.0
 30
0.0
  3
block 55
  1

  0
POLYLINE
  5
1F0
330
1EC
100
AcDbEntity
  8
_U+5207_U+65AD_U+30D1_U+30B9
 62
     1
420
 16711680
370
     9
100
AcDb2dPolyline
 66
     1
 10
0.0
 20
0.0
 30
0.0
  0
VERTEX
  5
1F1
330
1F0
100
AcDbEntity
  8
_U+5207_U+65AD_U+30D1_U+30B9
 62
     1
420
 16711680
370
     9
100
AcDbVertex
100
AcDb2dVertex
 10
-1.079155507406199
 20
-1.451628331328569
 30
0.0
  0
VERTEX
  5
1F2
330
1F0
100
AcDbEntity
  8
_U+5207_U+65AD_U+30D1_U+30B9
 62
     1
420
 16711680
370
     9
100
AcDbVertex
100
AcDb2dVertex
 10
-1.079155507430679
 20
-1.996942598010567
 30
0.0
  0
VERTEX
  5
1F3
330
1F0
100
AcDbEntity
  8
_U+5207_U+65AD_U+30D1_U+30B9
 62
     1
420
 16711680
370
     9
100
AcDbVertex
100
AcDb2dVertex
 10
-1.624469774112539
 20
-1.996942597986087
 30
0.0
  0
VERTEX
  5
1F4
330
1F0
100
AcDbEntity
  8
_U+5207_U+65AD_U+30D1_U+30B9
 62
     1
420
 16711680
370
     9
100
AcDbVertex
100
AcDb2dVertex
 10
-1.624469774088058
 20
-1.451628331304088
 30
0.0
  0
VERTEX
  5
1F5
330
1F0
100
AcDbEntity
  8
_U+5207_U+65AD_U+30D1_U+30B9
 62
     1
420
 16711680
370
     9
100
AcDbVertex
100
AcDb2dVertex
 10
-1.079155507406199
 20
-1.451628331328569
 30
0.0
  0
SEQEND
  5
1F6
330
1F0
100
AcDbEntity
  8
_U+5207_U+65AD_U+30D1_U+30B9
 62
     1
420
 16711680
370
     9
  0
ENDBLK
  5
1EF
330
1EC
100
AcDbEntity
  8
0
100
AcDbBlockEnd
  0
BLOCK
  5
1F9
330
1F7
100
AcDbEntity
  8
0
100
AcDbBlockBegin
  2
block 56
 70
     0
 10
0.0
 20
0.0
 30
0.0
  3
block 56
  1

  0
POLYLINE
  5
1FB
330
1F7
100
AcDbEntity
  8
_U+5207_U+65AD_U+30D1_U+30B9
 62
     1
420
 16711680
370
     9
100
AcDb2dPolyline
 66
     1
 10
0.0
 20
0.0
 30
0.0
  0
VERTEX
  5
1FC
330
1FB
100
AcDbEntity
  8
_U+5207_U+65AD_U+30D1_U+30B9
 62
     1
420
 16711680
370
     9
100
AcDbVertex
100
AcDb2dVertex
 10
-1.079155507439774
 20
-2.199712884899327
 30
0.0
  0
VERTEX
  5
1FD
330
1FB
100
AcDbEntity
  8
_U+5207_U+65AD_U+30D1_U+30B9
 62
     1
420
 16711680
370
     9
100
AcDbVertex
100
AcDb2dVertex
 10
-1.079155507464268
 20
-2.745027151581124
 30
0.0
  0
VERTEX
  5
1FE
330
1FB
100
AcDbEntity
  8
_U+5207_U+65AD_U+30D1_U+30B9
 62
     1
420
 16711680
370
     9
100
AcDbVertex
100
AcDb2dVertex
 10
-1.624469774146127
 20
-2.745027151556643
 30
0.0
  0
VERTEX
  5
1FF
330
1FB
100
AcDbEntity
  8
_U+5207_U+65AD_U+30D1_U+30B9
 62
     1
420
 16711680
370
     9
100
AcDbVertex
100
AcDb2dVertex
 10
-1.624469774121634
 20
-2.199712884874846
 30
0.0
  0
VERTEX
  5
200
330
1FB
100
AcDbEntity
  8
_U+5207_U+65AD_U+30D1_U+30B9
 62
     1
420
 16711680
370
     9
100
AcDbVertex
100
AcDb2dVertex
 10
-1.079155507439774
 20
-2.199712884899327
 30
0.0
  0
SEQEND
  5
201
330
1FB
100
AcDbEntity
  8
_U+5207_U+65AD_U+30D1_U+30B9
 62
     1
420
 16711680
370
     9
  0
ENDBLK
  5
1FA
330
1F7
100
AcDbEntity
  8
0
100
AcDbBlockEnd
  0
BLOCK
  5
204
330
202
100
AcDbEntity
  8
0
100
AcDbBlockBegin
  2
block 57
 70
     0
 10
0.0
 20
0.0
 30
0.0
  3
block 57
  1

  0
POLYLINE
  5
206
330
202
100
AcDbEntity
  8
_U+5207_U+65AD_U+30D1_U+30B9
 62
     1
420
 16711680
370
     9
100
AcDb2dPolyline
 66
     1
 10
0.0
 20
0.0
 30
0.0
  0
VERTEX
  5
207
330
206
100
AcDbEntity
  8
_U+5207_U+65AD_U+30D1_U+30B9
 62
     1
420
 16711680
370
     9
100
AcDbVertex
100
AcDb2dVertex
 10
-1.827240060935171
 20
-0.5165226393317476
 30
0.0
  0
VERTEX
  5
208
330
206
100
AcDbEntity
  8
_U+5207_U+65AD_U+30D1_U+30B9
 62
     1
420
 16711680
370
     9
100
AcDbVertex
100
AcDb2dVertex
 10
-1.827240060959651
 20
-1.061836906013443
 30
0.0
  0
VERTEX
  5
209
330
206
100
AcDbEntity
  8
_U+5207_U+65AD_U+30D1_U+30B9
 62
     1
420
 16711680
370
     9
100
AcDbVertex
100
AcDb2dVertex
 10
-2.372554327641422
 20
-1.061836905988962
 30
0.0
  0
VERTEX
  5
20A
330
206
100
AcDbEntity
  8
_U+5207_U+65AD_U+30D1_U+30B9
 62
     1
420
 16711680
370
     9
100
AcDbVertex
100
AcDb2dVertex
 10
-2.372554327616917
 20
-0.516522639307267
 30
0.0
  0
VERTEX
  5
20B
330
206
100
AcDbEntity
  8
_U+5207_U+65AD_U+30D1_U+30B9
 62
     1
420
 16711680
370
     9
100
AcDbVertex
100
AcDb2dVertex
 10
-1.827240060935171
 20
-0.5165226393317476
 30
0.0
  0
SEQEND
  5
20C
330
206
100
AcDbEntity
  8
_U+5207_U+65AD_U+30D1_U+30B9
 62
     1
420
 16711680
370
     9
  0
ENDBLK
  5
205
330
202
100
AcDbEntity
  8
0
100
AcDbBlockEnd
  0
BLOCK
  5
20F
330
20D
100
AcDbEntity
  8
0
100
AcDbBlockBegin
  2
block 58
 70
     0
 10
0.0
 20
0.0
 30
0.0
  3
block 58
  1

  0
POLYLINE
  5
211
330
20D
100
AcDbEntity
  8
_U+5207_U+65AD_U+30D1_U+30B9
 62
     1
420
 16711680
370
     9
100
AcDb2dPolyline
 66
     1
 10
0.0
 20
0.0
 30
0.0
  0
VERTEX
  5
212
330
211
100
AcDbEntity
  8
_U+5207_U+65AD_U+30D1_U+30B9
 62
     1
420
 16711680
370
     9
100
AcDbVertex
100
AcDb2dVertex
 10
-1.827240060968759
 20
-1.264607192902354
 30
0.0
  0
VERTEX
  5
213
330
211
100
AcDbEntity
  8
_U+5207_U+65AD_U+30D1_U+30B9
 62
     1
420
 16711680
370
     9
100
AcDbVertex
100
AcDb2dVertex
 10
-1.82724006099324
 20
-1.80992145958405
 30
0.0
  0
VERTEX
  5
214
330
211
100
AcDbEntity
  8
_U+5207_U+65AD_U+30D1_U+30B9
 62
     1
420
 16711680
370
     9
100
AcDbVertex
100
AcDb2dVertex
 10
-2.372554327674998
 20
-1.809921459559569
 30
0.0
  0
VERTEX
  5
215
330
211
100
AcDbEntity
  8
_U+5207_U+65AD_U+30D1_U+30B9
 62
     1
420
 16711680
370
     9
100
AcDbVertex
100
AcDb2dVertex
 10
-2.372554327650517
 20
-1.264607192877874
 30
0.0
  0
VERTEX
  5
216
330
211
100
AcDbEntity
  8
_U+5207_U+65AD_U+30D1_U+30B9
 62
     1
420
 16711680
370
     9
100
AcDbVertex
100
AcDb2dVertex
 10
-1.827240060968759
 20
-1.264607192902354
 30
0.0
  0
SEQEND
  5
217
330
211
100
AcDbEntity
  8
_U+5207_U+65AD_U+30D1_U+30B9
 62
     1
420
 16711680
370
     9
  0
ENDBLK
  5
210
330
20D
100
AcDbEntity
  8
0
100
AcDbBlockEnd
  0
BLOCK
  5
21A
330
218
100
AcDbEntity
  8
0
100
AcDbBlockBegin
  2
block 59
 70
     0
 10
0.0
 20
0.0
 30
0.0
  3
block 59
  1

  0
POLYLINE
  5
21C
330
218
100
AcDbEntity
  8
_U+5207_U+65AD_U+30D1_U+30B9
 62
     1
420
 16711680
370
     9
100
AcDb2dPolyline
 66
     1
 10
0.0
 20
0.0
 30
0.0
  0
VERTEX
  5
21D
330
21C
100
AcDbEntity
  8
_U+5207_U+65AD_U+30D1_U+30B9
 62
     1
420
 16711680
370
     9
100
AcDbVertex
100
AcDb2dVertex
 10
-1.827240061002347
 20
-2.012691746473264
 30
0.0
  0
VERTEX
  5
21E
330
21C
100
AcDbEntity
  8
_U+5207_U+65AD_U+30D1_U+30B9
 62
     1
420
 16711680
370
     9
100
AcDbVertex
100
AcDb2dVertex
 10
-1.827240061026828
 20
-2.558006013154909
 30
0.0
  0
VERTEX
  5
21F
330
21C
100
AcDbEntity
  8
_U+5207_U+65AD_U+30D1_U+30B9
 62
     1
420
 16711680
370
     9
100
AcDbVertex
100
AcDb2dVertex
 10
-2.372554327708574
 20
-2.558006013130428
 30
0.0
  0
VERTEX
  5
220
330
21C
100
AcDbEntity
  8
_U+5207_U+65AD_U+30D1_U+30B9
 62
     1
420
 16711680
370
     9
100
AcDbVertex
100
AcDb2dVertex
 10
-2.372554327684093
 20
-2.012691746448783
 30
0.0
  0
VERTEX
  5
221
330
21C
100
AcDbEntity
  8
_U+5207_U+65AD_U+30D1_U+30B9
 62
     1
420
 16711680
370
     9
100
AcDbVertex
100
AcDb2dVertex
 10
-1.827240061002347
 20
-2.012691746473264
 30
0.0
  0
SEQEND
  5
222
330
21C
100
AcDbEntity
  8
_U+5207_U+65AD_U+30D1_U+30B9
 62
     1
420
 16711680
370
     9
  0
ENDBLK
  5
21B
330
218
100
AcDbEntity
  8
0
100
AcDbBlockEnd
  0
BLOCK
  5
225
330
223
100
AcDbEntity
  8
0
100
AcDbBlockBegin
  2
block 60
 70
     0
 10
0.0
 20
0.0
 30
0.0
  3
block 60
  1

  0
POLYLINE
  5
227
330
223
100
AcDbEntity
  8
_U+5207_U+65AD_U+30D1_U+30B9
 62
     1
420
 16711680
370
     9
100
AcDb2dPolyline
 66
     1
 10
0.0
 20
0.0
 30
0.0
  0
VERTEX
  5
228
330
227
100
AcDbEntity
  8
_U+5207_U+65AD_U+30D1_U+30B9
 62
     1
420
 16711680
370
     9
100
AcDbVertex
100
AcDb2dVertex
 10
-2.575324614501533
 20
-0.4230120701019031
 30
0.0
  0
VERTEX
  5
229
330
227
100
AcDbEntity
  8
_U+5207_U+65AD_U+30D1_U+30B9
 62
     1
420
 16711680
370
     9
100
AcDbVertex
100
AcDb2dVertex
 10
-2.575324614526014
 20
-0.968326336783548
 30
0.0
  0
VERTEX
  5
22A
330
227
100
AcDbEntity
  8
_U+5207_U+65AD_U+30D1_U+30B9
 62
     1
420
 16711680
370
     9
100
AcDbVertex
100
AcDb2dVertex
 10
-3.12063888120781
 20
-0.9683263367590673
 30
0.0
  0
VERTEX
  5
22B
330
227
100
AcDbEntity
  8
_U+5207_U+65AD_U+30D1_U+30B9
 62
     1
420
 16711680
370
     9
100
AcDbVertex
100
AcDb2dVertex
 10
-3.120638881183329
 20
-0.4230120700774225
 30
0.0
  0
VERTEX
  5
22C
330
227
100
AcDbEntity
  8
_U+5207_U+65AD_U+30D1_U+30B9
 62
     1
420
 16711680
370
     9
100
AcDbVertex
100
AcDb2dVertex
 10
-2.575324614501533
 20
-0.4230120701019031
 30
0.0
  0
SEQEND
  5
22D
330
227
100
AcDbEntity
  8
_U+5207_U+65AD_U+30D1_U+30B9
 62
     1
420
 16711680
370
     9
  0
ENDBLK
  5
226
330
223
100
AcDbEntity
  8
0
100
AcDbBlockEnd
  0
BLOCK
  5
230
330
22E
100
AcDbEntity
  8
0
100
AcDbBlockBegin
  2
block 61
 70
     0
 10
0.0
 20
0.0
 30
0.0
  3
block 61
  1

  0
POLYLINE
  5
232
330
22E
100
AcDbEntity
  8
_U+5207_U+65AD_U+30D1_U+30B9
 62
     1
420
 16711680
370
     9
100
AcDb2dPolyline
 66
     1
 10
0.0
 20
0.0
 30
0.0
  0
VERTEX
  5
233
330
232
100
AcDbEntity
  8
_U+5207_U+65AD_U+30D1_U+30B9
 62
     1
420
 16711680
370
     9
100
AcDbVertex
100
AcDb2dVertex
 10
-2.575324614535134
 20
-1.171096623672358
 30
0.0
  0
VERTEX
  5
234
330
232
100
AcDbEntity
  8
_U+5207_U+65AD_U+30D1_U+30B9
 62
     1
420
 16711680
370
     9
100
AcDbVertex
100
AcDb2dVertex
 10
-2.575324614559614
 20
-1.716410890354155
 30
0.0
  0
VERTEX
  5
235
330
232
100
AcDbEntity
  8
_U+5207_U+65AD_U+30D1_U+30B9
 62
     1
420
 16711680
370
     9
100
AcDbVertex
100
AcDb2dVertex
 10
-3.120638881241411
 20
-1.716410890329674
 30
0.0
  0
VERTEX
  5
236
330
232
100
AcDbEntity
  8
_U+5207_U+65AD_U+30D1_U+30B9
 62
     1
420
 16711680
370
     9
100
AcDbVertex
100
AcDb2dVertex
 10
-3.12063888121693
 20
-1.171096623647877
 30
0.0
  0
VERTEX
  5
237
330
232
100
AcDbEntity
  8
_U+5207_U+65AD_U+30D1_U+30B9
 62
     1
420
 16711680
370
     9
100
AcDbVertex
100
AcDb2dVertex
 10
-2.575324614535134
 20
-1.171096623672358
 30
0.0
  0
SEQEND
  5
238
330
232
100
AcDbEntity
  8
_U+5207_U+65AD_U+30D1_U+30B9
 62
     1
420
 16711680
370
     9
  0
ENDBLK
  5
231
330
22E
100
AcDbEntity
  8
0
100
AcDbBlockEnd
  0
BLOCK
  5
23B
330
239
100
AcDbEntity
  8
0
100
AcDbBlockBegin
  2
block 62
 70
     0
 10
0.0
 20
0.0
 30
0.0
  3
block 62
  1

  0
POLYLINE
  5
23D
330
239
100
AcDbEntity
  8
_U+5207_U+65AD_U+30D1_U+30B9
 62
     1
420
 16711680
370
     9
100
AcDb2dPolyline
 66
     1
 10
0.0
 20
0.0
 30
0.0
  0
VERTEX
  5
23E
330
23D
100
AcDbEntity
  8
_U+5207_U+65AD_U+30D1_U+30B9
 62
     1
420
 16711680
370
     9
100
AcDbVertex
100
AcDb2dVertex
 10
-2.575324614568709
 20
-1.919181177242965
 30
0.0
  0
VERTEX
  5
23F
330
23D
100
AcDbEntity
  8
_U+5207_U+65AD_U+30D1_U+30B9
 62
     1
420
 16711680
370
     9
100
AcDbVertex
100
AcDb2dVertex
 10
-2.57532461459319
 20
-2.464495443924913
 30
0.0
  0
VERTEX
  5
240
330
23D
100
AcDbEntity
  8
_U+5207_U+65AD_U+30D1_U+30B9
 62
     1
420
 16711680
370
     9
100
AcDbVertex
100
AcDb2dVertex
 10
-3.120638881274986
 20
-2.464495443900432
 30
0.0
  0
VERTEX
  5
241
330
23D
100
AcDbEntity
  8
_U+5207_U+65AD_U+30D1_U+30B9
 62
     1
420
 16711680
370
     9
100
AcDbVertex
100
AcDb2dVertex
 10
-3.120638881250506
 20
-1.919181177218484
 30
0.0
  0
VERTEX
  5
242
330
23D
100
AcDbEntity
  8
_U+5207_U+65AD_U+30D1_U+30B9
 62
     1
420
 16711680
370
     9
100
AcDbVertex
100
AcDb2dVertex
 10
-2.575324614568709
 20
-1.919181177242965
 30
0.0
  0
SEQEND
  5
243
330
23D
100
AcDbEntity
  8
_U+5207_U+65AD_U+30D1_U+30B9
 62
     1
420
 16711680
370
     9
  0
ENDBLK
  5
23C
330
239
100
AcDbEntity
  8
0
100
AcDbBlockEnd
  0
BLOCK
  5
246
330
244
100
AcDbEntity
  8
0
100
AcDbBlockBegin
  2
block 63
 70
     0
 10
0.0
 20
0.0
 30
0.0
  3
block 63
  1

  0
POLYLINE
  5
248
330
244
100
AcDbEntity
  8
_U+5207_U+65AD_U+30D1_U+30B9
 62
     1
420
 16711680
370
     9
100
AcDb2dPolyline
 66
     1
 10
0.0
 20
0.0
 30
0.0
  0
VERTEX
  5
249
330
248
100
AcDbEntity
  8
_U+5207_U+65AD_U+30D1_U+30B9
 62
     1
420
 16711680
370
     9
100
AcDbVertex
100
AcDb2dVertex
 10
-3.323409168076384
 20
-0.5165226392645713
 30
0.0
  0
VERTEX
  5
24A
330
248
100
AcDbEntity
  8
_U+5207_U+65AD_U+30D1_U+30B9
 62
     1
420
 16711680
370
     9
100
AcDbVertex
100
AcDb2dVertex
 10
-3.32340916810089
 20
-1.061836905946267
 30
0.0
  0
VERTEX
  5
24B
330
248
100
AcDbEntity
  8
_U+5207_U+65AD_U+30D1_U+30B9
 62
     1
420
 16711680
370
     9
100
AcDbVertex
100
AcDb2dVertex
 10
-3.868723434782737
 20
-1.061836905921786
 30
0.0
  0
VERTEX
  5
24C
330
248
100
AcDbEntity
  8
_U+5207_U+65AD_U+30D1_U+30B9
 62
     1
420
 16711680
370
     9
100
AcDbVertex
100
AcDb2dVertex
 10
-3.868723434758231
 20
-0.5165226392400907
 30
0.0
  0
VERTEX
  5
24D
330
248
100
AcDbEntity
  8
_U+5207_U+65AD_U+30D1_U+30B9
 62
     1
420
 16711680
370
     9
100
AcDbVertex
100
AcDb2dVertex
 10
-3.323409168076384
 20
-0.5165226392645713
 30
0.0
  0
SEQEND
  5
24E
330
248
100
AcDbEntity
  8
_U+5207_U+65AD_U+30D1_U+30B9
 62
     1
420
 16711680
370
     9
  0
ENDBLK
  5
247
330
244
100
AcDbEntity
  8
0
100
AcDbBlockEnd
  0
BLOCK
  5
251
330
24F
100
AcDbEntity
  8
0
100
AcDbBlockBegin
  2
block 64
 70
     0
 10
0.0
 20
0.0
 30
0.0
  3
block 64
  1

  0
POLYLINE
  5
253
330
24F
100
AcDbEntity
  8
_U+5207_U+65AD_U+30D1_U+30B9
 62
     1
420
 16711680
370
     9
100
AcDb2dPolyline
 66
     1
 10
0.0
 20
0.0
 30
0.0
  0
VERTEX
  5
254
330
253
100
AcDbEntity
  8
_U+5207_U+65AD_U+30D1_U+30B9
 62
     1
420
 16711680
370
     9
100
AcDbVertex
100
AcDb2dVertex
 10
-3.323409168109985
 20
-1.264607192835178
 30
0.0
  0
VERTEX
  5
255
330
253
100
AcDbEntity
  8
_U+5207_U+65AD_U+30D1_U+30B9
 62
     1
420
 16711680
370
     9
100
AcDbVertex
100
AcDb2dVertex
 10
-3.323409168134478
 20
-1.809921459516873
 30
0.0
  0
VERTEX
  5
256
330
253
100
AcDbEntity
  8
_U+5207_U+65AD_U+30D1_U+30B9
 62
     1
420
 16711680
370
     9
100
AcDbVertex
100
AcDb2dVertex
 10
-3.868723434816325
 20
-1.809921459492393
 30
0.0
  0
VERTEX
  5
257
330
253
100
AcDbEntity
  8
_U+5207_U+65AD_U+30D1_U+30B9
 62
     1
420
 16711680
370
     9
100
AcDbVertex
100
AcDb2dVertex
 10
-3.868723434791832
 20
-1.264607192810697
 30
0.0
  0
VERTEX
  5
258
330
253
100
AcDbEntity
  8
_U+5207_U+65AD_U+30D1_U+30B9
 62
     1
420
 16711680
370
     9
100
AcDbVertex
100
AcDb2dVertex
 10
-3.323409168109985
 20
-1.264607192835178
 30
0.0
  0
SEQEND
  5
259
330
253
100
AcDbEntity
  8
_U+5207_U+65AD_U+30D1_U+30B9
 62
     1
420
 16711680
370
     9
  0
ENDBLK
  5
252
330
24F
100
AcDbEntity
  8
0
100
AcDbBlockEnd
  0
BLOCK
  5
25C
330
25A
100
AcDbEntity
  8
0
100
AcDbBlockBegin
  2
block 65
 70
     0
 10
0.0
 20
0.0
 30
0.0
  3
block 65
  1

  0
POLYLINE
  5
25E
330
25A
100
AcDbEntity
  8
_U+5207_U+65AD_U+30D1_U+30B9
 62
     1
420
 16711680
370
     9
100
AcDb2dPolyline
 66
     1
 10
0.0
 20
0.0
 30
0.0
  0
VERTEX
  5
25F
330
25E
100
AcDbEntity
  8
_U+5207_U+65AD_U+30D1_U+30B9
 62
     1
420
 16711680
370
     9
100
AcDbVertex
100
AcDb2dVertex
 10
-3.32340916814356
 20
-2.012691746406088
 30
0.0
  0
VERTEX
  5
260
330
25E
100
AcDbEntity
  8
_U+5207_U+65AD_U+30D1_U+30B9
 62
     1
420
 16711680
370
     9
100
AcDbVertex
100
AcDb2dVertex
 10
-3.323409168168041
 20
-2.558006013087732
 30
0.0
  0
VERTEX
  5
261
330
25E
100
AcDbEntity
  8
_U+5207_U+65AD_U+30D1_U+30B9
 62
     1
420
 16711680
370
     9
100
AcDbVertex
100
AcDb2dVertex
 10
-3.868723434849888
 20
-2.558006013063252
 30
0.0
  0
VERTEX
  5
262
330
25E
100
AcDbEntity
  8
_U+5207_U+65AD_U+30D1_U+30B9
 62
     1
420
 16711680
370
     9
100
AcDbVertex
100
AcDb2dVertex
 10
-3.868723434825407
 20
-2.012691746381607
 30
0.0
  0
VERTEX
  5
263
330
25E
100
AcDbEntity
  8
_U+5207_U+65AD_U+30D1_U+30B9
 62
     1
420
 16711680
370
     9
100
AcDbVertex
100
AcDb2dVertex
 10
-3.32340916814356
 20
-2.012691746406088
 30
0.0
  0
SEQEND
  5
264
330
25E
100
AcDbEntity
  8
_U+5207_U+65AD_U+30D1_U+30B9
 62
     1
420
 16711680
370
     9
  0
ENDBLK
  5
25D
330
25A
100
AcDbEntity
  8
0
100
AcDbBlockEnd
  0
BLOCK
  5
267
330
265
100
AcDbEntity
  8
0
100
AcDbBlockBegin
  2
block 66
 70
     0
 10
0.0
 20
0.0
 30
0.0
  3
block 66
  1

  0
POLYLINE
  5
269
330
265
100
AcDbEntity
  8
_U+5207_U+65AD_U+30D1_U+30B9
 62
     1
420
 16711680
370
     9
100
AcDb2dPolyline
 66
     1
 10
0.0
 20
0.0
 30
0.0
  0
VERTEX
  5
26A
330
269
100
AcDbEntity
  8
_U+5207_U+65AD_U+30D1_U+30B9
 62
     1
420
 16711680
370
     9
100
AcDbVertex
100
AcDb2dVertex
 10
-4.071493721651412
 20
-0.6100332084272142
 30
0.0
  0
VERTEX
  5
26B
330
269
100
AcDbEntity
  8
_U+5207_U+65AD_U+30D1_U+30B9
 62
     1
420
 16711680
370
     9
100
AcDbVertex
100
AcDb2dVertex
 10
-4.071493721675893
 20
-1.15534747510891
 30
0.0
  0
VERTEX
  5
26C
330
269
100
AcDbEntity
  8
_U+5207_U+65AD_U+30D1_U+30B9
 62
     1
420
 16711680
370
     9
100
AcDbVertex
100
AcDb2dVertex
 10
-4.61680798835779
 20
-1.155347475084429
 30
0.0
  0
VERTEX
  5
26D
330
269
100
AcDbEntity
  8
_U+5207_U+65AD_U+30D1_U+30B9
 62
     1
420
 16711680
370
     9
100
AcDbVertex
100
AcDb2dVertex
 10
-4.616807988333309
 20
-0.6100332084027337
 30
0.0
  0
VERTEX
  5
26E
330
269
100
AcDbEntity
  8
_U+5207_U+65AD_U+30D1_U+30B9
 62
     1
420
 16711680
370
     9
100
AcDbVertex
100
AcDb2dVertex
 10
-4.071493721651412
 20
-0.6100332084272142
 30
0.0
  0
SEQEND
  5
26F
330
269
100
AcDbEntity
  8
_U+5207_U+65AD_U+30D1_U+30B9
 62
     1
420
 16711680
370
     9
  0
ENDBLK
  5
268
330
265
100
AcDbEntity
  8
0
100
AcDbBlockEnd
  0
BLOCK
  5
272
330
270
100
AcDbEntity
  8
0
100
AcDbBlockBegin
  2
block 67
 70
     0
 10
0.0
 20
0.0
 30
0.0
  3
block 67
  1

  0
POLYLINE
  5
274
330
270
100
AcDbEntity
  8
_U+5207_U+65AD_U+30D1_U+30B9
 62
     1
420
 16711680
370
     9
100
AcDb2dPolyline
 66
     1
 10
0.0
 20
0.0
 30
0.0
  0
VERTEX
  5
275
330
274
100
AcDbEntity
  8
_U+5207_U+65AD_U+30D1_U+30B9
 62
     1
420
 16711680
370
     9
100
AcDbVertex
100
AcDb2dVertex
 10
-4.071493721684988
 20
-1.358117761997973
 30
0.0
  0
VERTEX
  5
276
330
274
100
AcDbEntity
  8
_U+5207_U+65AD_U+30D1_U+30B9
 62
     1
420
 16711680
370
     9
100
AcDbVertex
100
AcDb2dVertex
 10
-4.071493721709468
 20
-1.90343202867992
 30
0.0
  0
VERTEX
  5
277
330
274
100
AcDbEntity
  8
_U+5207_U+65AD_U+30D1_U+30B9
 62
     1
420
 16711680
370
     9
100
AcDbVertex
100
AcDb2dVertex
 10
-4.616807988391366
 20
-1.90343202865544
 30
0.0
  0
VERTEX
  5
278
330
274
100
AcDbEntity
  8
_U+5207_U+65AD_U+30D1_U+30B9
 62
     1
420
 16711680
370
     9
100
AcDbVertex
100
AcDb2dVertex
 10
-4.616807988366885
 20
-1.358117761973492
 30
0.0
  0
VERTEX
  5
279
330
274
100
AcDbEntity
  8
_U+5207_U+65AD_U+30D1_U+30B9
 62
     1
420
 16711680
370
     9
100
AcDbVertex
100
AcDb2dVertex
 10
-4.071493721684988
 20
-1.358117761997973
 30
0.0
  0
SEQEND
  5
27A
330
274
100
AcDbEntity
  8
_U+5207_U+65AD_U+30D1_U+30B9
 62
     1
420
 16711680
370
     9
  0
ENDBLK
  5
273
330
270
100
AcDbEntity
  8
0
100
AcDbBlockEnd
  0
BLOCK
  5
27D
330
27B
100
AcDbEntity
  8
0
100
AcDbBlockBegin
  2
block 68
 70
     0
 10
0.0
 20
0.0
 30
0.0
  3
block 68
  1

  0
POLYLINE
  5
27F
330
27B
100
AcDbEntity
  8
_U+5207_U+65AD_U+30D1_U+30B9
 62
     1
420
 16711680
370
     9
100
AcDb2dPolyline
 66
     1
 10
0.0
 20
0.0
 30
0.0
  0
VERTEX
  5
280
330
27F
100
AcDbEntity
  8
_U+5207_U+65AD_U+30D1_U+30B9
 62
     1
420
 16711680
370
     9
100
AcDbVertex
100
AcDb2dVertex
 10
-4.071493721718588
 20
-2.106202315568731
 30
0.0
  0
VERTEX
  5
281
330
27F
100
AcDbEntity
  8
_U+5207_U+65AD_U+30D1_U+30B9
 62
     1
420
 16711680
370
     9
100
AcDbVertex
100
AcDb2dVertex
 10
-4.071493721743069
 20
-2.651516582250375
 30
0.0
  0
VERTEX
  5
282
330
27F
100
AcDbEntity
  8
_U+5207_U+65AD_U+30D1_U+30B9
 62
     1
420
 16711680
370
     9
100
AcDbVertex
100
AcDb2dVertex
 10
-4.616807988424966
 20
-2.651516582225895
 30
0.0
  0
VERTEX
  5
283
330
27F
100
AcDbEntity
  8
_U+5207_U+65AD_U+30D1_U+30B9
 62
     1
420
 16711680
370
     9
100
AcDbVertex
100
AcDb2dVertex
 10
-4.616807988400486
 20
-2.10620231554425
 30
0.0
  0
VERTEX
  5
284
330
27F
100
AcDbEntity
  8
_U+5207_U+65AD_U+30D1_U+30B9
 62
     1
420
 16711680
370
     9
100
AcDbVertex
100
AcDb2dVertex
 10
-4.071493721718588
 20
-2.106202315568731
 30
0.0
  0
SEQEND
  5
285
330
27F
100
AcDbEntity
  8
_U+5207_U+65AD_U+30D1_U+30B9
 62
     1
420
 16711680
370
     9
  0
ENDBLK
  5
27E
330
27B
100
AcDbEntity
  8
0
100
AcDbBlockEnd
  0
BLOCK
  5
288
330
286
100
AcDbEntity
  8
0
100
AcDbBlockBegin
  2
block 69
 70
     0
 10
0.0
 20
0.0
 30
0.0
  3
block 69
  1

  0
POLYLINE
  5
28A
330
286
100
AcDbEntity
  8
_U+5207_U+65AD_U+30D1_U+30B9
 62
     1
420
 16711680
370
     9
100
AcDb2dPolyline
 66
     1
 10
0.0
 20
0.0
 30
0.0
  0
VERTEX
  5
28B
330
28A
100
AcDbEntity
  8
_U+5207_U+65AD_U+30D1_U+30B9
 62
     1
420
 16711680
370
     9
100
AcDbVertex
100
AcDb2dVertex
 10
-2.94936689139297
 20
-2.785384344518687
 30
0.0
  0
VERTEX
  5
28C
330
28A
100
AcDbEntity
  8
_U+5207_U+65AD_U+30D1_U+30B9
 62
     1
420
 16711680
370
     9
100
AcDbVertex
100
AcDb2dVertex
 10
-2.949366891417475
 20
-3.330698611200533
 30
0.0
  0
VERTEX
  5
28D
330
28A
100
AcDbEntity
  8
_U+5207_U+65AD_U+30D1_U+30B9
 62
     1
420
 16711680
370
     9
100
AcDbVertex
100
AcDb2dVertex
 10
-3.494681158099272
 20
-3.330698611176028
 30
0.0
  0
VERTEX
  5
28E
330
28A
100
AcDbEntity
  8
_U+5207_U+65AD_U+30D1_U+30B9
 62
     1
420
 16711680
370
     9
100
AcDbVertex
100
AcDb2dVertex
 10
-3.494681158074766
 20
-2.78538434449418
 30
0.0
  0
VERTEX
  5
28F
330
28A
100
AcDbEntity
  8
_U+5207_U+65AD_U+30D1_U+30B9
 62
     1
420
 16711680
370
     9
100
AcDbVertex
100
AcDb2dVertex
 10
-2.94936689139297
 20
-2.785384344518687
 30
0.0
  0
SEQEND
  5
290
330
28A
100
AcDbEntity
  8
_U+5207_U+65AD_U+30D1_U+30B9
 62
     1
420
 16711680
370
     9
  0
ENDBLK
  5
289
330
286
100
AcDbEntity
  8
0
100
AcDbBlockEnd
  0
BLOCK
  5
293
330
291
100
AcDbEntity
  8
0
100
AcDbBlockBegin
  2
block 70
 70
     0
 10
0.0
 20
0.0
 30
0.0
  3
block 70
  1

  0
POLYLINE
  5
295
330
291
100
AcDbEntity
  8
_U+5207_U+65AD_U+30D1_U+30B9
 62
     1
420
 16711680
370
     9
100
AcDb2dPolyline
 66
     1
 10
0.0
 20
0.0
 30
0.0
  0
VERTEX
  5
296
330
295
100
AcDbEntity
  8
_U+5207_U+65AD_U+30D1_U+30B9
 62
     1
420
 16711680
370
     9
100
AcDbVertex
100
AcDb2dVertex
 10
-3.856026066896157
 20
-2.832610381919267
 30
0.0
  0
VERTEX
  5
297
330
295
100
AcDbEntity
  8
_U+5207_U+65AD_U+30D1_U+30B9
 62
     1
420
 16711680
370
     9
100
AcDbVertex
100
AcDb2dVertex
 10
-3.715423575573557
 20
-3.359486637676405
 30
0.0
  0
VERTEX
  5
298
330
295
100
AcDbEntity
  8
_U+5207_U+65AD_U+30D1_U+30B9
 62
     1
420
 16711680
370
     9
100
AcDbVertex
100
AcDb2dVertex
 10
-4.242299831330595
 20
-3.500089128999131
 30
0.0
  0
VERTEX
  5
299
330
295
100
AcDbEntity
  8
_U+5207_U+65AD_U+30D1_U+30B9
 62
     1
420
 16711680
370
     9
100
AcDbVertex
100
AcDb2dVertex
 10
-4.382902322653144
 20
-2.973212873241942
 30
0.0
  0
VERTEX
  5
29A
330
295
100
AcDbEntity
  8
_U+5207_U+65AD_U+30D1_U+30B9
 62
     1
420
 16711680
370
     9
100
AcDbVertex
100
AcDb2dVertex
 10
-3.856026066896157
 20
-2.832610381919267
 30
0.0
  0
SEQEND
  5
29B
330
295
100
AcDbEntity
  8
_U+5207_U+65AD_U+30D1_U+30B9
 62
     1
420
 16711680
370
     9
  0
ENDBLK
  5
294
330
291
100
AcDbEntity
  8
0
100
AcDbBlockEnd
  0
BLOCK
  5
29E
330
29C
100
AcDbEntity
  8
0
100
AcDbBlockBegin
  2
block 71
 70
     0
 10
0.0
 20
0.0
 30
0.0
  3
block 71
  1

  0
POLYLINE
  5
2A0
330
29C
100
AcDbEntity
  8
_U+5207_U+65AD_U+30D1_U+30B9
 62
     1
420
 16711680
370
     9
100
AcDb2dPolyline
 66
     1
 10
0.0
 20
0.0
 30
0.0
  0
VERTEX
  5
2A1
330
2A0
100
AcDbEntity
  8
_U+5207_U+65AD_U+30D1_U+30B9
 62
     1
420
 16711680
370
     9
100
AcDbVertex
100
AcDb2dVertex
 10
-4.825025750499839
 20
-2.941336249687715
 30
0.0
  0
VERTEX
  5
2A2
330
2A0
100
AcDbEntity
  8
_U+5207_U+65AD_U+30D1_U+30B9
 62
     1
420
 16711680
370
     9
100
AcDbVertex
100
AcDb2dVertex
 10
-4.552690921789374
 20
-3.413778193759072
 30
0.0
  0
VERTEX
  5
2A3
330
2A0
100
AcDbEntity
  8
_U+5207_U+65AD_U+30D1_U+30B9
 62
     1
420
 16711680
370
     9
100
AcDbVertex
100
AcDb2dVertex
 10
-5.025132865861021
 20
-3.686113022469423
 30
0.0
  0
VERTEX
  5
2A4
330
2A0
100
AcDbEntity
  8
_U+5207_U+65AD_U+30D1_U+30B9
 62
     1
420
 16711680
370
     9
100
AcDbVertex
100
AcDb2dVertex
 10
-5.297467694571385
 20
-3.213671078397763
 30
0.0
  0
VERTEX
  5
2A5
330
2A0
100
AcDbEntity
  8
_U+5207_U+65AD_U+30D1_U+30B9
 62
     1
420
 16711680
370
     9
100
AcDbVertex
100
AcDb2dVertex
 10
-4.825025750499839
 20
-2.941336249687715
 30
0.0
  0
SEQEND
  5
2A6
330
2A0
100
AcDbEntity
  8
_U+5207_U+65AD_U+30D1_U+30B9
 62
     1
420
 16711680
370
     9
  0
ENDBLK
  5
29F
330
29C
100
AcDbEntity
  8
0
100
AcDbBlockEnd
  0
BLOCK
  5
2A9
330
2A7
100
AcDbEntity
  8
0
100
AcDbBlockBegin
  2
block 72
 70
     0
 10
0.0
 20
0.0
 30
0.0
  3
block 72
  1

  0
INSERT
  5
2AC
330
2A7
100
AcDbEntity
  8
_U+5207_U+65AD_U+30D1_U+30B9
100
AcDbBlockReference
  2
block 73
 10
0.0
 20
0.0
 30
0.0
  0
INSERT
  5
2B1
330
2A7
100
AcDbEntity
  8
_U+5207_U+65AD_U+30D1_U+30B9
100
AcDbBlockReference
  2
block 74
 10
0.0
 20
0.0
 30
0.0
  0
INSERT
  5
2B6
330
2A7
100
AcDbEntity
  8
_U+5207_U+65AD_U+30D1_U+30B9
100
AcDbBlockReference
  2
block 75
 10
0.0
 20
0.0
 30
0.0
  0
ENDBLK
  5
2AA
330
2A7
100
AcDbEntity
  8
0
100
AcDbBlockEnd
  0
BLOCK
  5
2AD
330
2AB
100
AcDbEntity
  8
0
100
AcDbBlockBegin
  2
block 73
 70
     0
 10
0.0
 20
0.0
 30
0.0
  3
block 73
  1

  0
SPLINE
  5
2AF
330
2AB
100
AcDbEntity
  8
_U+5207_U+65AD_U+30D1_U+30B9
 62
     1
420
 16711680
370
     9
100
AcDbSpline
210
0.0
220
0.0
230
1.0
 70
    11
 71
     3
 72
    32
 73
    28
 74
     0
 42
0.0000000001
 43
0.0000000001
 12
1.0
 22
0.0
 32
0.0
 13
1.0
 23
0.0
 33
0.0
 40
0.0
 40
0.0
 40
0.0
 40
0.0
 40
1.0
 40
1.0
 40
1.0
 40
2.0
 40
2.0
 40
2.0
 40
3.0
 40
3.0
 40
3.0
 40
4.0
 40
4.0
 40
4.0
 40
5.0
 40
5.0
 40
5.0
 40
6.0
 40
6.0
 40
6.0
 40
7.0
 40
7.0
 40
7.0
 40
8.0
 40
8.0
 40
8.0
 40
9.0
 40
9.0
 40
9.0
 40
9.0
 10
4.836861072597255
 20
3.615014595012629
 30
0.0
 10
4.836861072597255
 20
3.615014595012629
 30
0.0
 10
4.836861036025817
 20
1.750582046478434
 30
0.0
 10
4.836861036025817
 20
1.750582046478434
 30
0.0
 10
4.839217318788845
 20
1.730001301431432
 30
0.0
 10
4.848443955432028
 20
1.719828073336051
 30
0.0
 10
4.862014204463624
 20
1.707992908388633
 30
0.0
 10
4.862014204463624
 20
1.707992908388633
 30
0.0
 10
5.603738214753194
 20
1.280574978795837
 30
0.0
 10
5.603738214753194
 20
1.280574978795837
 30
0.0
 10
5.61967143604228
 20
1.273877464106439
 30
0.0
 10
5.638017272358411
 20
1.281364483604648
 30
0.0
 10
5.64471478704786
 20
1.29729770489391
 30
0.0
 10
5.645701425484074
 20
1.299644893255719
 30
0.0
 10
5.646397932168585
 20
1.302103716682975
 30
0.0
 10
5.646788861964094
 20
1.30461965040705
 30
0.0
 10
5.646788861964094
 20
1.30461965040705
 30
0.0
 10
5.646742851249554
 20
3.614608717540755
 30
0.0
 10
5.646742851249554
 20
3.614608717540755
 30
0.0
 10
5.646742844783199
 20
3.625481235712363
 30
0.0
 10
5.637928922092442
 20
3.634295147919122
 30
0.0
 10
5.627056403920884
 20
3.634295141452715
 30
0.0
 10
5.627056403920884
 20
3.634295141452715
 30
0.0
 10
4.856555067047061
 20
3.634720635497918
 30
0.0
 10
4.856555067047061
 20
3.634720635497918
 30
0.0
 10
4.845679595851
 20
3.634706346476984
 30
0.0
 10
4.836868711555326
 20
3.625890072912954
 30
0.0
 10
4.836861072597255
 20
3.615014595012629
 30
0.0
  0
ENDBLK
  5
2AE
330
2AB
100
AcDbEntity
  8
0
100
AcDbBlockEnd
  0
BLOCK
  5
2B2
330
2B0
100
AcDbEntity
  8
0
100
AcDbBlockBegin
  2
block 74
 70
     0
 10
0.0
 20
0.0
 30
0.0
  3
block 74
  1

  0
SPLINE
  5
2B4
330
2B0
100
AcDbEntity
  8
_U+5207_U+65AD_U+30D1_U+30B9
 62
     1
420
 16711680
370
     9
100
AcDbSpline
210
0.0
220
0.0
230
1.0
 70
    11
 71
     3
 72
    20
 73
    16
 74
     0
 42
0.0000000001
 43
0.0000000001
 12
1.0
 22
0.0
 32
0.0
 13
1.0
 23
0.0
 33
0.0
 40
0.0
 40
0.0
 40
0.0
 40
0.0
 40
1.0
 40
1.0
 40
1.0
 40
2.0
 40
2.0
 40
2.0
 40
3.0
 40
3.0
 40
3.0
 40
4.0
 40
4.0
 40
4.0
 40
5.0
 40
5.0
 40
5.0
 40
5.0
 10
4.934389209163379
 20
1.765668468041516
 30
0.0
 10
4.934389194937365
 20
1.789588008018806
 30
0.0
 10
4.953779801792026
 20
1.808978637938354
 30
0.0
 10
4.977699341769545
 20
1.808978652164342
 30
0.0
 10
5.00161888174696
 20
1.808978666390304
 30
0.0
 10
5.021009511666559
 20
1.789588059535668
 30
0.0
 10
5.021009525892572
 20
1.765668519558403
 30
0.0
 10
5.021009540118585
 20
1.74174897958081
 30
0.0
 10
5.001618933263848
 20
1.722358349661236
 30
0.0
 10
4.977699393286457
 20
1.722358335435249
 30
0.0
 10
4.953779853308939
 20
1.722358321209261
 30
0.0
 10
4.934389223389391
 20
1.741748928063897
 30
0.0
 10
4.934389209163379
 20
1.765668468041516
 30
0.0
 10
4.934389209163379
 20
1.765668468041516
 30
0.0
 10
4.934389209163379
 20
1.765668468041516
 30
0.0
 10
4.934389209163379
 20
1.765668468041516
 30
0.0
  0
ENDBLK
  5
2B3
330
2B0
100
AcDbEntity
  8
0
100
AcDbBlockEnd
  0
BLOCK
  5
2B7
330
2B5
100
AcDbEntity
  8
0
100
AcDbBlockBegin
  2
block 75
 70
     0
 10
0.0
 20
0.0
 30
0.0
  3
block 75
  1

  0
SPLINE
  5
2B9
330
2B5
100
AcDbEntity
  8
_U+5207_U+65AD_U+30D1_U+30B9
 62
     1
420
 16711680
370
     9
100
AcDbSpline
210
0.0
220
0.0
230
1.0
 70
    11
 71
     3
 72
    20
 73
    16
 74
     0
 42
0.0000000001
 43
0.0000000001
 12
1.0
 22
0.0
 32
0.0
 13
1.0
 23
0.0
 33
0.0
 40
0.0
 40
0.0
 40
0.0
 40
0.0
 40
1.0
 40
1.0
 40
1.0
 40
2.0
 40
2.0
 40
2.0
 40
3.0
 40
3.0
 40
3.0
 40
4.0
 40
4.0
 40
4.0
 40
5.0
 40
5.0
 40
5.0
 40
5.0
 10
5.50529604119404
 20
1.430999402039965
 30
0.0
 10
5.505296026968002
 20
1.454918942017533
 30
0.0
 10
5.52468663382279
 20
1.474309571936752
 30
0.0
 10
5.54860617380008
 20
1.474309586162766
 30
0.0
 10
5.572525713777647
 20
1.474309600388753
 30
0.0
 10
5.591916343697297
 20
1.45491899353442
 30
0.0
 10
5.591916357923284
 20
1.430999453556852
 30
0.0
 10
5.591916372149348
 20
1.407079913579082
 30
0.0
 10
5.57252576529456
 20
1.387689283659534
 30
0.0
 10
5.548606225316992
 20
1.387689269433546
 30
0.0
 10
5.524686685339677
 20
1.387689255207533
 30
0.0
 10
5.505296055420053
 20
1.407079862062195
 30
0.0
 10
5.50529604119404
 20
1.430999402039965
 30
0.0
 10
5.50529604119404
 20
1.430999402039965
 30
0.0
 10
5.50529604119404
 20
1.430999402039965
 30
0.0
 10
5.50529604119404
 20
1.430999402039965
 30
0.0
  0
ENDBLK
  5
2B8
330
2B5
100
AcDbEntity
  8
0
100
AcDbBlockEnd
  0
BLOCK
  5
2BC
330
2BA
100
AcDbEntity
  8
0
100
AcDbBlockBegin
  2
block 76
 70
     0
 10
0.0
 20
0.0
 30
0.0
  3
block 76
  1

  0
INSERT
  5
2BF
330
2BA
100
AcDbEntity
  8
_U+5207_U+65AD_U+30D1_U+30B9
100
AcDbBlockReference
  2
block 77
 10
0.0
 20
0.0
 30
0.0
  0
INSERT
  5
2C4
330
2BA
100
AcDbEntity
  8
_U+5207_U+65AD_U+30D1_U+30B9
100
AcDbBlockReference
  2
block 78
 10
0.0
 20
0.0
 30
0.0
  0
INSERT
  5
2C9
330
2BA
100
AcDbEntity
  8
_U+5207_U+65AD_U+30D1_U+30B9
100
AcDbBlockReference
  2
block 79
 10
0.0
 20
0.0
 30
0.0
  0
ENDBLK
  5
2BD
330
2BA
100
AcDbEntity
  8
0
100
AcDbBlockEnd
  0
BLOCK
  5
2C0
330
2BE
100
AcDbEntity
  8
0
100
AcDbBlockBegin
  2
block 77
 70
     0
 10
0.0
 20
0.0
 30
0.0
  3
block 77
  1

  0
SPLINE
  5
2C2
330
2BE
100
AcDbEntity
  8
_U+5207_U+65AD_U+30D1_U+30B9
 62
     1
420
 16711680
370
     9
100
AcDbSpline
210
0.0
220
0.0
230
1.0
 70
    11
 71
     3
 72
    32
 73
    28
 74
     0
 42
0.0000000001
 43
0.0000000001
 12
1.0
 22
0.0
 32
0.0
 13
1.0
 23
0.0
 33
0.0
 40
0.0
 40
0.0
 40
0.0
 40
0.0
 40
1.0
 40
1.0
 40
1.0
 40
2.0
 40
2.0
 40
2.0
 40
3.0
 40
3.0
 40
3.0
 40
4.0
 40
4.0
 40
4.0
 40
5.0
 40
5.0
 40
5.0
 40
6.0
 40
6.0
 40
6.0
 40
7.0
 40
7.0
 40
7.0
 40
8.0
 40
8.0
 40
8.0
 40
9.0
 40
9.0
 40
9.0
 40
9.0
 10
-4.846318492181277
 20
-0.5240253731903471
 30
0.0
 10
-4.846318492181277
 20
-0.5240253731903471
 30
0.0
 10
-4.846318455693537
 20
-2.388457921724542
 30
0.0
 10
-4.846318455693537
 20
-2.388457921724542
 30
0.0
 10
-4.848674738457488
 20
-2.409038666771443
 30
0.0
 10
-4.857901375101139
 20
-2.41921189486642
 30
0.0
 10
-4.871471624133265
 20
-2.431047059813232
 30
0.0
 10
-4.871471624133265
 20
-2.431047059813232
 30
0.0
 10
-5.613195634442023
 20
-2.85846498937273
 30
0.0
 10
-5.613195634442023
 20
-2.85846498937273
 30
0.0
 10
-5.629128855731412
 20
-2.865162504061395
 30
0.0
 10
-5.647474692047202
 20
-2.857675484562378
 30
0.0
 10
-5.654172206735931
 20
-2.841742263272812
 30
0.0
 10
-5.655158845172044
 20
-2.839395074910954
 30
0.0
 10
-5.655855351856442
 20
-2.836936251483671
 30
0.0
 10
-5.656246281651836
 20
-2.834420317759572
 30
0.0
 10
-5.656246281651836
 20
-2.834420317759572
 30
0.0
 10
-5.656200270833589
 20
-0.5244312506258666
 30
0.0
 10
-5.656200270833589
 20
-0.5244312506258666
 30
0.0
 10
-5.65620026436674
 20
-0.5135587324542585
 30
0.0
 10
-5.647386341675593
 20
-0.5047448202479042
 30
0.0
 10
-5.636513823504047
 20
-0.5047448267147906
 30
0.0
 10
-5.636513823504047
 20
-0.5047448267147906
 30
0.0
 10
-4.866012486630198
 20
-0.5043193327041737
 30
0.0
 10
-4.866012486630198
 20
-0.5043193327041737
 30
0.0
 10
-4.855137015434138
 20
-0.5043336217256132
 30
0.0
 10
-4.846326131138855
 20
-0.5131498952900225
 30
0.0
 10
-4.846318492181277
 20
-0.5240253731903471
 30
0.0
  0
ENDBLK
  5
2C1
330
2BE
100
AcDbEntity
  8
0
100
AcDbBlockEnd
  0
BLOCK
  5
2C5
330
2C3
100
AcDbEntity
  8
0
100
AcDbBlockBegin
  2
block 78
 70
     0
 10
0.0
 20
0.0
 30
0.0
  3
block 78
  1

  0
SPLINE
  5
2C7
330
2C3
100
AcDbEntity
  8
_U+5207_U+65AD_U+30D1_U+30B9
 62
     1
420
 16711680
370
     9
100
AcDbSpline
210
0.0
220
0.0
230
1.0
 70
    11
 71
     3
 72
    20
 73
    16
 74
     0
 42
0.0000000001
 43
0.0000000001
 12
1.0
 22
0.0
 32
0.0
 13
1.0
 23
0.0
 33
0.0
 40
0.0
 40
0.0
 40
0.0
 40
0.0
 40
1.0
 40
1.0
 40
1.0
 40
2.0
 40
2.0
 40
2.0
 40
3.0
 40
3.0
 40
3.0
 40
4.0
 40
4.0
 40
4.0
 40
5.0
 40
5.0
 40
5.0
 40
5.0
 10
-4.943846628830429
 20
-2.37337150015709
 30
0.0
 10
-4.943846614603343
 20
-2.349451960179799
 30
0.0
 10
-4.963237221457133
 20
-2.330061330259392
 30
0.0
 10
-4.98715676143465
 20
-2.330061316032318
 30
0.0
 10
-5.011076301412067
 20
-2.330061301805295
 30
0.0
 10
-5.030466931332537
 20
-2.349451908659047
 30
0.0
 10
-5.030466945559624
 20
-2.373371448636312
 30
0.0
 10
-5.03046695978671
 20
-2.397290988613905
 30
0.0
 10
-5.011076352932845
 20
-2.416681618534362
 30
0.0
 10
-4.987156812955454
 20
-2.416681632761411
 30
0.0
 10
-4.963237272977936
 20
-2.416681646988486
 30
0.0
 10
-4.943846643057516
 20
-2.397291040134708
 30
0.0
 10
-4.943846628830429
 20
-2.37337150015709
 30
0.0
 10
-4.943846628830429
 20
-2.37337150015709
 30
0.0
 10
-4.943846628830429
 20
-2.37337150015709
 30
0.0
 10
-4.943846628830429
 20
-2.37337150015709
 30
0.0
  0
ENDBLK
  5
2C6
330
2C3
100
AcDbEntity
  8
0
100
AcDbBlockEnd
  0
BLOCK
  5
2CA
330
2C8
100
AcDbEntity
  8
0
100
AcDbBlockBegin
  2
block 79
 70
     0
 10
0.0
 20
0.0
 30
0.0
  3
block 79
  1

  0
SPLINE
  5
2CC
330
2C8
100
AcDbEntity
  8
_U+5207_U+65AD_U+30D1_U+30B9
 62
     1
420
 16711680
370
     9
100
AcDbSpline
210
0.0
220
0.0
230
1.0
 70
    11
 71
     3
 72
    20
 73
    16
 74
     0
 42
0.0000000001
 43
0.0000000001
 12
1.0
 22
0.0
 32
0.0
 13
1.0
 23
0.0
 33
0.0
 40
0.0
 40
0.0
 40
0.0
 40
0.0
 40
1.0
 40
1.0
 40
1.0
 40
2.0
 40
2.0
 40
2.0
 40
3.0
 40
3.0
 40
3.0
 40
4.0
 40
4.0
 40
4.0
 40
5.0
 40
5.0
 40
5.0
 40
5.0
 10
-5.51475346087611
 20
-2.708040566133023
 30
0.0
 10
-5.514753446648998
 20
-2.684121026155455
 30
0.0
 10
-5.534144053502914
 20
-2.664730396235351
 30
0.0
 10
-5.558063593480205
 20
-2.664730382008277
 30
0.0
 10
-5.581983133457773
 20
-2.664730367781203
 30
0.0
 10
-5.601373763378294
 20
-2.684120974634677
 30
0.0
 10
-5.601373777605355
 20
-2.708040514612245
 30
0.0
 10
-5.601373791832505
 20
-2.731960054590016
 30
0.0
 10
-5.581983184978589
 20
-2.751350684510423
 30
0.0
 10
-5.558063645001008
 20
-2.751350698737497
 30
0.0
 10
-5.534144105023693
 20
-2.75135071296457
 30
0.0
 10
-5.514753475103197
 20
-2.731960106110793
 30
0.0
 10
-5.51475346087611
 20
-2.708040566133023
 30
0.0
 10
-5.51475346087611
 20
-2.708040566133023
 30
0.0
 10
-5.51475346087611
 20
-2.708040566133023
 30
0.0
 10
-5.51475346087611
 20
-2.708040566133023
 30
0.0
  0
ENDBLK
  5
2CB
330
2C8
100
AcDbEntity
  8
0
100
AcDbBlockEnd
  0
ENDSEC
  0
SECTION
  2
ENTITIES
  0
SPLINE
  5
41
330
1F
100
AcDbEntity
  8
_U+5F6B_U+523B_U+30D1_U+30B9
 62
     7
420
 16777215
370
     9
100
AcDbSpline
210
0.0
220
0.0
230
1.0
 70
    11
 71
     3
 72
   107
 73
   103
 74
     0
 42
0.0000000001
 43
0.0000000001
 12
1.0
 22
0.0
 32
0.0
 13
1.0
 23
0.0
 33
0.0
 40
0.0
 40
0.0
 40
0.0
 40
0.0
 40
1.0
 40
1.0
 40
1.0
 40
2.0
 40
2.0
 40
2.0
 40
3.0
 40
3.0
 40
3.0
 40
4.0
 40
4.0
 40
4.0
 40
5.0
 40
5.0
 40
5.0
 40
6.0
 40
6.0
 40
6.0
 40
7.0
 40
7.0
 40
7.0
 40
8.0
 40
8.0
 40
8.0
 40
9.0
 40
9.0
 40
9.0
 40
10.0
 40
10.0
 40
10.0
 40
11.0
 40
11.0
 40
11.0
 40
12.0
 40
12.0
 40
12.0
 40
13.0
 40
13.0
 40
13.0
 40
14.0
 40
14.0
 40
14.0
 40
15.0
 40
15.0
 40
15.0
 40
16.0
 40
16.0
 40
16.0
 40
17.0
 40
17.0
 40
17.0
 40
18.0
 40
18.0
 40
18.0
 40
19.0
 40
19.0
 40
19.0
 40
20.0
 40
20.0
 40
20.0
 40
21.0
 40
21.0
 40
21.0
 40
22.0
 40
22.0
 40
22.0
 40
23.0
 40
23.0
 40
23.0
 40
24.0
 40
24.0
 40
24.0
 40
25.0
 40
25.0
 40
25.0
 40
26.0
 40
26.0
 40
26.0
 40
27.0
 40
27.0
 40
27.0
 40
28.0
 40
28.0
 40
28.0
 40
29.0
 40
29.0
 40
29.0
 40
30.0
 40
30.0
 40
30.0
 40
31.0
 40
31.0
 40
31.0
 40
32.0
 40
32.0
 40
32.0
 40
33.0
 40
33.0
 40
33.0
 40
34.0
 40
34.0
 40
34.0
 40
34.0
 10
-4.867281154571502
 20
1.725856476063579
 30
0.0
 10
-4.866622701977538
 20
1.697472085508581
 30
0.0
 10
-4.893150457132188
 20
1.609928332141812
 30
0.0
 10
-4.959618247996104
 20
1.609928332141812
 30
0.0
 10
-4.978601043584288
 20
1.609928332141812
 30
0.0
 10
-4.996742736760413
 20
1.619058083296219
 30
0.0
 10
-5.006967777990212
 20
1.634448156963673
 30
0.0
 10
-5.017024751613525
 20
1.649615736385259
 30
0.0
 10
-5.020905785604251
 20
1.668261239113841
 30
0.0
 10
-5.020905785604251
 20
1.689421490362469
 30
0.0
 10
-5.020754186255317
 20
1.735491253964836
 30
0.0
 10
-5.002260283346774
 20
1.79593464499726
 30
0.0
 10
-4.963652373643741
 20
1.86444902707227
 30
0.0
 10
-4.926038687783552
 20
1.930665674436492
 30
0.0
 10
-4.905232133762348
 20
1.988409501158382
 30
0.0
 10
-4.905569427092965
 20
2.031631449681223
 30
0.0
 10
-4.905569427092965
 20
2.054379266851735
 30
0.0
 10
-4.910783774981458
 20
2.072864341685823
 30
0.0
 10
-4.921515669456337
 20
2.088795667647421
 30
0.0
 10
-4.932433257912862
 20
2.104655455763527
 30
0.0
 10
-4.949561244598903
 20
2.118604117950301
 30
0.0
 10
-4.975733715040519
 20
2.129927493419245
 30
0.0
 10
-4.99488488369463
 20
2.13814429989975
 30
0.0
 10
-5.013345909635947
 20
2.141839610134967
 30
0.0
 10
-5.030794751168981
 20
2.141839610134967
 30
0.0
 10
-5.068576474861768
 20
2.141839610134967
 30
0.0
 10
-5.10465316250318
 20
2.124888489356054
 30
0.0
 10
-5.136731036795241
 20
2.094768012280711
 30
0.0
 10
-5.168978775417978
 20
2.064623790728951
 30
0.0
 10
-5.19667061874625
 20
2.021550397391315
 30
0.0
 10
-5.215991012081417
 20
1.972454430720543
 30
0.0
 10
-5.231245924883549
 20
1.934013036768243
 30
0.0
 10
-5.254093590621222
 20
1.853598410215682
 30
0.0
 10
-5.254093590621222
 20
1.77082333918146
 30
0.0
 10
-5.254093590621222
 20
1.737346367283281
 30
0.0
 10
-5.25004302648996
 20
1.703700139887133
 30
0.0
 10
-5.241320888846202
 20
1.671959254509425
 30
0.0
 10
-5.325759290889992
 20
1.790738257674295
 30
0.0
 10
-5.282797618357803
 20
1.950785465141861
 30
0.0
 10
-5.247360205079468
 20
2.024832614621346
 30
0.0
 10
-5.260792881530316
 20
2.030216218007909
 30
0.0
 10
-5.274579266527881
 20
2.032983971583791
 30
0.0
 10
-5.288652435362779
 20
2.032983971583791
 30
0.0
 10
-5.289496909266859
 20
2.032983971583791
 30
0.0
 10
-5.290357494326157
 20
2.032983971583791
 30
0.0
 10
-5.291014424838332
 20
2.032897821752966
 30
0.0
 10
-5.333302728374747
 20
2.031961437019238
 30
0.0
 10
-5.372939240186889
 20
2.006118618682144
 30
0.0
 10
-5.403162326359607
 20
1.960542314004745
 30
0.0
 10
-5.433216136251404
 20
1.915046375247332
 30
0.0
 10
-5.452350531188535
 20
1.850908017597021
 30
0.0
 10
-5.4521824933559
 20
1.779735737052356
 30
0.0
 10
-5.4521824933559
 20
1.776715317894867
 30
0.0
 10
-5.4521824933559
 20
1.773778308820839
 30
0.0
 10
-5.4521824933559
 20
1.770757889663299
 30
0.0
 10
-5.451186747431266
 20
1.719292346019857
 30
0.0
 10
-5.44008316057668
 20
1.671786954847726
 30
0.0
 10
-5.422450147143788
 20
1.63216807840187
 30
0.0
 10
-5.46426415151038
 20
1.680428761465843
 30
0.0
 10
-5.509251733416603
 20
1.764883567099054
 30
0.0
 10
-5.487600710517174
 20
1.886504297016144
 30
0.0
 10
-5.493136235555185
 20
1.887854079171423
 30
0.0
 10
-5.498503704874426
 20
1.888528970248949
 30
0.0
 10
-5.503885786179138
 20
1.888528970248949
 30
0.0
 10
-5.503885786179138
 20
1.888528970248949
 30
0.0
 10
-5.504239517993369
 20
1.888528970248949
 30
0.0
 10
-5.504239517993369
 20
1.888528970248949
 30
0.0
 10
-5.507581096414305
 20
1.888528970248949
 30
0.0
 10
-5.510769553404505
 20
1.888350582260045
 30
0.0
 10
-5.514128787974427
 20
1.887770973504151
 30
0.0
 10
-5.538293358900192
 20
1.884310368285216
 30
0.0
 10
-5.559623204650014
 20
1.868557430312623
 30
0.0
 10
-5.576260472158272
 20
1.841516772549186
 30
0.0
 10
-5.592509913219575
 20
1.814663252922097
 30
0.0
 10
-5.602601315665866
 20
1.77730405914162
 30
0.0
 10
-5.602601315665866
 20
1.735743919546444
 30
0.0
 10
-5.602601315665866
 20
1.723222361271256
 30
0.0
 10
-5.60175684967146
 20
1.710397908714387
 30
0.0
 10
-5.599901751355333
 20
1.697302560914725
 30
0.0
 10
-5.59320274964418
 20
1.650308249496195
 30
0.0
 10
-5.574724996021321
 20
1.609336851147772
 30
0.0
 10
-5.551217643745101
 20
1.581139676656297
 30
0.0
 10
-5.527745636325158
 20
1.552758330264901
 30
0.0
 10
-5.500021220445976
 20
1.537992341438338
 30
0.0
 10
-5.474000014119926
 20
1.537992341438338
 30
0.0
 10
-5.43723077925175
 20
1.537992341438338
 30
0.0
 10
-5.4059970515354
 20
1.559304531577557
 30
0.0
 10
-5.387721699166478
 20
1.574492440945328
 30
0.0
 10
-5.357499871851385
 20
1.536829744050642
 30
0.0
 10
-5.320241722189583
 20
1.515987573314912
 30
0.0
 10
-5.281785433949545
 20
1.515987573314912
 30
0.0
 10
-5.242163513340048
 20
1.515987573314912
 30
0.0
 10
-5.201361674906075
 20
1.539240721648639
 30
0.0
 10
-5.173162952503199
 20
1.560469805582266
 30
0.0
 10
-5.153690985648646
 20
1.543524773130634
 30
0.0
 10
-5.130015611818862
 20
1.528931052669805
 30
0.0
 10
-5.10080622526166
 20
1.517506610968288
 30
0.0
 10
-5.076119912346459
 20
1.507853872501528
 30
0.0
 10
-5.052983964312678
 20
1.503653231103171
 30
0.0
 10
-5.031318042897611
 20
1.503653231103171
 30
0.0
 10
-4.823475031047274
 20
1.503653231103171
 30
0.0
 10
-4.841766801490545
 20
1.698316267430401
 30
0.0
 10
-4.867281154571502
 20
1.725856476063579
 30
0.0
  0
HATCH
  5
42
330
1F
100
AcDbEntity
  8
_U+5F6B_U+523B_U+30D1_U+30B9
 62
     7
420
 16777215
100
AcDbHatch
 10
0.0
 20
0.0
 30
0.0
210
0.0
220
0.0
230
1.0
  2
SOLID
 70
     1
 71
     0
 91
        1
 92
        1
 93
        1
 72
     4
 94
        3
 73
     0
 74
     1
 95
      107
 96
      103
 40
0.0
 40
0.0
 40
0.0
 40
0.0
 40
1.0
 40
1.0
 40
1.0
 40
2.0
 40
2.0
 40
2.0
 40
3.0
 40
3.0
 40
3.0
 40
4.0
 40
4.0
 40
4.0
 40
5.0
 40
5.0
 40
5.0
 40
6.0
 40
6.0
 40
6.0
 40
7.0
 40
7.0
 40
7.0
 40
8.0
 40
8.0
 40
8.0
 40
9.0
 40
9.0
 40
9.0
 40
10.0
 40
10.0
 40
10.0
 40
11.0
 40
11.0
 40
11.0
 40
12.0
 40
12.0
 40
12.0
 40
13.0
 40
13.0
 40
13.0
 40
14.0
 40
14.0
 40
14.0
 40
15.0
 40
15.0
 40
15.0
 40
16.0
 40
16.0
 40
16.0
 40
17.0
 40
17.0
 40
17.0
 40
18.0
 40
18.0
 40
18.0
 40
19.0
 40
19.0
 40
19.0
 40
20.0
 40
20.0
 40
20.0
 40
21.0
 40
21.0
 40
21.0
 40
22.0
 40
22.0
 40
22.0
 40
23.0
 40
23.0
 40
23.0
 40
24.0
 40
24.0
 40
24.0
 40
25.0
 40
25.0
 40
25.0
 40
26.0
 40
26.0
 40
26.0
 40
27.0
 40
27.0
 40
27.0
 40
28.0
 40
28.0
 40
28.0
 40
29.0
 40
29.0
 40
29.0
 40
30.0
 40
30.0
 40
30.0
 40
31.0
 40
31.0
 40
31.0
 40
32.0
 40
32.0
 40
32.0
 40
33.0
 40
33.0
 40
33.0
 40
34.0
 40
34.0
 40
34.0
 40
34.0
 10
-4.867281154571502
 20
1.725856476063579
 10
-4.866622701977538
 20
1.697472085508581
 10
-4.893150457132188
 20
1.609928332141812
 10
-4.959618247996104
 20
1.609928332141812
 10
-4.978601043584288
 20
1.609928332141812
 10
-4.996742736760413
 20
1.619058083296219
 10
-5.006967777990212
 20
1.634448156963673
 10
-5.017024751613525
 20
1.649615736385259
 10
-5.020905785604251
 20
1.668261239113841
 10
-5.020905785604251
 20
1.689421490362469
 10
-5.020754186255317
 20
1.735491253964836
 10
-5.002260283346774
 20
1.79593464499726
 10
-4.963652373643741
 20
1.86444902707227
 10
-4.926038687783552
 20
1.930665674436492
 10
-4.905232133762348
 20
1.988409501158382
 10
-4.905569427092965
 20
2.031631449681223
 10
-4.905569427092965
 20
2.054379266851735
 10
-4.910783774981458
 20
2.072864341685823
 10
-4.921515669456337
 20
2.088795667647421
 10
-4.932433257912862
 20
2.104655455763527
 10
-4.949561244598903
 20
2.118604117950301
 10
-4.975733715040519
 20
2.129927493419245
 10
-4.99488488369463
 20
2.13814429989975
 10
-5.013345909635947
 20
2.141839610134967
 10
-5.030794751168981
 20
2.141839610134967
 10
-5.068576474861768
 20
2.141839610134967
 10
-5.10465316250318
 20
2.124888489356054
 10
-5.136731036795241
 20
2.094768012280711
 10
-5.168978775417978
 20
2.064623790728951
 10
-5.19667061874625
 20
2.021550397391315
 10
-5.215991012081417
 20
1.972454430720543
 10
-5.231245924883549
 20
1.934013036768243
 10
-5.254093590621222
 20
1.853598410215682
 10
-5.254093590621222
 20
1.77082333918146
 10
-5.254093590621222
 20
1.737346367283281
 10
-5.25004302648996
 20
1.703700139887133
 10
-5.241320888846202
 20
1.671959254509425
 10
-5.325759290889992
 20
1.790738257674295
 10
-5.282797618357803
 20
1.950785465141861
 10
-5.247360205079468
 20
2.024832614621346
 10
-5.260792881530316
 20
2.030216218007909
 10
-5.274579266527881
 20
2.032983971583791
 10
-5.288652435362779
 20
2.032983971583791
 10
-5.289496909266859
 20
2.032983971583791
 10
-5.290357494326157
 20
2.032983971583791
 10
-5.291014424838332
 20
2.032897821752966
 10
-5.333302728374747
 20
2.031961437019238
 10
-5.372939240186889
 20
2.006118618682144
 10
-5.403162326359607
 20
1.960542314004745
 10
-5.433216136251404
 20
1.915046375247332
 10
-5.452350531188535
 20
1.850908017597021
 10
-5.4521824933559
 20
1.779735737052356
 10
-5.4521824933559
 20
1.776715317894867
 10
-5.4521824933559
 20
1.773778308820839
 10
-5.4521824933559
 20
1.770757889663299
 10
-5.451186747431266
 20
1.719292346019857
 10
-5.44008316057668
 20
1.671786954847726
 10
-5.422450147143788
 20
1.63216807840187
 10
-5.46426415151038
 20
1.680428761465843
 10
-5.509251733416603
 20
1.764883567099054
 10
-5.487600710517174
 20
1.886504297016144
 10
-5.493136235555185
 20
1.887854079171423
 10
-5.498503704874426
 20
1.888528970248949
 10
-5.503885786179138
 20
1.888528970248949
 10
-5.503885786179138
 20
1.888528970248949
 10
-5.504239517993369
 20
1.888528970248949
 10
-5.504239517993369
 20
1.888528970248949
 10
-5.507581096414305
 20
1.888528970248949
 10
-5.510769553404505
 20
1.888350582260045
 10
-5.514128787974427
 20
1.887770973504151
 10
-5.538293358900192
 20
1.884310368285216
 10
-5.559623204650014
 20
1.868557430312623
 10
-5.576260472158272
 20
1.841516772549186
 10
-5.592509913219575
 20
1.814663252922097
 10
-5.602601315665866
 20
1.77730405914162
 10
-5.602601315665866
 20
1.735743919546444
 10
-5.602601315665866
 20
1.723222361271256
 10
-5.60175684967146
 20
1.710397908714387
 10
-5.599901751355333
 20
1.697302560914725
 10
-5.59320274964418
 20
1.650308249496195
 10
-5.574724996021321
 20
1.609336851147772
 10
-5.551217643745101
 20
1.581139676656297
 10
-5.527745636325158
 20
1.552758330264901
 10
-5.500021220445976
 20
1.537992341438338
 10
-5.474000014119926
 20
1.537992341438338
 10
-5.43723077925175
 20
1.537992341438338
 10
-5.4059970515354
 20
1.559304531577557
 10
-5.387721699166478
 20
1.574492440945328
 10
-5.357499871851385
 20
1.536829744050642
 10
-5.320241722189583
 20
1.515987573314912
 10
-5.281785433949545
 20
1.515987573314912
 10
-5.242163513340048
 20
1.515987573314912
 10
-5.201361674906075
 20
1.539240721648639
 10
-5.173162952503199
 20
1.560469805582266
 10
-5.153690985648646
 20
1.543524773130634
 10
-5.130015611818862
 20
1.528931052669805
 10
-5.10080622526166
 20
1.517506610968288
 10
-5.076119912346459
 20
1.507853872501528
 10
-5.052983964312678
 20
1.503653231103171
 10
-5.031318042897611
 20
1.503653231103171
 10
-4.823475031047274
 20
1.503653231103171
 10
-4.841766801490545
 20
1.698316267430401
 10
-4.867281154571502
 20
1.725856476063579
 97
        0
 97
        0
 75
     2
 76
     1
 98
        0
  0
INSERT
  5
44
330
1F
100
AcDbEntity
  8
_U+5F6B_U+523B_U+30D1_U+30B9
100
AcDbBlockReference
  2
block 2
 10
0.0
 20
0.0
 30
0.0
  0
SPLINE
  5
4B
330
1F
100
AcDbEntity
  8
_U+5F6B_U+523B_U+30D1_U+30B9
 62
     7
420
 16777215
370
    50
100
AcDbSpline
210
0.0
220
0.0
230
1.0
 70
     8
 71
     3
 72
    20
 73
    16
 74
     0
 42
0.0000000001
 43
0.0000000001
 12
1.0
 22
0.0
 32
0.0
 13
1.0
 23
0.0
 33
0.0
 40
0.0
 40
0.0
 40
0.0
 40
0.0
 40
1.0
 40
1.0
 40
1.0
 40
2.0
 40
2.0
 40
2.0
 40
3.0
 40
3.0
 40
3.0
 40
4.0
 40
4.0
 40
4.0
 40
5.0
 40
5.0
 40
5.0
 40
5.0
 10
-4.094946588831641
 20
1.83663143078901
 30
0.0
 10
-4.094946588831641
 20
1.83663143078901
 30
0.0
 10
-3.98471493851802
 20
1.83663143078901
 30
0.0
 10
-3.98471493851802
 20
1.83663143078901
 30
0.0
 10
-3.98471493851802
 20
1.864458034141156
 30
0.0
 10
-4.004320055509664
 20
1.890522259687057
 30
0.0
 10
-4.038815193250167
 20
1.890522259687057
 30
0.0
 10
-4.067583595447192
 20
1.890522259687057
 30
0.0
 10
-4.096931440775077
 20
1.870616601368586
 30
0.0
 10
-4.096931440775077
 20
1.829838992945194
 30
0.0
 10
-4.096931440775077
 20
1.788779283689792
 30
0.0
 10
-4.067865428885107
 20
1.768873660713679
 30
0.0
 10
-4.038533092418106
 20
1.768873660713679
 30
0.0
 10
-4.015068150706725
 20
1.768873660713679
 30
0.0
 10
-3.992214274949788
 20
1.782154593534465
 30
0.0
 10
-3.98471493851802
 20
1.809277719504482
 30
0.0
  0
SPLINE
  5
4C
330
1F
100
AcDbEntity
  8
_U+5F6B_U+523B_U+30D1_U+30B9
 62
     7
420
 16777215
370
     9
100
AcDbSpline
210
0.0
220
0.0
230
1.0
 70
    11
 71
     3
 72
   107
 73
   103
 74
     0
 42
0.0000000001
 43
0.0000000001
 12
1.0
 22
0.0
 32
0.0
 13
1.0
 23
0.0
 33
0.0
 40
0.0
 40
0.0
 40
0.0
 40
0.0
 40
1.0
 40
1.0
 40
1.0
 40
2.0
 40
2.0
 40
2.0
 40
3.0
 40
3.0
 40
3.0
 40
4.0
 40
4.0
 40
4.0
 40
5.0
 40
5.0
 40
5.0
 40
6.0
 40
6.0
 40
6.0
 40
7.0
 40
7.0
 40
7.0
 40
8.0
 40
8.0
 40
8.0
 40
9.0
 40
9.0
 40
9.0
 40
10.0
 40
10.0
 40
10.0
 40
11.0
 40
11.0
 40
11.0
 40
12.0
 40
12.0
 40
12.0
 40
13.0
 40
13.0
 40
13.0
 40
14.0
 40
14.0
 40
14.0
 40
15.0
 40
15.0
 40
15.0
 40
16.0
 40
16.0
 40
16.0
 40
17.0
 40
17.0
 40
17.0
 40
18.0
 40
18.0
 40
18.0
 40
19.0
 40
19.0
 40
19.0
 40
20.0
 40
20.0
 40
20.0
 40
21.0
 40
21.0
 40
21.0
 40
22.0
 40
22.0
 40
22.0
 40
23.0
 40
23.0
 40
23.0
 40
24.0
 40
24.0
 40
24.0
 40
25.0
 40
25.0
 40
25.0
 40
26.0
 40
26.0
 40
26.0
 40
27.0
 40
27.0
 40
27.0
 40
28.0
 40
28.0
 40
28.0
 40
29.0
 40
29.0
 40
29.0
 40
30.0
 40
30.0
 40
30.0
 40
31.0
 40
31.0
 40
31.0
 40
32.0
 40
32.0
 40
32.0
 40
33.0
 40
33.0
 40
33.0
 40
34.0
 40
34.0
 40
34.0
 40
34.0
 10
4.125566179463627
 20
-2.507238859023371
 30
0.0
 10
4.126224632057579
 20
-2.535623249578369
 30
0.0
 10
4.099696876902928
 20
-2.623167002945138
 30
0.0
 10
4.033229086039025
 20
-2.623167002945138
 30
0.0
 10
4.014246290450854
 20
-2.623167002945138
 30
0.0
 10
3.996104597274704
 20
-2.614037251790731
 30
0.0
 10
3.985879556044917
 20
-2.598647178123277
 30
0.0
 10
3.975822582421592
 20
-2.583479598701691
 30
0.0
 10
3.971941548430878
 20
-2.564834095973108
 30
0.0
 10
3.971941548430878
 20
-2.543673844724481
 30
0.0
 10
3.972093147779812
 20
-2.497604081122113
 30
0.0
 10
3.990587050688343
 20
-2.43716069008969
 30
0.0
 10
4.029194960391376
 20
-2.36864630801468
 30
0.0
 10
4.066808646251578
 20
-2.302429660650458
 30
0.0
 10
4.087615200272769
 20
-2.244685833928568
 30
0.0
 10
4.087277906942164
 20
-2.201463885405726
 30
0.0
 10
4.087277906942164
 20
-2.178716068235215
 30
0.0
 10
4.082063559053672
 20
-2.160230993401127
 30
0.0
 10
4.071331664578793
 20
-2.144299667439529
 30
0.0
 10
4.060414076122267
 20
-2.128439879323423
 30
0.0
 10
4.043286089436227
 20
-2.114491217136649
 30
0.0
 10
4.017113618994598
 20
-2.103167841667704
 30
0.0
 10
3.997962450340512
 20
-2.0949510351872
 30
0.0
 10
3.979501424399182
 20
-2.091255724951982
 30
0.0
 10
3.962052582866161
 20
-2.091255724951982
 30
0.0
 10
3.924270859173349
 20
-2.091255724951982
 30
0.0
 10
3.88819417153195
 20
-2.108206845730895
 30
0.0
 10
3.856116297239901
 20
-2.138327322806238
 30
0.0
 10
3.823868558617151
 20
-2.168471544357999
 30
0.0
 10
3.796176715288867
 20
-2.211544937695635
 30
0.0
 10
3.7768563219537
 20
-2.260640904366407
 30
0.0
 10
3.761601409151581
 20
-2.299082298318707
 30
0.0
 10
3.738753743413907
 20
-2.379496924871268
 30
0.0
 10
3.738753743413907
 20
-2.46227199590549
 30
0.0
 10
3.738753743413907
 20
-2.495748967803668
 30
0.0
 10
3.742804307545157
 20
-2.529395195199817
 30
0.0
 10
3.751526445188928
 20
-2.561136080577525
 30
0.0
 10
3.667088043145137
 20
-2.442357077412655
 30
0.0
 10
3.710049715677339
 20
-2.282309869945089
 30
0.0
 10
3.745487128955675
 20
-2.208262720465604
 30
0.0
 10
3.732054452504801
 20
-2.20287911707904
 30
0.0
 10
3.718268067507248
 20
-2.200111363503159
 30
0.0
 10
3.704194898672338
 20
-2.200111363503159
 30
0.0
 10
3.703350424768258
 20
-2.200111363503159
 30
0.0
 10
3.70248983970896
 20
-2.200111363503159
 30
0.0
 10
3.701832909196785
 20
-2.200197513333984
 30
0.0
 10
3.659544605660383
 20
-2.201133898067711
 30
0.0
 10
3.619908093848254
 20
-2.226976716404806
 30
0.0
 10
3.589685007675522
 20
-2.272553021082204
 30
0.0
 10
3.559631197783725
 20
-2.318048959839618
 30
0.0
 10
3.540496802846595
 20
-2.382187317489929
 30
0.0
 10
3.54066484067923
 20
-2.453359598034593
 30
0.0
 10
3.54066484067923
 20
-2.456380017192082
 30
0.0
 10
3.54066484067923
 20
-2.459317026266111
 30
0.0
 10
3.54066484067923
 20
-2.46233744542365
 30
0.0
 10
3.541660586603863
 20
-2.513802989067092
 30
0.0
 10
3.55276417345845
 20
-2.561308380239224
 30
0.0
 10
3.570397186891341
 20
-2.600927256685079
 30
0.0
 10
3.528583182524749
 20
-2.552666573621107
 30
0.0
 10
3.483595600618527
 20
-2.468211767987896
 30
0.0
 10
3.505246623517956
 20
-2.346591038070806
 30
0.0
 10
3.499711098479944
 20
-2.345241255915526
 30
0.0
 10
3.494343629160691
 20
-2.344566364838
 30
0.0
 10
3.488961547855979
 20
-2.344566364838
 30
0.0
 10
3.488961547855979
 20
-2.344566364838
 30
0.0
 10
3.488607816041773
 20
-2.344566364838
 30
0.0
 10
3.488607816041773
 20
-2.344566364838
 30
0.0
 10
3.485266237620837
 20
-2.344566364838
 30
0.0
 10
3.482077780630637
 20
-2.344744752826904
 30
0.0
 10
3.478718546060716
 20
-2.345324361582799
 30
0.0
 10
3.454553975134937
 20
-2.348784966801734
 30
0.0
 10
3.433224129385103
 20
-2.364537904774326
 30
0.0
 10
3.41658686187687
 20
-2.391578562537764
 30
0.0
 10
3.400337420815554
 20
-2.418432082164852
 30
0.0
 10
3.39024601836925
 20
-2.45579127594533
 30
0.0
 10
3.39024601836925
 20
-2.497351415540505
 30
0.0
 10
3.39024601836925
 20
-2.509872973815694
 30
0.0
 10
3.391090484363657
 20
-2.522697426372563
 30
0.0
 10
3.39294558267981
 20
-2.535792774172225
 30
0.0
 10
3.399644584390949
 20
-2.582787085590755
 30
0.0
 10
3.418122338013796
 20
-2.623758483939178
 30
0.0
 10
3.441629690290029
 20
-2.651955658430653
 30
0.0
 10
3.465101697709972
 20
-2.680337004822048
 30
0.0
 10
3.492826113589167
 20
-2.695102993648611
 30
0.0
 10
3.518847319915191
 20
-2.695102993648611
 30
0.0
 10
3.555616554783379
 20
-2.695102993648611
 30
0.0
 10
3.586850282499729
 20
-2.673790803509392
 30
0.0
 10
3.605125634868652
 20
-2.658602894141621
 30
0.0
 10
3.635347462183745
 20
-2.696265591036308
 30
0.0
 10
3.672605611845534
 20
-2.717107761772038
 30
0.0
 10
3.711061900085598
 20
-2.717107761772038
 30
0.0
 10
3.750683820695081
 20
-2.717107761772038
 30
0.0
 10
3.791485659129042
 20
-2.693854613438311
 30
0.0
 10
3.819684381531917
 20
-2.672625529504684
 30
0.0
 10
3.839156348386496
 20
-2.689570561956316
 30
0.0
 10
3.862831722216267
 20
-2.704164282417145
 30
0.0
 10
3.892041108773456
 20
-2.715588724118662
 30
0.0
 10
3.91672742168867
 20
-2.725241462585422
 30
0.0
 10
3.939863369722439
 20
-2.729442103983779
 30
0.0
 10
3.961529291137519
 20
-2.729442103983779
 30
0.0
 10
4.169372302987843
 20
-2.729442103983779
 30
0.0
 10
4.151080532544585
 20
-2.534779067656548
 30
0.0
 10
4.125566179463627
 20
-2.507238859023371
 30
0.0
  0
HATCH
  5
4D
330
1F
100
AcDbEntity
  8
_U+5F6B_U+523B_U+30D1_U+30B9
 62
     7
420
 16777215
100
AcDbHatch
 10
0.0
 20
0.0
 30
0.0
210
0.0
220
0.0
230
1.0
  2
SOLID
 70
     1
 71
     0
 91
        1
 92
        1
 93
        1
 72
     4
 94
        3
 73
     0
 74
     1
 95
      107
 96
      103
 40
0.0
 40
0.0
 40
0.0
 40
0.0
 40
1.0
 40
1.0
 40
1.0
 40
2.0
 40
2.0
 40
2.0
 40
3.0
 40
3.0
 40
3.0
 40
4.0
 40
4.0
 40
4.0
 40
5.0
 40
5.0
 40
5.0
 40
6.0
 40
6.0
 40
6.0
 40
7.0
 40
7.0
 40
7.0
 40
8.0
 40
8.0
 40
8.0
 40
9.0
 40
9.0
 40
9.0
 40
10.0
 40
10.0
 40
10.0
 40
11.0
 40
11.0
 40
11.0
 40
12.0
 40
12.0
 40
12.0
 40
13.0
 40
13.0
 40
13.0
 40
14.0
 40
14.0
 40
14.0
 40
15.0
 40
15.0
 40
15.0
 40
16.0
 40
16.0
 40
16.0
 40
17.0
 40
17.0
 40
17.0
 40
18.0
 40
18.0
 40
18.0
 40
19.0
 40
19.0
 40
19.0
 40
20.0
 40
20.0
 40
20.0
 40
21.0
 40
21.0
 40
21.0
 40
22.0
 40
22.0
 40
22.0
 40
23.0
 40
23.0
 40
23.0
 40
24.0
 40
24.0
 40
24.0
 40
25.0
 40
25.0
 40
25.0
 40
26.0
 40
26.0
 40
26.0
 40
27.0
 40
27.0
 40
27.0
 40
28.0
 40
28.0
 40
28.0
 40
29.0
 40
29.0
 40
29.0
 40
30.0
 40
30.0
 40
30.0
 40
31.0
 40
31.0
 40
31.0
 40
32.0
 40
32.0
 40
32.0
 40
33.0
 40
33.0
 40
33.0
 40
34.0
 40
34.0
 40
34.0
 40
34.0
 10
4.125566179463627
 20
-2.507238859023371
 10
4.126224632057579
 20
-2.535623249578369
 10
4.099696876902928
 20
-2.623167002945138
 10
4.033229086039025
 20
-2.623167002945138
 10
4.014246290450854
 20
-2.623167002945138
 10
3.996104597274704
 20
-2.614037251790731
 10
3.985879556044917
 20
-2.598647178123277
 10
3.975822582421592
 20
-2.583479598701691
 10
3.971941548430878
 20
-2.564834095973108
 10
3.971941548430878
 20
-2.543673844724481
 10
3.972093147779812
 20
-2.497604081122113
 10
3.990587050688343
 20
-2.43716069008969
 10
4.029194960391376
 20
-2.36864630801468
 10
4.066808646251578
 20
-2.302429660650458
 10
4.087615200272769
 20
-2.244685833928568
 10
4.087277906942164
 20
-2.201463885405726
 10
4.087277906942164
 20
-2.178716068235215
 10
4.082063559053672
 20
-2.160230993401127
 10
4.071331664578793
 20
-2.144299667439529
 10
4.060414076122267
 20
-2.128439879323423
 10
4.043286089436227
 20
-2.114491217136649
 10
4.017113618994598
 20
-2.103167841667704
 10
3.997962450340512
 20
-2.0949510351872
 10
3.979501424399182
 20
-2.091255724951982
 10
3.962052582866161
 20
-2.091255724951982
 10
3.924270859173349
 20
-2.091255724951982
 10
3.88819417153195
 20
-2.108206845730895
 10
3.856116297239901
 20
-2.138327322806238
 10
3.823868558617151
 20
-2.168471544357999
 10
3.796176715288867
 20
-2.211544937695635
 10
3.7768563219537
 20
-2.260640904366407
 10
3.761601409151581
 20
-2.299082298318707
 10
3.738753743413907
 20
-2.379496924871268
 10
3.738753743413907
 20
-2.46227199590549
 10
3.738753743413907
 20
-2.495748967803668
 10
3.742804307545157
 20
-2.529395195199817
 10
3.751526445188928
 20
-2.561136080577525
 10
3.667088043145137
 20
-2.442357077412655
 10
3.710049715677339
 20
-2.282309869945089
 10
3.745487128955675
 20
-2.208262720465604
 10
3.732054452504801
 20
-2.20287911707904
 10
3.718268067507248
 20
-2.200111363503159
 10
3.704194898672338
 20
-2.200111363503159
 10
3.703350424768258
 20
-2.200111363503159
 10
3.70248983970896
 20
-2.200111363503159
 10
3.701832909196785
 20
-2.200197513333984
 10
3.659544605660383
 20
-2.201133898067711
 10
3.619908093848254
 20
-2.226976716404806
 10
3.589685007675522
 20
-2.272553021082204
 10
3.559631197783725
 20
-2.318048959839618
 10
3.540496802846595
 20
-2.382187317489929
 10
3.54066484067923
 20
-2.453359598034593
 10
3.54066484067923
 20
-2.456380017192082
 10
3.54066484067923
 20
-2.459317026266111
 10
3.54066484067923
 20
-2.46233744542365
 10
3.541660586603863
 20
-2.513802989067092
 10
3.55276417345845
 20
-2.561308380239224
 10
3.570397186891341
 20
-2.600927256685079
 10
3.528583182524749
 20
-2.552666573621107
 10
3.483595600618527
 20
-2.468211767987896
 10
3.505246623517956
 20
-2.346591038070806
 10
3.499711098479944
 20
-2.345241255915526
 10
3.494343629160691
 20
-2.344566364838
 10
3.488961547855979
 20
-2.344566364838
 10
3.488961547855979
 20
-2.344566364838
 10
3.488607816041773
 20
-2.344566364838
 10
3.488607816041773
 20
-2.344566364838
 10
3.485266237620837
 20
-2.344566364838
 10
3.482077780630637
 20
-2.344744752826904
 10
3.478718546060716
 20
-2.345324361582799
 10
3.454553975134937
 20
-2.348784966801734
 10
3.433224129385103
 20
-2.364537904774326
 10
3.41658686187687
 20
-2.391578562537764
 10
3.400337420815554
 20
-2.418432082164852
 10
3.39024601836925
 20
-2.45579127594533
 10
3.39024601836925
 20
-2.497351415540505
 10
3.39024601836925
 20
-2.509872973815694
 10
3.391090484363657
 20
-2.522697426372563
 10
3.39294558267981
 20
-2.535792774172225
 10
3.399644584390949
 20
-2.582787085590755
 10
3.418122338013796
 20
-2.623758483939178
 10
3.441629690290029
 20
-2.651955658430653
 10
3.465101697709972
 20
-2.680337004822048
 10
3.492826113589167
 20
-2.695102993648611
 10
3.518847319915191
 20
-2.695102993648611
 10
3.555616554783379
 20
-2.695102993648611
 10
3.586850282499729
 20
-2.673790803509392
 10
3.605125634868652
 20
-2.658602894141621
 10
3.635347462183745
 20
-2.696265591036308
 10
3.672605611845534
 20
-2.717107761772038
 10
3.711061900085598
 20
-2.717107761772038
 10
3.750683820695081
 20
-2.717107761772038
 10
3.791485659129042
 20
-2.693854613438311
 10
3.819684381531917
 20
-2.672625529504684
 10
3.839156348386496
 20
-2.689570561956316
 10
3.862831722216267
 20
-2.704164282417145
 10
3.892041108773456
 20
-2.715588724118662
 10
3.91672742168867
 20
-2.725241462585422
 10
3.939863369722439
 20
-2.729442103983779
 10
3.961529291137519
 20
-2.729442103983779
 10
4.169372302987843
 20
-2.729442103983779
 10
4.151080532544585
 20
-2.534779067656548
 10
4.125566179463627
 20
-2.507238859023371
 97
        0
 97
        0
 75
     2
 76
     1
 98
        0
  0
INSERT
  5
4F
330
1F
100
AcDbEntity
  8
_U+5F6B_U+523B_U+30D1_U+30B9
100
AcDbBlockReference
  2
block 3
 10
0.0
 20
0.0
 30
0.0
  0
SPLINE
  5
56
330
1F
100
AcDbEntity
  8
_U+5F6B_U+523B_U+30D1_U+30B9
 62
     7
420
 16777215
370
    50
100
AcDbSpline
210
0.0
220
0.0
230
1.0
 70
     8
 71
     3
 72
    20
 73
    16
 74
     0
 42
0.0000000001
 43
0.0000000001
 12
1.0
 22
0.0
 32
0.0
 13
1.0
 23
0.0
 33
0.0
 40
0.0
 40
0.0
 40
0.0
 40
0.0
 40
1.0
 40
1.0
 40
1.0
 40
2.0
 40
2.0
 40
2.0
 40
3.0
 40
3.0
 40
3.0
 40
4.0
 40
4.0
 40
4.0
 40
5.0
 40
5.0
 40
5.0
 40
5.0
 10
4.897900745203489
 20
-2.396463904297939
 30
0.0
 10
4.897900745203489
 20
-2.396463904297939
 30
0.0
 10
5.008132395517123
 20
-2.396463904297939
 30
0.0
 10
5.008132395517123
 20
-2.396463904297939
 30
0.0
 10
5.008132395517123
 20
-2.368637300945794
 30
0.0
 10
4.988527278525453
 20
-2.342573075399893
 30
0.0
 10
4.954032140784975
 20
-2.342573075399893
 30
0.0
 10
4.92526373858795
 20
-2.342573075399893
 30
0.0
 10
4.895915893260053
 20
-2.362478733718363
 30
0.0
 10
4.895915893260053
 20
-2.403256342141756
 30
0.0
 10
4.895915893260053
 20
-2.444316051397158
 30
0.0
 10
4.92498190515001
 20
-2.464221674373271
 30
0.0
 10
4.954314241617036
 20
-2.464221674373271
 30
0.0
 10
4.977779183328392
 20
-2.464221674373271
 30
0.0
 10
5.000633059085329
 20
-2.450940741552484
 30
0.0
 10
5.008132395517123
 20
-2.423817615582468
 30
0.0
  0
MTEXT
  5
57
330
1F
100
AcDbEntity
  8
_U+5F6B_U+523B_U+30D1_U+30B9
 62
     7
420
 16777215
100
AcDbMText
 10
4.211758931477864
 20
-2.720272911919488
 30
0.0
 40
0.2229921696980794
 41
0.0
 46
0.0
 71
     7
 72
     1
  1
\fSauna Pro Black|b0|i0|c0|p34;\W1;chocolate
 73
     1
 44
1.0
  0
INSERT
  5
5A
330
1F
100
AcDbEntity
  8
_U+5207_U+65AD_U+30D1_U+30B9
100
AcDbBlockReference
  2
block 4
 10
0.0
 20
0.0
 30
0.0
  0
INSERT
  5
5F
330
1F
100
AcDbEntity
  8
_U+5207_U+65AD_U+30D1_U+30B9
100
AcDbBlockReference
  2
block 5
 10
0.0
 20
0.0
 30
0.0
  0
INSERT
  5
64
330
1F
100
AcDbEntity
  8
_U+5207_U+65AD_U+30D1_U+30B9
100
AcDbBlockReference
  2
block 6
 10
0.0
 20
0.0
 30
0.0
  0
INSERT
  5
69
330
1F
100
AcDbEntity
  8
_U+5207_U+65AD_U+30D1_U+30B9
100
AcDbBlockReference
  2
block 7
 10
0.0
 20
0.0
 30
0.0
  0
INSERT
  5
6E
330
1F
100
AcDbEntity
  8
_U+5207_U+65AD_U+30D1_U+30B9
100
AcDbBlockReference
  2
block 8
 10
0.0
 20
0.0
 30
0.0
  0
INSERT
  5
73
330
1F
100
AcDbEntity
  8
_U+5207_U+65AD_U+30D1_U+30B9
100
AcDbBlockReference
  2
block 9
 10
0.0
 20
0.0
 30
0.0
  0
INSERT
  5
78
330
1F
100
AcDbEntity
  8
_U+5207_U+65AD_U+30D1_U+30B9
100
AcDbBlockReference
  2
block 10
 10
0.0
 20
0.0
 30
0.0
  0
INSERT
  5
181
330
1F
100
AcDbEntity
  8
_U+5207_U+65AD_U+30D1_U+30B9
100
AcDbBlockReference
  2
block 38
 10
0.0
 20
0.0
 30
0.0
  0
INSERT
  5
186
330
1F
100
AcDbEntity
  8
_U+5207_U+65AD_U+30D1_U+30B9
100
AcDbBlockReference
  2
block 39
 10
0.0
 20
0.0
 30
0.0
  0
INSERT
  5
18B
330
1F
100
AcDbEntity
  8
_U+5207_U+65AD_U+30D1_U+30B9
100
AcDbBlockReference
  2
block 40
 10
0.0
 20
0.0
 30
0.0
  0
INSERT
  5
190
330
1F
100
AcDbEntity
  8
_U+5207_U+65AD_U+30D1_U+30B9
100
AcDbBlockReference
  2
block 41
 10
0.0
 20
0.0
 30
0.0
  0
INSERT
  5
195
330
1F
100
AcDbEntity
  8
_U+5207_U+65AD_U+30D1_U+30B9
100
AcDbBlockReference
  2
block 42
 10
0.0
 20
0.0
 30
0.0
  0
INSERT
  5
19A
330
1F
100
AcDbEntity
  8
_U+5207_U+65AD_U+30D1_U+30B9
100
AcDbBlockReference
  2
block 43
 10
0.0
 20
0.0
 30
0.0
  0
INSERT
  5
19F
330
1F
100
AcDbEntity
  8
_U+5207_U+65AD_U+30D1_U+30B9
100
AcDbBlockReference
  2
block 44
 10
0.0
 20
0.0
 30
0.0
  0
INSERT
  5
2A8
330
1F
100
AcDbEntity
  8
_U+5207_U+65AD_U+30D1_U+30B9
100
AcDbBlockReference
  2
block 72
 10
0.0
 20
0.0
 30
0.0
  0
INSERT
  5
2BB
330
1F
100
AcDbEntity
  8
_U+5207_U+65AD_U+30D1_U+30B9
100
AcDbBlockReference
  2
block 76
 10
0.0
 20
0.0
 30
0.0
  0
MTEXT
  5
2CD
330
1F
100
AcDbEntity
  8
_U+5207_U+65AD_U+30D1_U+30B9
 62
     7
420
 16777215
100
AcDbMText
 10
-4.781088405185275
 20
1.512822257147895
 30
0.0
 40
0.2229921696980794
 41
0.0
 46
0.0
 71
     7
 72
     1
  1
\fSauna Pro Black|b0|i0|c0|p34;\W1;chocolate
 73
     1
 44
1.0
  0
ENDSEC
  0
SECTION
  2
OBJECTS
  0
DICTIONARY
  5
C
330
0
100
AcDbDictionary
281
     1
  3
ACAD_GROUP
350
D
  3
ACAD_LAYOUT
350
1A
  3
ACAD_MATERIAL
350
3B
  3
ACAD_MLEADERSTYLE
350
2CF
  3
ACAD_MLINESTYLE
350
17
  3
ACAD_PLOTSETTINGS
350
19
  3
ACAD_PLOTSTYLENAME
350
E
  3
ACAD_TABLESTYLE
350
2CE
  3
ACAD_VISUALSTYLE
350
2A
  0
SUN
  5
3F
330
29
100
AcDbSun
 90
        1
290
     0
 63
     7
421
 16777215
 40
1.0
291
     1
 91
  2455826
 92
 54000000
292
     0
 70
     2
 71
   256
280
     1
  0
DICTIONARY
  5
D
102
{ACAD_REACTORS
330
C
102
}
330
C
100
AcDbDictionary
281
     1
  0
DICTIONARY
  5
1A
102
{ACAD_REACTORS
330
C
102
}
330
C
100
AcDbDictionary
281
     1
  3
Layout1
350
1E
  3
Layout2
350
26
  3
Model
350
22
  0
DICTIONARY
  5
3B
102
{ACAD_REACTORS
330
C
102
}
330
C
100
AcDbDictionary
281
     1
  3
ByBlock
350
3D
  3
ByLayer
350
3C
  3
Global
350
3E
  0
DICTIONARY
  5
2CF
102
{ACAD_REACTORS
330
C
102
}
330
C
100
AcDbDictionary
281
     1
  0
DICTIONARY
  5
17
102
{ACAD_REACTORS
330
C
102
}
330
C
100
AcDbDictionary
281
     1
  3
Standard
350
18
  0
DICTIONARY
  5
19
102
{ACAD_REACTORS
330
C
102
}
330
C
100
AcDbDictionary
281
     1
  0
ACDBDICTIONARYWDFLT
  5
E
102
{ACAD_REACTORS
330
C
102
}
330
C
100
AcDbDictionary
281
     1
  3
Normal
350
F
100
AcDbDictionaryWithDefault
340
F
  0
DICTIONARY
  5
2CE
102
{ACAD_REACTORS
330
C
102
}
330
C
100
AcDbDictionary
281
     1
  0
DICTIONARY
  5
2A
102
{ACAD_REACTORS
330
C
102
}
330
C
100
AcDbDictionary
281
     1
  3
2dWireframe
350
2F
  3
3D Hidden
350
31
  3
3dWireframe
350
30
  3
Basic
350
32
  3
Brighten
350
36
  3
ColorChange
350
3A
  3
Conceptual
350
34
  3
Dim
350
35
  3
Facepattern
350
39
  3
Flat
350
2B
  3
FlatWithEdges
350
2C
  3
Gouraud
350
2D
  3
GouraudWithEdges
350
2E
  3
Linepattern
350
38
  3
Realistic
350
33
  3
Thicken
350
37
  0
LAYOUT
  5
1E
102
{ACAD_REACTORS
330
1A
102
}
330
1A
100
AcDbPlotSettings
  1

  2
none_device
  4

  6

 40
0.0
 41
0.0
 42
0.0
 43
0.0
 44
0.0
 45
0.0
 46
0.0
 47
0.0
 48
0.0
 49
0.0
140
0.0
141
0.0
142
1.0
143
1.0
 70
   688
 72
     0
 73
     0
 74
     5
  7

 75
    16
 76
     0
 77
     2
 78
   300
147
1.0
148
0.0
149
0.0
100
AcDbLayout
  1
Layout1
 70
     1
 71
     1
 10
0.0
 20
0.0
 11
12.0
 21
9.0
 12
0.0
 22
0.0
 32
0.0
 14
1.000000000000000E+20
 24
1.000000000000000E+20
 34
1.000000000000000E+20
 15
-1.000000000000000E+20
 25
-1.000000000000000E+20
 35
-1.000000000000000E+20
146
0.0
 13
0.0
 23
0.0
 33
0.0
 16
1.0
 26
0.0
 36
0.0
 17
0.0
 27
1.0
 37
0.0
 76
     0
330
1B
  0
LAYOUT
  5
26
102
{ACAD_REACTORS
330
1A
102
}
330
1A
100
AcDbPlotSettings
  1

  2
none_device
  4

  6

 40
0.0
 41
0.0
 42
0.0
 43
0.0
 44
0.0
 45
0.0
 46
0.0
 47
0.0
 48
0.0
 49
0.0
140
0.0
141
0.0
142
1.0
143
1.0
 70
   688
 72
     0
 73
     0
 74
     5
  7

 75
    16
 76
     0
 77
     2
 78
   300
147
1.0
148
0.0
149
0.0
100
AcDbLayout
  1
Layout2
 70
     1
 71
     2
 10
0.0
 20
0.0
 11
0.0
 21
0.0
 12
0.0
 22
0.0
 32
0.0
 14
0.0
 24
0.0
 34
0.0
 15
0.0
 25
0.0
 35
0.0
146
0.0
 13
0.0
 23
0.0
 33
0.0
 16
1.0
 26
0.0
 36
0.0
 17
0.0
 27
1.0
 37
0.0
 76
     0
330
23
  0
LAYOUT
  5
22
102
{ACAD_REACTORS
330
1A
102
}
330
1A
100
AcDbPlotSettings
  1

  2
none_device
  4

  6

 40
0.0
 41
0.0
 42
0.0
 43
0.0
 44
0.0
 45
0.0
 46
0.0
 47
0.0
 48
0.0
 49
0.0
140
0.0
141
0.0
142
1.0
143
1.0
 70
  1712
 72
     0
 73
     0
 74
     0
  7

 75
     0
 76
     0
 77
     2
 78
   300
147
1.0
148
0.0
149
0.0
100
AcDbLayout
  1
Model
 70
     1
 71
     0
 10
0.0
 20
0.0
 11
12.0
 21
9.0
 12
0.0
 22
0.0
 32
0.0
 14
1.000000000000000E+20
 24
1.000000000000000E+20
 34
1.000000000000000E+20
 15
-1.000000000000000E+20
 25
-1.000000000000000E+20
 35
-1.000000000000000E+20
146
0.0
 13
0.0
 23
0.0
 33
0.0
 16
1.0
 26
0.0
 36
0.0
 17
0.0
 27
1.0
 37
0.0
 76
     0
330
1F
331
29
  0
MATERIAL
  5
3D
102
{ACAD_REACTORS
330
3B
102
}
330
3B
100
AcDbMaterial
  1
ByBlock
 72
     1
 94
      127
  0
MATERIAL
  5
3C
102
{ACAD_REACTORS
330
3B
102
}
330
3B
100
AcDbMaterial
  1
ByLayer
 72
     1
 94
      127
  0
MATERIAL
  5
3E
102
{ACAD_REACTORS
330
3B
102
}
330
3B
100
AcDbMaterial
  1
Global
 72
     1
 94
      127
  0
MLINESTYLE
  5
18
102
{ACAD_REACTORS
330
17
102
}
330
17
100
AcDbMlineStyle
  2
Standard
 70
     0
  3

 62
   256
 51
90.0
 52
90.0
 71
     2
 49
0.5
 62
   256
  6
BYLAYER
 49
-0.5
 62
   256
  6
BYLAYER
  0
ACDBPLACEHOLDER
  5
F
102
{ACAD_REACTORS
330
E
102
}
330
E
  0
VISUALSTYLE
  5
2F
102
{ACAD_REACTORS
330
2A
102
}
330
2A
100
AcDbVisualStyle
  2
2dWireframe
 70
     4
177
     2
291
     0
 71
     0
176
     1
 72
     2
176
     1
 73
     0
176
     1
 90
        0
176
     1
 40
-0.6
176
     1
 41
-30.0
176
     1
 62
     5
 63
     7
421
 16777215
176
     1
 74
     1
176
     1
 91
        4
176
     1
 64
     7
176
     1
 65
   257
176
     1
 75
     1
176
     1
175
     1
176
     1
 42
1.0
176
     1
 92
        0
176
     1
 66
   257
176
     1
 43
1.0
176
     1
 76
     1
176
     1
 77
     6
176
     1
 78
     2
176
     1
 67
     7
176
     1
 79
     5
176
     1
170
     0
176
     1
171
     0
176
     1
290
     0
176
     1
 93
        1
176
     1
 44
0.0
176
     1
173
     0
176
     1
  0
VISUALSTYLE
  5
31
102
{ACAD_REACTORS
330
2A
102
}
330
2A
100
AcDbVisualStyle
  2
3D Hidden
 70
     6
177
     2
291
     0
 71
     1
176
     1
 72
     2
176
     1
 73
     2
176
     1
 90
        0
176
     1
 40
-0.6
176
     1
 41
-30.0
176
     1
 62
     5
 63
     7
421
 16777215
176
     1
 74
     2
176
     1
 91
        2
176
     1
 64
     7
176
     1
 65
   257
176
     1
 75
     2
176
     1
175
     1
176
     1
 42
40.0
176
     1
 92
        0
176
     1
 66
   257
176
     1
 43
1.0
176
     1
 76
     1
176
     1
 77
     6
176
     1
 78
     2
176
     1
 67
     7
176
     1
 79
     3
176
     1
170
     0
176
     1
171
     0
176
     1
290
     0
176
     1
 93
        1
176
     1
 44
0.0
176
     1
173
     0
176
     1
  0
VISUALSTYLE
  5
30
102
{ACAD_REACTORS
330
2A
102
}
330
2A
100
AcDbVisualStyle
  2
3dWireframe
 70
     5
177
     2
291
     0
 71
     0
176
     1
 72
     2
176
     1
 73
     0
176
     1
 90
        0
176
     1
 40
-0.6
176
     1
 41
-30.0
176
     1
 62
     5
 63
     7
421
 16777215
176
     1
 74
     1
176
     1
 91
        4
176
     1
 64
     7
176
     1
 65
   257
176
     1
 75
     1
176
     1
175
     1
176
     1
 42
1.0
176
     1
 92
        0
176
     1
 66
   257
176
     1
 43
1.0
176
     1
 76
     1
176
     1
 77
     6
176
     1
 78
     2
176
     1
 67
     7
176
     1
 79
     5
176
     1
170
     0
176
     1
171
     0
176
     1
290
     0
176
     1
 93
        1
176
     1
 44
0.0
176
     1
173
     0
176
     1
  0
VISUALSTYLE
  5
32
102
{ACAD_REACTORS
330
2A
102
}
330
2A
100
AcDbVisualStyle
  2
Basic
 70
     7
177
     2
291
     1
 71
     1
176
     1
 72
     0
176
     1
 73
     1
176
     1
 90
        0
176
     1
 40
-0.6
176
     1
 41
-30.0
176
     1
 62
     5
 63
     7
421
 16777215
176
     1
 74
     0
176
     1
 91
        4
176
     1
 64
     7
176
     1
 65
   257
176
     1
 75
     1
176
     1
175
     1
176
     1
 42
1.0
176
     1
 92
        8
176
     1
 66
     7
176
     1
 43
1.0
176
     1
 76
     1
176
     1
 77
     6
176
     1
 78
     2
176
     1
 67
     7
176
     1
 79
     5
176
     1
170
     0
176
     1
171
     0
176
     1
290
     0
176
     1
 93
        1
176
     1
 44
0.0
176
     1
173
     0
176
     1
  0
VISUALSTYLE
  5
36
102
{ACAD_REACTORS
330
2A
102
}
330
2A
100
AcDbVisualStyle
  2
Brighten
 70
    12
177
     2
291
     1
 71
     2
176
     1
 72
     2
176
     1
 73
     0
176
     1
 90
        0
176
     1
 40
-0.6
176
     1
 41
-30.0
176
     1
 62
     5
 63
     7
421
 16777215
176
     1
 74
     1
176
     1
 91
        4
176
     1
 64
     7
176
     1
 65
   257
176
     1
 75
     1
176
     1
175
     1
176
     1
 42
1.0
176
     1
 92
        8
176
     1
 66
     7
176
     1
 43
1.0
176
     1
 76
     1
176
     1
 77
     6
176
     1
 78
     2
176
     1
 67
     7
176
     1
 79
     5
176
     1
170
     0
176
     1
171
     0
176
     1
290
     0
176
     1
 93
        1
176
     1
 44
50.0
176
     1
173
     0
176
     1
  0
VISUALSTYLE
  5
3A
102
{ACAD_REACTORS
330
2A
102
}
330
2A
100
AcDbVisualStyle
  2
ColorChange
 70
    16
177
     2
291
     1
 71
     2
176
     1
 72
     2
176
     1
 73
     3
176
     1
 90
        0
176
     1
 40
-0.6
176
     1
 41
-30.0
176
     1
 62
     5
 63
     8
421
  8421504
176
     1
 74
     1
176
     1
 91
        4
176
     1
 64
     7
176
     1
 65
   257
176
     1
 75
     1
176
     1
175
     1
176
     1
 42
1.0
176
     1
 92
        8
176
     1
 66
     8
424
  8421504
176
     1
 43
1.0
176
     1
 76
     1
176
     1
 77
     6
176
     1
 78
     2
176
     1
 67
     7
176
     1
 79
     5
176
     1
170
     0
176
     1
171
     0
176
     1
290
     0
176
     1
 93
        1
176
     1
 44
0.0
176
     1
173
     0
176
     1
  0
VISUALSTYLE
  5
34
102
{ACAD_REACTORS
330
2A
102
}
330
2A
100
AcDbVisualStyle
  2
Conceptual
 70
     9
177
     2
291
     0
 71
     3
176
     1
 72
     2
176
     1
 73
     0
176
     1
 90
        0
176
     1
 40
-0.6
176
     1
 41
-30.0
176
     1
 62
     5
 63
     7
421
 16777215
176
     1
 74
     2
176
     1
 91
        2
176
     1
 64
     7
176
     1
 65
   257
176
     1
 75
     1
176
     1
175
     1
176
     1
 42
40.0
176
     1
 92
        8
176
     1
 66
     7
176
     1
 43
1.0
176
     1
 76
     1
176
     1
 77
     6
176
     1
 78
     2
176
     1
 67
     7
176
     1
 79
     3
176
     1
170
     0
176
     1
171
     0
176
     1
290
     0
176
     1
 93
        1
176
     1
 44
0.0
176
     1
173
     0
176
     1
  0
VISUALSTYLE
  5
35
102
{ACAD_REACTORS
330
2A
102
}
330
2A
100
AcDbVisualStyle
  2
Dim
 70
    11
177
     2
291
     1
 71
     2
176
     1
 72
     2
176
     1
 73
     0
176
     1
 90
        0
176
     1
 40
-0.6
176
     1
 41
-30.0
176
     1
 62
     5
 63
     7
421
 16777215
176
     1
 74
     1
176
     1
 91
        4
176
     1
 64
     7
176
     1
 65
   257
176
     1
 75
     1
176
     1
175
     1
176
     1
 42
1.0
176
     1
 92
        8
176
     1
 66
     7
176
     1
 43
1.0
176
     1
 76
     1
176
     1
 77
     6
176
     1
 78
     2
176
     1
 67
     7
176
     1
 79
     5
176
     1
170
     0
176
     1
171
     0
176
     1
290
     0
176
     1
 93
        1
176
     1
 44
-50.0
176
     1
173
     0
176
     1
  0
VISUALSTYLE
  5
39
102
{ACAD_REACTORS
330
2A
102
}
330
2A
100
AcDbVisualStyle
  2
Facepattern
 70
    15
177
     2
291
     1
 71
     2
176
     1
 72
     2
176
     1
 73
     0
176
     1
 90
        0
176
     1
 40
-0.6
176
     1
 41
-30.0
176
     1
 62
     5
 63
     7
421
 16777215
176
     1
 74
     1
176
     1
 91
        4
176
     1
 64
     7
176
     1
 65
   257
176
     1
 75
     1
176
     1
175
     1
176
     1
 42
1.0
176
     1
 92
        8
176
     1
 66
     7
176
     1
 43
1.0
176
     1
 76
     1
176
     1
 77
     6
176
     1
 78
     2
176
     1
 67
     7
176
     1
 79
     5
176
     1
170
     0
176
     1
171
     0
176
     1
290
     0
176
     1
 93
        1
176
     1
 44
0.0
176
     1
173
     0
176
     1
  0
VISUALSTYLE
  5
2B
102
{ACAD_REACTORS
330
2A
102
}
330
2A
100
AcDbVisualStyle
  2
Flat
 70
     0
177
     2
291
     1
 71
     2
176
     1
 72
     1
176
     1
 73
     1
176
     1
 90
        2
176
     1
 40
-0.6
176
     1
 41
30.0
176
     1
 62
     5
 63
     7
421
 16777215
176
     1
 74
     0
176
     1
 91
        4
176
     1
 64
     7
176
     1
 65
   257
176
     1
 75
     1
176
     1
175
     1
176
     1
 42
1.0
176
     1
 92
        8
176
     1
 66
     7
176
     1
 43
1.0
176
     1
 76
     1
176
     1
 77
     6
176
     1
 78
     2
176
     1
 67
     7
176
     1
 79
     5
176
     1
170
     0
176
     1
171
     0
176
     1
290
     0
176
     1
 93
       13
176
     1
 44
0.0
176
     1
173
     0
176
     1
  0
VISUALSTYLE
  5
2C
102
{ACAD_REACTORS
330
2A
102
}
330
2A
100
AcDbVisualStyle
  2
FlatWithEdges
 70
     1
177
     2
291
     1
 71
     2
176
     1
 72
     1
176
     1
 73
     1
176
     1
 90
        2
176
     1
 40
-0.6
176
     1
 41
30.0
176
     1
 62
     5
 63
     7
421
 16777215
176
     1
 74
     1
176
     1
 91
        4
176
     1
 64
     7
176
     1
 65
   257
176
     1
 75
     1
176
     1
175
     1
176
     1
 42
1.0
176
     1
 92
        0
176
     1
 66
   257
176
     1
 43
1.0
176
     1
 76
     1
176
     1
 77
     6
176
     1
 78
     2
176
     1
 67
     7
176
     1
 79
     5
176
     1
170
     0
176
     1
171
     0
176
     1
290
     0
176
     1
 93
       13
176
     1
 44
0.0
176
     1
173
     0
176
     1
  0
VISUALSTYLE
  5
2D
102
{ACAD_REACTORS
330
2A
102
}
330
2A
100
AcDbVisualStyle
  2
Gouraud
 70
     2
177
     2
291
     1
 71
     2
176
     1
 72
     2
176
     1
 73
     1
176
     1
 90
        2
176
     1
 40
-0.6
176
     1
 41
30.0
176
     1
 62
     5
 63
     7
421
 16777215
176
     1
 74
     0
176
     1
 91
        4
176
     1
 64
     7
176
     1
 65
   257
176
     1
 75
     1
176
     1
175
     1
176
     1
 42
1.0
176
     1
 92
        0
176
     1
 66
     7
176
     1
 43
1.0
176
     1
 76
     1
176
     1
 77
     6
176
     1
 78
     2
176
     1
 67
     7
176
     1
 79
     5
176
     1
170
     0
176
     1
171
     0
176
     1
290
     0
176
     1
 93
       13
176
     1
 44
0.0
176
     1
173
     0
176
     1
  0
VISUALSTYLE
  5
2E
102
{ACAD_REACTORS
330
2A
102
}
330
2A
100
AcDbVisualStyle
  2
GouraudWithEdges
 70
     3
177
     2
291
     1
 71
     2
176
     1
 72
     2
176
     1
 73
     1
176
     1
 90
        2
176
     1
 40
-0.6
176
     1
 41
30.0
176
     1
 62
     5
 63
     7
421
 16777215
176
     1
 74
     1
176
     1
 91
        4
176
     1
 64
     7
176
     1
 65
   257
176
     1
 75
     1
176
     1
175
     1
176
     1
 42
1.0
176
     1
 92
        0
176
     1
 66
   257
176
     1
 43
1.0
176
     1
 76
     1
176
     1
 77
     6
176
     1
 78
     2
176
     1
 67
     7
176
     1
 79
     5
176
     1
170
     0
176
     1
171
     0
176
     1
290
     0
176
     1
 93
       13
176
     1
 44
0.0
176
     1
173
     0
176
     1
  0
VISUALSTYLE
  5
38
102
{ACAD_REACTORS
330
2A
102
}
330
2A
100
AcDbVisualStyle
  2
Linepattern
 70
    14
177
     2
291
     1
 71
     2
176
     1
 72
     2
176
     1
 73
     0
176
     1
 90
        0
176
     1
 40
-0.6
176
     1
 41
-30.0
176
     1
 62
     5
 63
     7
421
 16777215
176
     1
 74
     1
176
     1
 91
        4
176
     1
 64
     7
176
     1
 65
   257
176
     1
 75
     7
176
     1
175
     7
176
     1
 42
1.0
176
     1
 92
        8
176
     1
 66
     7
176
     1
 43
1.0
176
     1
 76
     1
176
     1
 77
     6
176
     1
 78
     2
176
     1
 67
     7
176
     1
 79
     5
176
     1
170
     0
176
     1
171
     0
176
     1
290
     0
176
     1
 93
        1
176
     1
 44
0.0
176
     1
173
     0
176
     1
  0
VISUALSTYLE
  5
33
102
{ACAD_REACTORS
330
2A
102
}
330
2A
100
AcDbVisualStyle
  2
Realistic
 70
     8
177
     2
291
     0
 71
     2
176
     1
 72
     2
176
     1
 73
     0
176
     1
 90
        0
176
     1
 40
-0.6
176
     1
 41
-30.0
176
     1
 62
     5
 63
     7
421
 16777215
176
     1
 74
     1
176
     1
 91
        0
176
     1
 64
     7
176
     1
 65
   257
176
     1
 75
     1
176
     1
175
     1
176
     1
 42
1.0
176
     1
 92
        8
176
     1
 66
     8
424
  7895160
176
     1
 43
1.0
176
     1
 76
     1
176
     1
 77
     6
176
     1
 78
     2
176
     1
 67
     7
176
     1
 79
     5
176
     1
170
     0
176
     1
171
     0
176
     1
290
     0
176
     1
 93
       13
176
     1
 44
0.0
176
     1
173
     0
176
     1
  0
VISUALSTYLE
  5
37
102
{ACAD_REACTORS
330
2A
102
}
330
2A
100
AcDbVisualStyle
  2
Thicken
 70
    13
177
     2
291
     1
 71
     2
176
     1
 72
     2
176
     1
 73
     0
176
     1
 90
        0
176
     1
 40
-0.6
176
     1
 41
-30.0
176
     1
 62
     5
 63
     7
421
 16777215
176
     1
 74
     1
176
     1
 91
        4
176
     1
 64
     7
176
     1
 65
   257
176
     1
 75
     1
176
     1
175
     1
176
     1
 42
1.0
176
     1
 92
       12
176
     1
 66
     7
176
     1
 43
1.0
176
     1
 76
     1
176
     1
 77
     6
176
     1
 78
     2
176
     1
 67
     7
176
     1
 79
     5
176
     1
170
     0
176
     1
171
     0
176
     1
290
     0
176
     1
 93
        1
176
     1
 44
0.0
176
     1
173
     0
176
     1
  0
ENDSEC
  0
EOF
