  0
SECTION
  2
HEADER
  9
$ANGBASE
  50
0.0
  9
$ANGDIR
  70
  1
  9
$MEASUREMENT
  70
0
  0
ENDSEC
  0
SECTION
  2
TABLES
  0
TABLE
  2
LTYPE
  70
4
  0
LTYPE
  5
40F
  2
CONTINUOUS
  70
0
  3
Solid line
  72
65
  73
0
  40
0.0
  0
LTYPE
  5
410
  2
DASHDOT
 70
0
  3
Dash Dot ____ _ ____ _
 72
65
 73
4
 40
2.0
 49
1.25
 49
-0.25
 49
0.25
 49
-0.25
  0
LTYPE
  5
411
  2
DASHED
 70
0
  3
Dashed __ __ __ __ __
 72
65
 73
2
 40
0.75
 49
0.5
 49
-0.25
  0
LTYPE
  5
43B
  2
DOTTED
 70
0
  3
Dotted .  .  .  .
 72
65
 73
2
 40
0.2
 49
0.0
 49
-0.2
  0
ENDTAB
  0
TABLE
  2
STYLE
  70
4
  0
STYLE
  2
KICAD
  70
0
  40
0
  41
1
  42
1
  50
0
  71
0
  3
isocp.shx
  0
STYLE
  2
KICADB
  70
0
  40
0
  41
1
  42
1
  50
0
  71
0
  3
isocp.shx
  0
STYLE
  2
KICADI
  70
0
  40
0
  41
1
  42
1
  50
15
  71
0
  3
isocp.shx
  0
STYLE
  2
KICADBI
  70
0
  40
0
  41
1
  42
1
  50
15
  71
0
  3
isocp.shx
  0
ENDTAB
  0
TABLE
  2
LAYER
  70
30
  0
LAYER
  2
BLACK
  70
0
  62
7
  6
CONTINUOUS
  0
LAYER
  2
GRAY1
  70
0
  62
251
  6
CONTINUOUS
  0
LAYER
  2
GRAY2
  70
0
  62
8
  6
CONTINUOUS
  0
LAYER
  2
GRAY3
  70
0
  62
9
  6
CONTINUOUS
  0
LAYER
  2
WHITE
  70
0
  62
7
  6
CONTINUOUS
  0
LAYER
  2
LYELLOW
  70
0
  62
51
  6
CONTINUOUS
  0
LAYER
  2
BLUE1
  70
0
  62
178
  6
CONTINUOUS
  0
LAYER
  2
GREEN1
  70
0
  62
98
  6
CONTINUOUS
  0
LAYER
  2
CYAN1
  70
0
  62
138
  6
CONTINUOUS
  0
LAYER
  2
RED1
  70
0
  62
18
  6
CONTINUOUS
  0
LAYER
  2
MAGENTA1
  70
0
  62
228
  6
CONTINUOUS
  0
LAYER
  2
BROWN1
  70
0
  62
58
  6
CONTINUOUS
  0
LAYER
  2
BLUE2
  70
0
  62
5
  6
CONTINUOUS
  0
LAYER
  2
GREEN2
  70
0
  62
3
  6
CONTINUOUS
  0
LAYER
  2
CYAN2
  70
0
  62
4
  6
CONTINUOUS
  0
LAYER
  2
RED2
  70
0
  62
1
  6
CONTINUOUS
  0
LAYER
  2
MAGENTA2
  70
0
  62
6
  6
CONTINUOUS
  0
LAYER
  2
BROWN2
  70
0
  62
54
  6
CONTINUOUS
  0
LAYER
  2
BLUE3
  70
0
  62
171
  6
CONTINUOUS
  0
LAYER
  2
GREEN3
  70
0
  62
91
  6
CONTINUOUS
  0
LAYER
  2
CYAN3
  70
0
  62
131
  6
CONTINUOUS
  0
LAYER
  2
RED3
  70
0
  62
11
  6
CONTINUOUS
  0
LAYER
  2
MAGENTA3
  70
0
  62
221
  6
CONTINUOUS
  0
LAYER
  2
YELLOW3
  70
0
  62
2
  6
CONTINUOUS
  0
LAYER
  2
BLUE4
  70
0
  62
5
  6
CONTINUOUS
  0
LAYER
  2
GREEN4
  70
0
  62
3
  6
CONTINUOUS
  0
LAYER
  2
CYAN4
  70
0
  62
4
  6
CONTINUOUS
  0
LAYER
  2
RED4
  70
0
  62
1
  6
CONTINUOUS
  0
LAYER
  2
MAGENTA4
  70
0
  62
6
  6
CONTINUOUS
  0
LAYER
  2
YELLOW4
  70
0
  62
2
  6
CONTINUOUS
  0
ENDTAB
  0
ENDSEC
  0
SECTION
  2
ENTITIES
0
LINE
8
BLACK
6
CONTINUOUS
10
179.983
20
-153.255
11
179.983
21
-153.255
0
LINE
8
BLACK
6
CONTINUOUS
10
179.983
20
-153.255
11
179.686
21
-153.178
0
LINE
8
BLACK
6
CONTINUOUS
10
179.686
20
-153.178
11
179.677
21
-153.174
0
LINE
8
BLACK
6
CONTINUOUS
10
179.677
20
-153.174
11
179.668
21
-153.171
0
LINE
8
BLACK
6
CONTINUOUS
10
179.668
20
-153.171
11
179.539
21
-153.098
0
LINE
8
BLACK
6
CONTINUOUS
10
179.539
20
-153.098
11
179.538
21
-153.098
0
LINE
8
BLACK
6
CONTINUOUS
10
179.538
20
-153.098
11
164.725
21
-144.572
0
LINE
8
BLACK
6
CONTINUOUS
10
164.725
20
-144.572
11
127.732
21
-139.073
0
LINE
8
BLACK
6
CONTINUOUS
10
127.732
20
-139.073
11
127.732
21
-139.073
0
LINE
8
BLACK
6
CONTINUOUS
10
127.732
20
-139.073
11
127.566
21
-139.044
0
LINE
8
BLACK
6
CONTINUOUS
10
127.566
20
-139.044
11
127.541
21
-139.035
0
LINE
8
BLACK
6
CONTINUOUS
10
127.541
20
-139.035
11
127.541
21
-139.035
0
LINE
8
BLACK
6
CONTINUOUS
10
127.541
20
-139.035
11
127.391
21
-138.948
0
LINE
8
BLACK
6
CONTINUOUS
10
127.391
20
-138.948
11
127.385
21
-138.943
0
LINE
8
BLACK
6
CONTINUOUS
10
127.385
20
-138.943
11
127.378
21
-138.938
0
LINE
8
BLACK
6
CONTINUOUS
10
127.378
20
-138.938
11
127.346
21
-138.909
0
LINE
8
BLACK
6
CONTINUOUS
10
127.346
20
-138.909
11
127.33
21
-138.888
0
LINE
8
BLACK
6
CONTINUOUS
10
127.33
20
-138.888
11
127.326
21
-138.876
0
LINE
8
BLACK
6
CONTINUOUS
10
127.326
20
-138.876
11
116.786
21
-124.439
0
LINE
8
BLACK
6
CONTINUOUS
10
116.786
20
-124.439
11
116.783
21
-124.433
0
LINE
8
BLACK
6
CONTINUOUS
10
116.783
20
-124.433
11
116.777
21
-124.428
0
LINE
8
BLACK
6
CONTINUOUS
10
116.777
20
-124.428
11
116.645
21
-124.352
0
LINE
8
BLACK
6
CONTINUOUS
10
116.645
20
-124.352
11
116.493
21
-124.325
0
LINE
8
BLACK
6
CONTINUOUS
10
116.493
20
-124.325
11
80.4934
21
-124.325
0
LINE
8
BLACK
6
CONTINUOUS
10
80.4934
20
-124.325
11
80.487
21
-124.324
0
LINE
8
BLACK
6
CONTINUOUS
10
80.487
20
-124.324
11
80.487
21
-124.324
0
LINE
8
BLACK
6
CONTINUOUS
10
80.487
20
-124.324
11
80.316
21
-124.294
0
LINE
8
BLACK
6
CONTINUOUS
10
80.316
20
-124.294
11
80.2915
21
-124.285
0
LINE
8
BLACK
6
CONTINUOUS
10
80.2915
20
-124.285
11
80.2915
21
-124.285
0
LINE
8
BLACK
6
CONTINUOUS
10
80.2915
20
-124.285
11
80.1411
21
-124.198
0
LINE
8
BLACK
6
CONTINUOUS
10
80.1411
20
-124.198
11
80.1212
21
-124.181
0
LINE
8
BLACK
6
CONTINUOUS
10
80.1212
20
-124.181
11
80.1212
21
-124.181
0
LINE
8
BLACK
6
CONTINUOUS
10
80.1212
20
-124.181
11
80.0095
21
-124.048
0
LINE
8
BLACK
6
CONTINUOUS
10
80.0095
20
-124.048
11
79.9965
21
-124.026
0
LINE
8
BLACK
6
CONTINUOUS
10
79.9965
20
-124.026
11
79.9371
21
-123.862
0
LINE
8
BLACK
6
CONTINUOUS
10
79.9371
20
-123.862
11
79.9354
21
-123.853
0
LINE
8
BLACK
6
CONTINUOUS
10
79.9354
20
-123.853
11
79.9329
21
-123.843
0
LINE
8
BLACK
6
CONTINUOUS
10
79.9329
20
-123.843
11
79.9256
21
-123.76
0
LINE
8
BLACK
6
CONTINUOUS
10
79.9256
20
-123.76
11
79.925
21
-123.757
0
LINE
8
BLACK
6
CONTINUOUS
10
79.925
20
-123.757
11
79.925
21
-116.503
0
LINE
8
BLACK
6
CONTINUOUS
10
79.925
20
-116.503
11
79.9185
21
-116.43
0
LINE
8
BLACK
6
CONTINUOUS
10
79.9185
20
-116.43
11
79.8671
21
-116.288
0
LINE
8
BLACK
6
CONTINUOUS
10
79.8671
20
-116.288
11
79.7724
21
-116.175
0
LINE
8
BLACK
6
CONTINUOUS
10
79.7724
20
-116.175
11
79.645
21
-116.102
0
LINE
8
BLACK
6
CONTINUOUS
10
79.645
20
-116.102
11
79.4967
21
-116.076
0
LINE
8
BLACK
6
CONTINUOUS
10
79.4967
20
-116.076
11
79.4295
21
-116.081
0
LINE
8
BLACK
6
CONTINUOUS
10
79.4295
20
-116.081
11
79.2881
21
-116.133
0
LINE
8
BLACK
6
CONTINUOUS
10
79.2881
20
-116.133
11
79.1753
21
-116.228
0
LINE
8
BLACK
6
CONTINUOUS
10
79.1753
20
-116.228
11
79.1017
21
-116.355
0
LINE
8
BLACK
6
CONTINUOUS
10
79.1017
20
-116.355
11
79.075
21
-116.507
0
LINE
8
BLACK
6
CONTINUOUS
10
79.075
20
-116.507
11
79.075
21
-123.757
0
LINE
8
BLACK
6
CONTINUOUS
10
79.075
20
-123.757
11
79.0739
21
-123.763
0
LINE
8
BLACK
6
CONTINUOUS
10
79.0739
20
-123.763
11
79.0739
21
-123.763
0
LINE
8
BLACK
6
CONTINUOUS
10
79.0739
20
-123.763
11
79.0437
21
-123.934
0
LINE
8
BLACK
6
CONTINUOUS
10
79.0437
20
-123.934
11
79.0348
21
-123.959
0
LINE
8
BLACK
6
CONTINUOUS
10
79.0348
20
-123.959
11
79.0348
21
-123.959
0
LINE
8
BLACK
6
CONTINUOUS
10
79.0348
20
-123.959
11
78.948
21
-124.109
0
LINE
8
BLACK
6
CONTINUOUS
10
78.948
20
-124.109
11
78.9312
21
-124.129
0
LINE
8
BLACK
6
CONTINUOUS
10
78.9312
20
-124.129
11
78.9312
21
-124.129
0
LINE
8
BLACK
6
CONTINUOUS
10
78.9312
20
-124.129
11
78.7982
21
-124.24
0
LINE
8
BLACK
6
CONTINUOUS
10
78.7982
20
-124.24
11
78.7757
21
-124.253
0
LINE
8
BLACK
6
CONTINUOUS
10
78.7757
20
-124.253
11
78.6125
21
-124.313
0
LINE
8
BLACK
6
CONTINUOUS
10
78.6125
20
-124.313
11
78.6028
21
-124.315
0
LINE
8
BLACK
6
CONTINUOUS
10
78.6028
20
-124.315
11
78.5934
21
-124.317
0
LINE
8
BLACK
6
CONTINUOUS
10
78.5934
20
-124.317
11
78.5098
21
-124.324
0
LINE
8
BLACK
6
CONTINUOUS
10
78.5098
20
-124.324
11
78.5066
21
-124.325
0
LINE
8
BLACK
6
CONTINUOUS
10
78.5066
20
-124.325
11
61.4934
21
-124.325
0
LINE
8
BLACK
6
CONTINUOUS
10
61.4934
20
-124.325
11
61.487
21
-124.324
0
LINE
8
BLACK
6
CONTINUOUS
10
61.487
20
-124.324
11
61.487
21
-124.324
0
LINE
8
BLACK
6
CONTINUOUS
10
61.487
20
-124.324
11
61.316
21
-124.294
0
LINE
8
BLACK
6
CONTINUOUS
10
61.316
20
-124.294
11
61.2915
21
-124.285
0
LINE
8
BLACK
6
CONTINUOUS
10
61.2915
20
-124.285
11
61.2915
21
-124.285
0
LINE
8
BLACK
6
CONTINUOUS
10
61.2915
20
-124.285
11
61.1411
21
-124.198
0
LINE
8
BLACK
6
CONTINUOUS
10
61.1411
20
-124.198
11
61.1212
21
-124.181
0
LINE
8
BLACK
6
CONTINUOUS
10
61.1212
20
-124.181
11
61.1212
21
-124.181
0
LINE
8
BLACK
6
CONTINUOUS
10
61.1212
20
-124.181
11
61.0095
21
-124.048
0
LINE
8
BLACK
6
CONTINUOUS
10
61.0095
20
-124.048
11
60.9965
21
-124.026
0
LINE
8
BLACK
6
CONTINUOUS
10
60.9965
20
-124.026
11
60.9371
21
-123.862
0
LINE
8
BLACK
6
CONTINUOUS
10
60.9371
20
-123.862
11
60.9354
21
-123.853
0
LINE
8
BLACK
6
CONTINUOUS
10
60.9354
20
-123.853
11
60.9329
21
-123.843
0
LINE
8
BLACK
6
CONTINUOUS
10
60.9329
20
-123.843
11
60.9256
21
-123.76
0
LINE
8
BLACK
6
CONTINUOUS
10
60.9256
20
-123.76
11
60.925
21
-123.757
0
LINE
8
BLACK
6
CONTINUOUS
10
60.925
20
-123.757
11
60.925
21
-68.4934
0
LINE
8
BLACK
6
CONTINUOUS
10
60.925
20
-68.4934
11
60.9261
21
-68.487
0
LINE
8
BLACK
6
CONTINUOUS
10
60.9261
20
-68.487
11
60.9261
21
-68.487
0
LINE
8
BLACK
6
CONTINUOUS
10
60.9261
20
-68.487
11
60.9563
21
-68.316
0
LINE
8
BLACK
6
CONTINUOUS
10
60.9563
20
-68.316
11
60.9652
21
-68.2915
0
LINE
8
BLACK
6
CONTINUOUS
10
60.9652
20
-68.2915
11
61.052
21
-68.1411
0
LINE
8
BLACK
6
CONTINUOUS
10
61.052
20
-68.1411
11
61.0688
21
-68.1212
0
LINE
8
BLACK
6
CONTINUOUS
10
61.0688
20
-68.1212
11
61.2018
21
-68.0095
0
LINE
8
BLACK
6
CONTINUOUS
10
61.2018
20
-68.0095
11
61.2243
21
-67.9965
0
LINE
8
BLACK
6
CONTINUOUS
10
61.2243
20
-67.9965
11
61.3875
21
-67.9371
0
LINE
8
BLACK
6
CONTINUOUS
10
61.3875
20
-67.9371
11
61.3972
21
-67.9354
0
LINE
8
BLACK
6
CONTINUOUS
10
61.3972
20
-67.9354
11
61.4066
21
-67.9329
0
LINE
8
BLACK
6
CONTINUOUS
10
61.4066
20
-67.9329
11
61.4902
21
-67.9256
0
LINE
8
BLACK
6
CONTINUOUS
10
61.4902
20
-67.9256
11
61.4934
21
-67.925
0
LINE
8
BLACK
6
CONTINUOUS
10
61.4934
20
-67.925
11
78.5066
21
-67.925
0
LINE
8
BLACK
6
CONTINUOUS
10
78.5066
20
-67.925
11
78.513
21
-67.9261
0
LINE
8
BLACK
6
CONTINUOUS
10
78.513
20
-67.9261
11
78.513
21
-67.9261
0
LINE
8
BLACK
6
CONTINUOUS
10
78.513
20
-67.9261
11
78.684
21
-67.9563
0
LINE
8
BLACK
6
CONTINUOUS
10
78.684
20
-67.9563
11
78.7085
21
-67.9652
0
LINE
8
BLACK
6
CONTINUOUS
10
78.7085
20
-67.9652
11
78.8589
21
-68.052
0
LINE
8
BLACK
6
CONTINUOUS
10
78.8589
20
-68.052
11
78.8788
21
-68.0688
0
LINE
8
BLACK
6
CONTINUOUS
10
78.8788
20
-68.0688
11
78.9905
21
-68.2018
0
LINE
8
BLACK
6
CONTINUOUS
10
78.9905
20
-68.2018
11
79.0035
21
-68.2243
0
LINE
8
BLACK
6
CONTINUOUS
10
79.0035
20
-68.2243
11
79.0629
21
-68.3875
0
LINE
8
BLACK
6
CONTINUOUS
10
79.0629
20
-68.3875
11
79.0646
21
-68.3972
0
LINE
8
BLACK
6
CONTINUOUS
10
79.0646
20
-68.3972
11
79.0671
21
-68.4066
0
LINE
8
BLACK
6
CONTINUOUS
10
79.0671
20
-68.4066
11
79.0744
21
-68.4902
0
LINE
8
BLACK
6
CONTINUOUS
10
79.0744
20
-68.4902
11
79.075
21
-68.4934
0
LINE
8
BLACK
6
CONTINUOUS
10
79.075
20
-68.4934
11
79.075
21
-75.4967
0
LINE
8
BLACK
6
CONTINUOUS
10
79.075
20
-75.4967
11
79.0815
21
-75.5705
0
LINE
8
BLACK
6
CONTINUOUS
10
79.0815
20
-75.5705
11
79.1329
21
-75.7119
0
LINE
8
BLACK
6
CONTINUOUS
10
79.1329
20
-75.7119
11
79.2276
21
-75.8247
0
LINE
8
BLACK
6
CONTINUOUS
10
79.2276
20
-75.8247
11
79.355
21
-75.8983
0
LINE
8
BLACK
6
CONTINUOUS
10
79.355
20
-75.8983
11
79.5033
21
-75.9244
0
LINE
8
BLACK
6
CONTINUOUS
10
79.5033
20
-75.9244
11
79.5705
21
-75.9185
0
LINE
8
BLACK
6
CONTINUOUS
10
79.5705
20
-75.9185
11
79.7119
21
-75.8671
0
LINE
8
BLACK
6
CONTINUOUS
10
79.7119
20
-75.8671
11
79.8247
21
-75.7724
0
LINE
8
BLACK
6
CONTINUOUS
10
79.8247
20
-75.7724
11
79.8983
21
-75.645
0
LINE
8
BLACK
6
CONTINUOUS
10
79.8983
20
-75.645
11
79.925
21
-75.4934
0
LINE
8
BLACK
6
CONTINUOUS
10
79.925
20
-75.4934
11
79.925
21
-68.4934
0
LINE
8
BLACK
6
CONTINUOUS
10
79.925
20
-68.4934
11
79.9261
21
-68.487
0
LINE
8
BLACK
6
CONTINUOUS
10
79.9261
20
-68.487
11
79.9261
21
-68.487
0
LINE
8
BLACK
6
CONTINUOUS
10
79.9261
20
-68.487
11
79.9563
21
-68.316
0
LINE
8
BLACK
6
CONTINUOUS
10
79.9563
20
-68.316
11
79.9652
21
-68.2915
0
LINE
8
BLACK
6
CONTINUOUS
10
79.9652
20
-68.2915
11
80.052
21
-68.1411
0
LINE
8
BLACK
6
CONTINUOUS
10
80.052
20
-68.1411
11
80.0688
21
-68.1212
0
LINE
8
BLACK
6
CONTINUOUS
10
80.0688
20
-68.1212
11
80.2018
21
-68.0095
0
LINE
8
BLACK
6
CONTINUOUS
10
80.2018
20
-68.0095
11
80.2243
21
-67.9965
0
LINE
8
BLACK
6
CONTINUOUS
10
80.2243
20
-67.9965
11
80.3875
21
-67.9371
0
LINE
8
BLACK
6
CONTINUOUS
10
80.3875
20
-67.9371
11
80.3972
21
-67.9354
0
LINE
8
BLACK
6
CONTINUOUS
10
80.3972
20
-67.9354
11
80.4066
21
-67.9329
0
LINE
8
BLACK
6
CONTINUOUS
10
80.4066
20
-67.9329
11
80.4902
21
-67.9256
0
LINE
8
BLACK
6
CONTINUOUS
10
80.4902
20
-67.9256
11
80.4934
21
-67.925
0
LINE
8
BLACK
6
CONTINUOUS
10
80.4934
20
-67.925
11
98.4967
21
-67.925
0
LINE
8
BLACK
6
CONTINUOUS
10
98.4967
20
-67.925
11
98.5705
21
-67.9185
0
LINE
8
BLACK
6
CONTINUOUS
10
98.5705
20
-67.9185
11
98.7119
21
-67.8671
0
LINE
8
BLACK
6
CONTINUOUS
10
98.7119
20
-67.8671
11
98.8247
21
-67.7724
0
LINE
8
BLACK
6
CONTINUOUS
10
98.8247
20
-67.7724
11
98.8983
21
-67.645
0
LINE
8
BLACK
6
CONTINUOUS
10
98.8983
20
-67.645
11
98.925
21
-67.4934
0
LINE
8
BLACK
6
CONTINUOUS
10
98.925
20
-67.4934
11
98.925
21
-63.7434
0
LINE
8
BLACK
6
CONTINUOUS
10
98.925
20
-63.7434
11
98.9261
21
-63.737
0
LINE
8
BLACK
6
CONTINUOUS
10
98.9261
20
-63.737
11
98.9261
21
-63.737
0
LINE
8
BLACK
6
CONTINUOUS
10
98.9261
20
-63.737
11
98.9563
21
-63.566
0
LINE
8
BLACK
6
CONTINUOUS
10
98.9563
20
-63.566
11
98.9652
21
-63.5415
0
LINE
8
BLACK
6
CONTINUOUS
10
98.9652
20
-63.5415
11
99.052
21
-63.3911
0
LINE
8
BLACK
6
CONTINUOUS
10
99.052
20
-63.3911
11
99.0688
21
-63.3712
0
LINE
8
BLACK
6
CONTINUOUS
10
99.0688
20
-63.3712
11
99.2018
21
-63.2595
0
LINE
8
BLACK
6
CONTINUOUS
10
99.2018
20
-63.2595
11
99.2243
21
-63.2465
0
LINE
8
BLACK
6
CONTINUOUS
10
99.2243
20
-63.2465
11
99.3875
21
-63.1871
0
LINE
8
BLACK
6
CONTINUOUS
10
99.3875
20
-63.1871
11
99.3972
21
-63.1854
0
LINE
8
BLACK
6
CONTINUOUS
10
99.3972
20
-63.1854
11
99.4066
21
-63.1829
0
LINE
8
BLACK
6
CONTINUOUS
10
99.4066
20
-63.1829
11
99.4902
21
-63.1756
0
LINE
8
BLACK
6
CONTINUOUS
10
99.4902
20
-63.1756
11
99.4934
21
-63.175
0
LINE
8
BLACK
6
CONTINUOUS
10
99.4934
20
-63.175
11
117.497
21
-63.175
0
LINE
8
BLACK
6
CONTINUOUS
10
117.497
20
-63.175
11
117.57
21
-63.1685
0
LINE
8
BLACK
6
CONTINUOUS
10
117.57
20
-63.1685
11
117.712
21
-63.1171
0
LINE
8
BLACK
6
CONTINUOUS
10
117.712
20
-63.1171
11
117.825
21
-63.0224
0
LINE
8
BLACK
6
CONTINUOUS
10
117.825
20
-63.0224
11
117.898
21
-62.895
0
LINE
8
BLACK
6
CONTINUOUS
10
117.898
20
-62.895
11
117.925
21
-62.7434
0
LINE
8
BLACK
6
CONTINUOUS
10
117.925
20
-62.7434
11
117.925
21
-61.4934
0
LINE
8
BLACK
6
CONTINUOUS
10
117.925
20
-61.4934
11
117.926
21
-61.487
0
LINE
8
BLACK
6
CONTINUOUS
10
117.926
20
-61.487
11
117.926
21
-61.487
0
LINE
8
BLACK
6
CONTINUOUS
10
117.926
20
-61.487
11
117.956
21
-61.316
0
LINE
8
BLACK
6
CONTINUOUS
10
117.956
20
-61.316
11
117.965
21
-61.2915
0
LINE
8
BLACK
6
CONTINUOUS
10
117.965
20
-61.2915
11
118.052
21
-61.1411
0
LINE
8
BLACK
6
CONTINUOUS
10
118.052
20
-61.1411
11
118.069
21
-61.1212
0
LINE
8
BLACK
6
CONTINUOUS
10
118.069
20
-61.1212
11
118.202
21
-61.0095
0
LINE
8
BLACK
6
CONTINUOUS
10
118.202
20
-61.0095
11
118.224
21
-60.9965
0
LINE
8
BLACK
6
CONTINUOUS
10
118.224
20
-60.9965
11
118.388
21
-60.9371
0
LINE
8
BLACK
6
CONTINUOUS
10
118.388
20
-60.9371
11
118.397
21
-60.9354
0
LINE
8
BLACK
6
CONTINUOUS
10
118.397
20
-60.9354
11
118.407
21
-60.9329
0
LINE
8
BLACK
6
CONTINUOUS
10
118.407
20
-60.9329
11
118.49
21
-60.9256
0
LINE
8
BLACK
6
CONTINUOUS
10
118.49
20
-60.9256
11
118.493
21
-60.925
0
LINE
8
BLACK
6
CONTINUOUS
10
118.493
20
-60.925
11
135.507
21
-60.925
0
LINE
8
BLACK
6
CONTINUOUS
10
135.507
20
-60.925
11
135.513
21
-60.9261
0
LINE
8
BLACK
6
CONTINUOUS
10
135.513
20
-60.9261
11
135.513
21
-60.9261
0
LINE
8
BLACK
6
CONTINUOUS
10
135.513
20
-60.9261
11
135.684
21
-60.9563
0
LINE
8
BLACK
6
CONTINUOUS
10
135.684
20
-60.9563
11
135.709
21
-60.9652
0
LINE
8
BLACK
6
CONTINUOUS
10
135.709
20
-60.9652
11
135.859
21
-61.052
0
LINE
8
BLACK
6
CONTINUOUS
10
135.859
20
-61.052
11
135.879
21
-61.0688
0
LINE
8
BLACK
6
CONTINUOUS
10
135.879
20
-61.0688
11
135.99
21
-61.2018
0
LINE
8
BLACK
6
CONTINUOUS
10
135.99
20
-61.2018
11
136.003
21
-61.2243
0
LINE
8
BLACK
6
CONTINUOUS
10
136.003
20
-61.2243
11
136.063
21
-61.3875
0
LINE
8
BLACK
6
CONTINUOUS
10
136.063
20
-61.3875
11
136.065
21
-61.3972
0
LINE
8
BLACK
6
CONTINUOUS
10
136.065
20
-61.3972
11
136.067
21
-61.4066
0
LINE
8
BLACK
6
CONTINUOUS
10
136.067
20
-61.4066
11
136.074
21
-61.4902
0
LINE
8
BLACK
6
CONTINUOUS
10
136.074
20
-61.4902
11
136.075
21
-61.4934
0
LINE
8
BLACK
6
CONTINUOUS
10
136.075
20
-61.4934
11
136.075
21
-62.7467
0
LINE
8
BLACK
6
CONTINUOUS
10
136.075
20
-62.7467
11
136.081
21
-62.8205
0
LINE
8
BLACK
6
CONTINUOUS
10
136.081
20
-62.8205
11
136.133
21
-62.9619
0
LINE
8
BLACK
6
CONTINUOUS
10
136.133
20
-62.9619
11
136.228
21
-63.0747
0
LINE
8
BLACK
6
CONTINUOUS
10
136.228
20
-63.0747
11
136.355
21
-63.1483
0
LINE
8
BLACK
6
CONTINUOUS
10
136.355
20
-63.1483
11
136.507
21
-63.175
0
LINE
8
BLACK
6
CONTINUOUS
10
136.507
20
-63.175
11
154.507
21
-63.175
0
LINE
8
BLACK
6
CONTINUOUS
10
154.507
20
-63.175
11
154.513
21
-63.1761
0
LINE
8
BLACK
6
CONTINUOUS
10
154.513
20
-63.1761
11
154.513
21
-63.1761
0
LINE
8
BLACK
6
CONTINUOUS
10
154.513
20
-63.1761
11
154.684
21
-63.2063
0
LINE
8
BLACK
6
CONTINUOUS
10
154.684
20
-63.2063
11
154.709
21
-63.2152
0
LINE
8
BLACK
6
CONTINUOUS
10
154.709
20
-63.2152
11
154.859
21
-63.302
0
LINE
8
BLACK
6
CONTINUOUS
10
154.859
20
-63.302
11
154.879
21
-63.3188
0
LINE
8
BLACK
6
CONTINUOUS
10
154.879
20
-63.3188
11
154.99
21
-63.4518
0
LINE
8
BLACK
6
CONTINUOUS
10
154.99
20
-63.4518
11
155.003
21
-63.4743
0
LINE
8
BLACK
6
CONTINUOUS
10
155.003
20
-63.4743
11
155.063
21
-63.6375
0
LINE
8
BLACK
6
CONTINUOUS
10
155.063
20
-63.6375
11
155.065
21
-63.6472
0
LINE
8
BLACK
6
CONTINUOUS
10
155.065
20
-63.6472
11
155.067
21
-63.6566
0
LINE
8
BLACK
6
CONTINUOUS
10
155.067
20
-63.6566
11
155.074
21
-63.7402
0
LINE
8
BLACK
6
CONTINUOUS
10
155.074
20
-63.7402
11
155.075
21
-63.7434
0
LINE
8
BLACK
6
CONTINUOUS
10
155.075
20
-63.7434
11
155.075
21
-65.2467
0
LINE
8
BLACK
6
CONTINUOUS
10
155.075
20
-65.2467
11
155.081
21
-65.3205
0
LINE
8
BLACK
6
CONTINUOUS
10
155.081
20
-65.3205
11
155.133
21
-65.4619
0
LINE
8
BLACK
6
CONTINUOUS
10
155.133
20
-65.4619
11
155.228
21
-65.5747
0
LINE
8
BLACK
6
CONTINUOUS
10
155.228
20
-65.5747
11
155.355
21
-65.6483
0
LINE
8
BLACK
6
CONTINUOUS
10
155.355
20
-65.6483
11
155.507
21
-65.675
0
LINE
8
BLACK
6
CONTINUOUS
10
155.507
20
-65.675
11
173.507
21
-65.675
0
LINE
8
BLACK
6
CONTINUOUS
10
173.507
20
-65.675
11
173.513
21
-65.6761
0
LINE
8
BLACK
6
CONTINUOUS
10
173.513
20
-65.6761
11
173.513
21
-65.6761
0
LINE
8
BLACK
6
CONTINUOUS
10
173.513
20
-65.6761
11
173.684
21
-65.7063
0
LINE
8
BLACK
6
CONTINUOUS
10
173.684
20
-65.7063
11
173.709
21
-65.7152
0
LINE
8
BLACK
6
CONTINUOUS
10
173.709
20
-65.7152
11
173.859
21
-65.802
0
LINE
8
BLACK
6
CONTINUOUS
10
173.859
20
-65.802
11
173.879
21
-65.8188
0
LINE
8
BLACK
6
CONTINUOUS
10
173.879
20
-65.8188
11
173.99
21
-65.9518
0
LINE
8
BLACK
6
CONTINUOUS
10
173.99
20
-65.9518
11
174.003
21
-65.9743
0
LINE
8
BLACK
6
CONTINUOUS
10
174.003
20
-65.9743
11
174.063
21
-66.1375
0
LINE
8
BLACK
6
CONTINUOUS
10
174.063
20
-66.1375
11
174.065
21
-66.1472
0
LINE
8
BLACK
6
CONTINUOUS
10
174.065
20
-66.1472
11
174.067
21
-66.1566
0
LINE
8
BLACK
6
CONTINUOUS
10
174.067
20
-66.1566
11
174.074
21
-66.2402
0
LINE
8
BLACK
6
CONTINUOUS
10
174.074
20
-66.2402
11
174.075
21
-66.2434
0
LINE
8
BLACK
6
CONTINUOUS
10
174.075
20
-66.2434
11
174.075
21
-67.4967
0
LINE
8
BLACK
6
CONTINUOUS
10
174.075
20
-67.4967
11
174.081
21
-67.5705
0
LINE
8
BLACK
6
CONTINUOUS
10
174.081
20
-67.5705
11
174.133
21
-67.7119
0
LINE
8
BLACK
6
CONTINUOUS
10
174.133
20
-67.7119
11
174.228
21
-67.8247
0
LINE
8
BLACK
6
CONTINUOUS
10
174.228
20
-67.8247
11
174.355
21
-67.8983
0
LINE
8
BLACK
6
CONTINUOUS
10
174.355
20
-67.8983
11
174.507
21
-67.925
0
LINE
8
BLACK
6
CONTINUOUS
10
174.507
20
-67.925
11
194.257
21
-67.925
0
LINE
8
BLACK
6
CONTINUOUS
10
194.257
20
-67.925
11
194.263
21
-67.9261
0
LINE
8
BLACK
6
CONTINUOUS
10
194.263
20
-67.9261
11
194.263
21
-67.9261
0
LINE
8
BLACK
6
CONTINUOUS
10
194.263
20
-67.9261
11
194.434
21
-67.9563
0
LINE
8
BLACK
6
CONTINUOUS
10
194.434
20
-67.9563
11
194.459
21
-67.9652
0
LINE
8
BLACK
6
CONTINUOUS
10
194.459
20
-67.9652
11
194.609
21
-68.052
0
LINE
8
BLACK
6
CONTINUOUS
10
194.609
20
-68.052
11
194.629
21
-68.0688
0
LINE
8
BLACK
6
CONTINUOUS
10
194.629
20
-68.0688
11
194.74
21
-68.2018
0
LINE
8
BLACK
6
CONTINUOUS
10
194.74
20
-68.2018
11
194.753
21
-68.2243
0
LINE
8
BLACK
6
CONTINUOUS
10
194.753
20
-68.2243
11
194.813
21
-68.3875
0
LINE
8
BLACK
6
CONTINUOUS
10
194.813
20
-68.3875
11
194.815
21
-68.3972
0
LINE
8
BLACK
6
CONTINUOUS
10
194.815
20
-68.3972
11
194.817
21
-68.4066
0
LINE
8
BLACK
6
CONTINUOUS
10
194.817
20
-68.4066
11
194.824
21
-68.4902
0
LINE
8
BLACK
6
CONTINUOUS
10
194.824
20
-68.4902
11
194.825
21
-68.4934
0
LINE
8
BLACK
6
CONTINUOUS
10
194.825
20
-68.4934
11
194.825
21
-128.5
0
LINE
8
BLACK
6
CONTINUOUS
10
194.825
20
-128.5
11
194.825
21
-128.513
0
LINE
8
BLACK
6
CONTINUOUS
10
194.825
20
-128.513
11
194.823
21
-128.519
0
LINE
8
BLACK
6
CONTINUOUS
10
194.823
20
-128.519
11
194.822
21
-128.526
0
LINE
8
BLACK
6
CONTINUOUS
10
194.822
20
-128.526
11
194.815
21
-128.537
0
LINE
8
BLACK
6
CONTINUOUS
10
194.815
20
-128.537
11
180.862
21
-152.843
0
LINE
8
BLACK
6
CONTINUOUS
10
180.862
20
-152.843
11
180.849
21
-152.858
0
LINE
8
BLACK
6
CONTINUOUS
10
180.849
20
-152.858
11
180.846
21
-152.86
0
LINE
8
BLACK
6
CONTINUOUS
10
180.846
20
-152.86
11
180.639
21
-153.072
0
LINE
8
BLACK
6
CONTINUOUS
10
180.639
20
-153.072
11
180.617
21
-153.087
0
LINE
8
BLACK
6
CONTINUOUS
10
180.617
20
-153.087
11
180.617
21
-153.087
0
LINE
8
BLACK
6
CONTINUOUS
10
180.617
20
-153.087
11
180.34
21
-153.22
0
LINE
8
BLACK
6
CONTINUOUS
10
180.34
20
-153.22
11
180.34
21
-153.22
0
LINE
8
BLACK
6
CONTINUOUS
10
180.34
20
-153.22
11
180.315
21
-153.227
0
LINE
8
BLACK
6
CONTINUOUS
10
180.315
20
-153.227
11
180.009
21
-153.257
0
LINE
8
BLACK
6
CONTINUOUS
10
180.009
20
-153.257
11
180.009
21
-153.257
0
LINE
8
BLACK
6
CONTINUOUS
10
180.009
20
-153.257
11
179.983
21
-153.255
0
LINE
8
BLACK
6
CONTINUOUS
10
118.503
20
-61.075
11
118.43
21
-61.0815
0
LINE
8
BLACK
6
CONTINUOUS
10
118.43
20
-61.0815
11
118.288
21
-61.1329
0
LINE
8
BLACK
6
CONTINUOUS
10
118.288
20
-61.1329
11
118.175
21
-61.2276
0
LINE
8
BLACK
6
CONTINUOUS
10
118.175
20
-61.2276
11
118.102
21
-61.355
0
LINE
8
BLACK
6
CONTINUOUS
10
118.102
20
-61.355
11
118.075
21
-61.5066
0
LINE
8
BLACK
6
CONTINUOUS
10
118.075
20
-61.5066
11
118.075
21
-62.7566
0
LINE
8
BLACK
6
CONTINUOUS
10
118.075
20
-62.7566
11
118.074
21
-62.763
0
LINE
8
BLACK
6
CONTINUOUS
10
118.074
20
-62.763
11
118.074
21
-62.763
0
LINE
8
BLACK
6
CONTINUOUS
10
118.074
20
-62.763
11
118.044
21
-62.934
0
LINE
8
BLACK
6
CONTINUOUS
10
118.044
20
-62.934
11
118.035
21
-62.9585
0
LINE
8
BLACK
6
CONTINUOUS
10
118.035
20
-62.9585
11
118.035
21
-62.9585
0
LINE
8
BLACK
6
CONTINUOUS
10
118.035
20
-62.9585
11
117.948
21
-63.1089
0
LINE
8
BLACK
6
CONTINUOUS
10
117.948
20
-63.1089
11
117.931
21
-63.1288
0
LINE
8
BLACK
6
CONTINUOUS
10
117.931
20
-63.1288
11
117.931
21
-63.1288
0
LINE
8
BLACK
6
CONTINUOUS
10
117.931
20
-63.1288
11
117.798
21
-63.2405
0
LINE
8
BLACK
6
CONTINUOUS
10
117.798
20
-63.2405
11
117.776
21
-63.2535
0
LINE
8
BLACK
6
CONTINUOUS
10
117.776
20
-63.2535
11
117.612
21
-63.3129
0
LINE
8
BLACK
6
CONTINUOUS
10
117.612
20
-63.3129
11
117.603
21
-63.3146
0
LINE
8
BLACK
6
CONTINUOUS
10
117.603
20
-63.3146
11
117.593
21
-63.3171
0
LINE
8
BLACK
6
CONTINUOUS
10
117.593
20
-63.3171
11
117.51
21
-63.3244
0
LINE
8
BLACK
6
CONTINUOUS
10
117.51
20
-63.3244
11
117.507
21
-63.325
0
LINE
8
BLACK
6
CONTINUOUS
10
117.507
20
-63.325
11
99.5033
21
-63.325
0
LINE
8
BLACK
6
CONTINUOUS
10
99.5033
20
-63.325
11
99.4295
21
-63.3315
0
LINE
8
BLACK
6
CONTINUOUS
10
99.4295
20
-63.3315
11
99.2881
21
-63.3829
0
LINE
8
BLACK
6
CONTINUOUS
10
99.2881
20
-63.3829
11
99.1753
21
-63.4776
0
LINE
8
BLACK
6
CONTINUOUS
10
99.1753
20
-63.4776
11
99.1017
21
-63.605
0
LINE
8
BLACK
6
CONTINUOUS
10
99.1017
20
-63.605
11
99.075
21
-63.7566
0
LINE
8
BLACK
6
CONTINUOUS
10
99.075
20
-63.7566
11
99.075
21
-67.5066
0
LINE
8
BLACK
6
CONTINUOUS
10
99.075
20
-67.5066
11
99.0739
21
-67.513
0
LINE
8
BLACK
6
CONTINUOUS
10
99.0739
20
-67.513
11
99.0739
21
-67.513
0
LINE
8
BLACK
6
CONTINUOUS
10
99.0739
20
-67.513
11
99.0437
21
-67.684
0
LINE
8
BLACK
6
CONTINUOUS
10
99.0437
20
-67.684
11
99.0348
21
-67.7085
0
LINE
8
BLACK
6
CONTINUOUS
10
99.0348
20
-67.7085
11
99.0348
21
-67.7085
0
LINE
8
BLACK
6
CONTINUOUS
10
99.0348
20
-67.7085
11
98.948
21
-67.8589
0
LINE
8
BLACK
6
CONTINUOUS
10
98.948
20
-67.8589
11
98.9312
21
-67.8788
0
LINE
8
BLACK
6
CONTINUOUS
10
98.9312
20
-67.8788
11
98.9312
21
-67.8788
0
LINE
8
BLACK
6
CONTINUOUS
10
98.9312
20
-67.8788
11
98.7982
21
-67.9905
0
LINE
8
BLACK
6
CONTINUOUS
10
98.7982
20
-67.9905
11
98.7757
21
-68.0035
0
LINE
8
BLACK
6
CONTINUOUS
10
98.7757
20
-68.0035
11
98.6125
21
-68.0629
0
LINE
8
BLACK
6
CONTINUOUS
10
98.6125
20
-68.0629
11
98.6028
21
-68.0646
0
LINE
8
BLACK
6
CONTINUOUS
10
98.6028
20
-68.0646
11
98.5934
21
-68.0671
0
LINE
8
BLACK
6
CONTINUOUS
10
98.5934
20
-68.0671
11
98.5098
21
-68.0744
0
LINE
8
BLACK
6
CONTINUOUS
10
98.5098
20
-68.0744
11
98.5066
21
-68.075
0
LINE
8
BLACK
6
CONTINUOUS
10
98.5066
20
-68.075
11
80.5033
21
-68.075
0
LINE
8
BLACK
6
CONTINUOUS
10
80.5033
20
-68.075
11
80.4295
21
-68.0815
0
LINE
8
BLACK
6
CONTINUOUS
10
80.4295
20
-68.0815
11
80.2881
21
-68.1329
0
LINE
8
BLACK
6
CONTINUOUS
10
80.2881
20
-68.1329
11
80.1753
21
-68.2276
0
LINE
8
BLACK
6
CONTINUOUS
10
80.1753
20
-68.2276
11
80.1017
21
-68.355
0
LINE
8
BLACK
6
CONTINUOUS
10
80.1017
20
-68.355
11
80.075
21
-68.5066
0
LINE
8
BLACK
6
CONTINUOUS
10
80.075
20
-68.5066
11
80.075
21
-75.5066
0
LINE
8
BLACK
6
CONTINUOUS
10
80.075
20
-75.5066
11
80.0739
21
-75.513
0
LINE
8
BLACK
6
CONTINUOUS
10
80.0739
20
-75.513
11
80.0739
21
-75.513
0
LINE
8
BLACK
6
CONTINUOUS
10
80.0739
20
-75.513
11
80.0437
21
-75.684
0
LINE
8
BLACK
6
CONTINUOUS
10
80.0437
20
-75.684
11
80.0348
21
-75.7085
0
LINE
8
BLACK
6
CONTINUOUS
10
80.0348
20
-75.7085
11
80.0348
21
-75.7085
0
LINE
8
BLACK
6
CONTINUOUS
10
80.0348
20
-75.7085
11
79.948
21
-75.8589
0
LINE
8
BLACK
6
CONTINUOUS
10
79.948
20
-75.8589
11
79.9312
21
-75.8788
0
LINE
8
BLACK
6
CONTINUOUS
10
79.9312
20
-75.8788
11
79.9312
21
-75.8788
0
LINE
8
BLACK
6
CONTINUOUS
10
79.9312
20
-75.8788
11
79.7982
21
-75.9905
0
LINE
8
BLACK
6
CONTINUOUS
10
79.7982
20
-75.9905
11
79.7757
21
-76.0035
0
LINE
8
BLACK
6
CONTINUOUS
10
79.7757
20
-76.0035
11
79.6125
21
-76.0629
0
LINE
8
BLACK
6
CONTINUOUS
10
79.6125
20
-76.0629
11
79.6028
21
-76.0646
0
LINE
8
BLACK
6
CONTINUOUS
10
79.6028
20
-76.0646
11
79.5934
21
-76.0671
0
LINE
8
BLACK
6
CONTINUOUS
10
79.5934
20
-76.0671
11
79.5065
21
-76.0747
0
LINE
8
BLACK
6
CONTINUOUS
10
79.5065
20
-76.0747
11
79.4968
21
-76.0739
0
LINE
8
BLACK
6
CONTINUOUS
10
79.4968
20
-76.0739
11
79.487
21
-76.0739
0
LINE
8
BLACK
6
CONTINUOUS
10
79.487
20
-76.0739
11
79.316
21
-76.0437
0
LINE
8
BLACK
6
CONTINUOUS
10
79.316
20
-76.0437
11
79.2915
21
-76.0348
0
LINE
8
BLACK
6
CONTINUOUS
10
79.2915
20
-76.0348
11
79.2915
21
-76.0348
0
LINE
8
BLACK
6
CONTINUOUS
10
79.2915
20
-76.0348
11
79.1411
21
-75.948
0
LINE
8
BLACK
6
CONTINUOUS
10
79.1411
20
-75.948
11
79.1212
21
-75.9312
0
LINE
8
BLACK
6
CONTINUOUS
10
79.1212
20
-75.9312
11
79.1212
21
-75.9312
0
LINE
8
BLACK
6
CONTINUOUS
10
79.1212
20
-75.9312
11
79.0095
21
-75.7982
0
LINE
8
BLACK
6
CONTINUOUS
10
79.0095
20
-75.7982
11
78.9965
21
-75.7757
0
LINE
8
BLACK
6
CONTINUOUS
10
78.9965
20
-75.7757
11
78.9371
21
-75.6125
0
LINE
8
BLACK
6
CONTINUOUS
10
78.9371
20
-75.6125
11
78.9354
21
-75.6028
0
LINE
8
BLACK
6
CONTINUOUS
10
78.9354
20
-75.6028
11
78.9329
21
-75.5934
0
LINE
8
BLACK
6
CONTINUOUS
10
78.9329
20
-75.5934
11
78.9256
21
-75.5098
0
LINE
8
BLACK
6
CONTINUOUS
10
78.9256
20
-75.5098
11
78.925
21
-75.5066
0
LINE
8
BLACK
6
CONTINUOUS
10
78.925
20
-75.5066
11
78.925
21
-68.5033
0
LINE
8
BLACK
6
CONTINUOUS
10
78.925
20
-68.5033
11
78.9185
21
-68.4295
0
LINE
8
BLACK
6
CONTINUOUS
10
78.9185
20
-68.4295
11
78.8671
21
-68.2881
0
LINE
8
BLACK
6
CONTINUOUS
10
78.8671
20
-68.2881
11
78.7724
21
-68.1753
0
LINE
8
BLACK
6
CONTINUOUS
10
78.7724
20
-68.1753
11
78.645
21
-68.1017
0
LINE
8
BLACK
6
CONTINUOUS
10
78.645
20
-68.1017
11
78.4934
21
-68.075
0
LINE
8
BLACK
6
CONTINUOUS
10
78.4934
20
-68.075
11
61.5033
21
-68.075
0
LINE
8
BLACK
6
CONTINUOUS
10
61.5033
20
-68.075
11
61.4295
21
-68.0815
0
LINE
8
BLACK
6
CONTINUOUS
10
61.4295
20
-68.0815
11
61.2881
21
-68.1329
0
LINE
8
BLACK
6
CONTINUOUS
10
61.2881
20
-68.1329
11
61.1753
21
-68.2276
0
LINE
8
BLACK
6
CONTINUOUS
10
61.1753
20
-68.2276
11
61.1017
21
-68.355
0
LINE
8
BLACK
6
CONTINUOUS
10
61.1017
20
-68.355
11
61.075
21
-68.5066
0
LINE
8
BLACK
6
CONTINUOUS
10
61.075
20
-68.5066
11
61.075
21
-123.747
0
LINE
8
BLACK
6
CONTINUOUS
10
61.075
20
-123.747
11
61.0815
21
-123.82
0
LINE
8
BLACK
6
CONTINUOUS
10
61.0815
20
-123.82
11
61.1329
21
-123.962
0
LINE
8
BLACK
6
CONTINUOUS
10
61.1329
20
-123.962
11
61.2276
21
-124.075
0
LINE
8
BLACK
6
CONTINUOUS
10
61.2276
20
-124.075
11
61.355
21
-124.148
0
LINE
8
BLACK
6
CONTINUOUS
10
61.355
20
-124.148
11
61.5066
21
-124.175
0
LINE
8
BLACK
6
CONTINUOUS
10
61.5066
20
-124.175
11
78.4967
21
-124.175
0
LINE
8
BLACK
6
CONTINUOUS
10
78.4967
20
-124.175
11
78.5705
21
-124.169
0
LINE
8
BLACK
6
CONTINUOUS
10
78.5705
20
-124.169
11
78.7119
21
-124.117
0
LINE
8
BLACK
6
CONTINUOUS
10
78.7119
20
-124.117
11
78.8247
21
-124.022
0
LINE
8
BLACK
6
CONTINUOUS
10
78.8247
20
-124.022
11
78.8983
21
-123.895
0
LINE
8
BLACK
6
CONTINUOUS
10
78.8983
20
-123.895
11
78.925
21
-123.743
0
LINE
8
BLACK
6
CONTINUOUS
10
78.925
20
-123.743
11
78.925
21
-116.493
0
LINE
8
BLACK
6
CONTINUOUS
10
78.925
20
-116.493
11
78.9261
21
-116.487
0
LINE
8
BLACK
6
CONTINUOUS
10
78.9261
20
-116.487
11
78.9261
21
-116.487
0
LINE
8
BLACK
6
CONTINUOUS
10
78.9261
20
-116.487
11
78.9563
21
-116.316
0
LINE
8
BLACK
6
CONTINUOUS
10
78.9563
20
-116.316
11
78.9652
21
-116.291
0
LINE
8
BLACK
6
CONTINUOUS
10
78.9652
20
-116.291
11
79.052
21
-116.141
0
LINE
8
BLACK
6
CONTINUOUS
10
79.052
20
-116.141
11
79.0688
21
-116.121
0
LINE
8
BLACK
6
CONTINUOUS
10
79.0688
20
-116.121
11
79.2018
21
-116.01
0
LINE
8
BLACK
6
CONTINUOUS
10
79.2018
20
-116.01
11
79.2243
21
-115.997
0
LINE
8
BLACK
6
CONTINUOUS
10
79.2243
20
-115.997
11
79.3875
21
-115.937
0
LINE
8
BLACK
6
CONTINUOUS
10
79.3875
20
-115.937
11
79.3972
21
-115.935
0
LINE
8
BLACK
6
CONTINUOUS
10
79.3972
20
-115.935
11
79.4066
21
-115.933
0
LINE
8
BLACK
6
CONTINUOUS
10
79.4066
20
-115.933
11
79.4935
21
-115.925
0
LINE
8
BLACK
6
CONTINUOUS
10
79.4935
20
-115.925
11
79.5032
21
-115.926
0
LINE
8
BLACK
6
CONTINUOUS
10
79.5032
20
-115.926
11
79.513
21
-115.926
0
LINE
8
BLACK
6
CONTINUOUS
10
79.513
20
-115.926
11
79.684
21
-115.956
0
LINE
8
BLACK
6
CONTINUOUS
10
79.684
20
-115.956
11
79.7085
21
-115.965
0
LINE
8
BLACK
6
CONTINUOUS
10
79.7085
20
-115.965
11
79.8589
21
-116.052
0
LINE
8
BLACK
6
CONTINUOUS
10
79.8589
20
-116.052
11
79.8788
21
-116.069
0
LINE
8
BLACK
6
CONTINUOUS
10
79.8788
20
-116.069
11
79.9905
21
-116.202
0
LINE
8
BLACK
6
CONTINUOUS
10
79.9905
20
-116.202
11
80.0035
21
-116.224
0
LINE
8
BLACK
6
CONTINUOUS
10
80.0035
20
-116.224
11
80.0629
21
-116.388
0
LINE
8
BLACK
6
CONTINUOUS
10
80.0629
20
-116.388
11
80.0646
21
-116.397
0
LINE
8
BLACK
6
CONTINUOUS
10
80.0646
20
-116.397
11
80.0671
21
-116.407
0
LINE
8
BLACK
6
CONTINUOUS
10
80.0671
20
-116.407
11
80.0744
21
-116.49
0
LINE
8
BLACK
6
CONTINUOUS
10
80.0744
20
-116.49
11
80.075
21
-116.493
0
LINE
8
BLACK
6
CONTINUOUS
10
80.075
20
-116.493
11
80.075
21
-123.747
0
LINE
8
BLACK
6
CONTINUOUS
10
80.075
20
-123.747
11
80.0815
21
-123.82
0
LINE
8
BLACK
6
CONTINUOUS
10
80.0815
20
-123.82
11
80.1329
21
-123.962
0
LINE
8
BLACK
6
CONTINUOUS
10
80.1329
20
-123.962
11
80.2276
21
-124.075
0
LINE
8
BLACK
6
CONTINUOUS
10
80.2276
20
-124.075
11
80.355
21
-124.148
0
LINE
8
BLACK
6
CONTINUOUS
10
80.355
20
-124.148
11
80.5066
21
-124.175
0
LINE
8
BLACK
6
CONTINUOUS
10
80.5066
20
-124.175
11
116.507
21
-124.175
0
LINE
8
BLACK
6
CONTINUOUS
10
116.507
20
-124.175
11
116.513
21
-124.176
0
LINE
8
BLACK
6
CONTINUOUS
10
116.513
20
-124.176
11
116.513
21
-124.176
0
LINE
8
BLACK
6
CONTINUOUS
10
116.513
20
-124.176
11
116.684
21
-124.206
0
LINE
8
BLACK
6
CONTINUOUS
10
116.684
20
-124.206
11
116.709
21
-124.215
0
LINE
8
BLACK
6
CONTINUOUS
10
116.709
20
-124.215
11
116.859
21
-124.302
0
LINE
8
BLACK
6
CONTINUOUS
10
116.859
20
-124.302
11
116.865
21
-124.307
0
LINE
8
BLACK
6
CONTINUOUS
10
116.865
20
-124.307
11
116.872
21
-124.312
0
LINE
8
BLACK
6
CONTINUOUS
10
116.872
20
-124.312
11
116.904
21
-124.341
0
LINE
8
BLACK
6
CONTINUOUS
10
116.904
20
-124.341
11
116.92
21
-124.362
0
LINE
8
BLACK
6
CONTINUOUS
10
116.92
20
-124.362
11
116.924
21
-124.374
0
LINE
8
BLACK
6
CONTINUOUS
10
116.924
20
-124.374
11
127.464
21
-138.811
0
LINE
8
BLACK
6
CONTINUOUS
10
127.464
20
-138.811
11
127.467
21
-138.817
0
LINE
8
BLACK
6
CONTINUOUS
10
127.467
20
-138.817
11
127.473
21
-138.822
0
LINE
8
BLACK
6
CONTINUOUS
10
127.473
20
-138.822
11
127.605
21
-138.898
0
LINE
8
BLACK
6
CONTINUOUS
10
127.605
20
-138.898
11
127.762
21
-138.926
0
LINE
8
BLACK
6
CONTINUOUS
10
127.762
20
-138.926
11
164.756
21
-144.425
0
LINE
8
BLACK
6
CONTINUOUS
10
164.756
20
-144.425
11
164.763
21
-144.425
0
LINE
8
BLACK
6
CONTINUOUS
10
164.763
20
-144.425
11
164.775
21
-144.429
0
LINE
8
BLACK
6
CONTINUOUS
10
164.775
20
-144.429
11
164.786
21
-144.433
0
LINE
8
BLACK
6
CONTINUOUS
10
164.786
20
-144.433
11
164.792
21
-144.438
0
LINE
8
BLACK
6
CONTINUOUS
10
164.792
20
-144.438
11
179.607
21
-152.965
0
LINE
8
BLACK
6
CONTINUOUS
10
179.607
20
-152.965
11
179.733
21
-153.036
0
LINE
8
BLACK
6
CONTINUOUS
10
179.733
20
-153.036
11
180.008
21
-153.106
0
LINE
8
BLACK
6
CONTINUOUS
10
180.008
20
-153.106
11
180.287
21
-153.079
0
LINE
8
BLACK
6
CONTINUOUS
10
180.287
20
-153.079
11
180.541
21
-152.958
0
LINE
8
BLACK
6
CONTINUOUS
10
180.541
20
-152.958
11
180.74
21
-152.754
0
LINE
8
BLACK
6
CONTINUOUS
10
180.74
20
-152.754
11
194.675
21
-128.48
0
LINE
8
BLACK
6
CONTINUOUS
10
194.675
20
-128.48
11
194.675
21
-68.5033
0
LINE
8
BLACK
6
CONTINUOUS
10
194.675
20
-68.5033
11
194.669
21
-68.4295
0
LINE
8
BLACK
6
CONTINUOUS
10
194.669
20
-68.4295
11
194.617
21
-68.2881
0
LINE
8
BLACK
6
CONTINUOUS
10
194.617
20
-68.2881
11
194.522
21
-68.1753
0
LINE
8
BLACK
6
CONTINUOUS
10
194.522
20
-68.1753
11
194.395
21
-68.1017
0
LINE
8
BLACK
6
CONTINUOUS
10
194.395
20
-68.1017
11
194.243
21
-68.075
0
LINE
8
BLACK
6
CONTINUOUS
10
194.243
20
-68.075
11
174.493
21
-68.075
0
LINE
8
BLACK
6
CONTINUOUS
10
174.493
20
-68.075
11
174.487
21
-68.0739
0
LINE
8
BLACK
6
CONTINUOUS
10
174.487
20
-68.0739
11
174.487
21
-68.0739
0
LINE
8
BLACK
6
CONTINUOUS
10
174.487
20
-68.0739
11
174.316
21
-68.0437
0
LINE
8
BLACK
6
CONTINUOUS
10
174.316
20
-68.0437
11
174.291
21
-68.0348
0
LINE
8
BLACK
6
CONTINUOUS
10
174.291
20
-68.0348
11
174.291
21
-68.0348
0
LINE
8
BLACK
6
CONTINUOUS
10
174.291
20
-68.0348
11
174.141
21
-67.948
0
LINE
8
BLACK
6
CONTINUOUS
10
174.141
20
-67.948
11
174.121
21
-67.9312
0
LINE
8
BLACK
6
CONTINUOUS
10
174.121
20
-67.9312
11
174.121
21
-67.9312
0
LINE
8
BLACK
6
CONTINUOUS
10
174.121
20
-67.9312
11
174.01
21
-67.7982
0
LINE
8
BLACK
6
CONTINUOUS
10
174.01
20
-67.7982
11
173.997
21
-67.7757
0
LINE
8
BLACK
6
CONTINUOUS
10
173.997
20
-67.7757
11
173.937
21
-67.6125
0
LINE
8
BLACK
6
CONTINUOUS
10
173.937
20
-67.6125
11
173.935
21
-67.6028
0
LINE
8
BLACK
6
CONTINUOUS
10
173.935
20
-67.6028
11
173.933
21
-67.5934
0
LINE
8
BLACK
6
CONTINUOUS
10
173.933
20
-67.5934
11
173.926
21
-67.5098
0
LINE
8
BLACK
6
CONTINUOUS
10
173.926
20
-67.5098
11
173.925
21
-67.5066
0
LINE
8
BLACK
6
CONTINUOUS
10
173.925
20
-67.5066
11
173.925
21
-66.2533
0
LINE
8
BLACK
6
CONTINUOUS
10
173.925
20
-66.2533
11
173.919
21
-66.1795
0
LINE
8
BLACK
6
CONTINUOUS
10
173.919
20
-66.1795
11
173.867
21
-66.0381
0
LINE
8
BLACK
6
CONTINUOUS
10
173.867
20
-66.0381
11
173.772
21
-65.9253
0
LINE
8
BLACK
6
CONTINUOUS
10
173.772
20
-65.9253
11
173.645
21
-65.8517
0
LINE
8
BLACK
6
CONTINUOUS
10
173.645
20
-65.8517
11
173.493
21
-65.825
0
LINE
8
BLACK
6
CONTINUOUS
10
173.493
20
-65.825
11
155.493
21
-65.825
0
LINE
8
BLACK
6
CONTINUOUS
10
155.493
20
-65.825
11
155.487
21
-65.8239
0
LINE
8
BLACK
6
CONTINUOUS
10
155.487
20
-65.8239
11
155.487
21
-65.8239
0
LINE
8
BLACK
6
CONTINUOUS
10
155.487
20
-65.8239
11
155.316
21
-65.7937
0
LINE
8
BLACK
6
CONTINUOUS
10
155.316
20
-65.7937
11
155.291
21
-65.7848
0
LINE
8
BLACK
6
CONTINUOUS
10
155.291
20
-65.7848
11
155.291
21
-65.7848
0
LINE
8
BLACK
6
CONTINUOUS
10
155.291
20
-65.7848
11
155.141
21
-65.698
0
LINE
8
BLACK
6
CONTINUOUS
10
155.141
20
-65.698
11
155.121
21
-65.6812
0
LINE
8
BLACK
6
CONTINUOUS
10
155.121
20
-65.6812
11
155.121
21
-65.6812
0
LINE
8
BLACK
6
CONTINUOUS
10
155.121
20
-65.6812
11
155.01
21
-65.5482
0
LINE
8
BLACK
6
CONTINUOUS
10
155.01
20
-65.5482
11
154.997
21
-65.5257
0
LINE
8
BLACK
6
CONTINUOUS
10
154.997
20
-65.5257
11
154.937
21
-65.3625
0
LINE
8
BLACK
6
CONTINUOUS
10
154.937
20
-65.3625
11
154.935
21
-65.3528
0
LINE
8
BLACK
6
CONTINUOUS
10
154.935
20
-65.3528
11
154.933
21
-65.3434
0
LINE
8
BLACK
6
CONTINUOUS
10
154.933
20
-65.3434
11
154.926
21
-65.2598
0
LINE
8
BLACK
6
CONTINUOUS
10
154.926
20
-65.2598
11
154.925
21
-65.2566
0
LINE
8
BLACK
6
CONTINUOUS
10
154.925
20
-65.2566
11
154.925
21
-63.7533
0
LINE
8
BLACK
6
CONTINUOUS
10
154.925
20
-63.7533
11
154.919
21
-63.6795
0
LINE
8
BLACK
6
CONTINUOUS
10
154.919
20
-63.6795
11
154.867
21
-63.5381
0
LINE
8
BLACK
6
CONTINUOUS
10
154.867
20
-63.5381
11
154.772
21
-63.4253
0
LINE
8
BLACK
6
CONTINUOUS
10
154.772
20
-63.4253
11
154.645
21
-63.3517
0
LINE
8
BLACK
6
CONTINUOUS
10
154.645
20
-63.3517
11
154.493
21
-63.325
0
LINE
8
BLACK
6
CONTINUOUS
10
154.493
20
-63.325
11
136.493
21
-63.325
0
LINE
8
BLACK
6
CONTINUOUS
10
136.493
20
-63.325
11
136.487
21
-63.3239
0
LINE
8
BLACK
6
CONTINUOUS
10
136.487
20
-63.3239
11
136.487
21
-63.3239
0
LINE
8
BLACK
6
CONTINUOUS
10
136.487
20
-63.3239
11
136.316
21
-63.2937
0
LINE
8
BLACK
6
CONTINUOUS
10
136.316
20
-63.2937
11
136.291
21
-63.2848
0
LINE
8
BLACK
6
CONTINUOUS
10
136.291
20
-63.2848
11
136.291
21
-63.2848
0
LINE
8
BLACK
6
CONTINUOUS
10
136.291
20
-63.2848
11
136.141
21
-63.198
0
LINE
8
BLACK
6
CONTINUOUS
10
136.141
20
-63.198
11
136.121
21
-63.1812
0
LINE
8
BLACK
6
CONTINUOUS
10
136.121
20
-63.1812
11
136.121
21
-63.1812
0
LINE
8
BLACK
6
CONTINUOUS
10
136.121
20
-63.1812
11
136.01
21
-63.0482
0
LINE
8
BLACK
6
CONTINUOUS
10
136.01
20
-63.0482
11
135.997
21
-63.0257
0
LINE
8
BLACK
6
CONTINUOUS
10
135.997
20
-63.0257
11
135.937
21
-62.8625
0
LINE
8
BLACK
6
CONTINUOUS
10
135.937
20
-62.8625
11
135.935
21
-62.8528
0
LINE
8
BLACK
6
CONTINUOUS
10
135.935
20
-62.8528
11
135.933
21
-62.8434
0
LINE
8
BLACK
6
CONTINUOUS
10
135.933
20
-62.8434
11
135.926
21
-62.7598
0
LINE
8
BLACK
6
CONTINUOUS
10
135.926
20
-62.7598
11
135.925
21
-62.7566
0
LINE
8
BLACK
6
CONTINUOUS
10
135.925
20
-62.7566
11
135.925
21
-61.5033
0
LINE
8
BLACK
6
CONTINUOUS
10
135.925
20
-61.5033
11
135.919
21
-61.4295
0
LINE
8
BLACK
6
CONTINUOUS
10
135.919
20
-61.4295
11
135.867
21
-61.2881
0
LINE
8
BLACK
6
CONTINUOUS
10
135.867
20
-61.2881
11
135.772
21
-61.1753
0
LINE
8
BLACK
6
CONTINUOUS
10
135.772
20
-61.1753
11
135.645
21
-61.1017
0
LINE
8
BLACK
6
CONTINUOUS
10
135.645
20
-61.1017
11
135.493
21
-61.075
0
LINE
8
BLACK
6
CONTINUOUS
10
135.493
20
-61.075
11
118.503
21
-61.075
0
LINE
8
BLACK
6
CONTINUOUS
10
173.907
20
-131.025
11
173.914
21
-131.025
0
LINE
8
BLACK
6
CONTINUOUS
10
173.914
20
-131.025
11
173.92
21
-131.027
0
LINE
8
BLACK
6
CONTINUOUS
10
173.92
20
-131.027
11
173.926
21
-131.029
0
LINE
8
BLACK
6
CONTINUOUS
10
173.926
20
-131.029
11
173.932
21
-131.032
0
LINE
8
BLACK
6
CONTINUOUS
10
173.932
20
-131.032
11
173.932
21
-131.032
0
LINE
8
BLACK
6
CONTINUOUS
10
173.932
20
-131.032
11
173.938
21
-131.035
0
LINE
8
BLACK
6
CONTINUOUS
10
173.938
20
-131.035
11
173.949
21
-131.042
0
LINE
8
BLACK
6
CONTINUOUS
10
173.949
20
-131.042
11
173.949
21
-131.042
0
LINE
8
BLACK
6
CONTINUOUS
10
173.949
20
-131.042
11
177.838
21
-133.335
0
LINE
8
BLACK
6
CONTINUOUS
10
177.838
20
-133.335
11
177.848
21
-133.341
0
LINE
8
BLACK
6
CONTINUOUS
10
177.848
20
-133.341
11
177.853
21
-133.347
0
LINE
8
BLACK
6
CONTINUOUS
10
177.853
20
-133.347
11
177.859
21
-133.352
0
LINE
8
BLACK
6
CONTINUOUS
10
177.859
20
-133.352
11
177.862
21
-133.357
0
LINE
8
BLACK
6
CONTINUOUS
10
177.862
20
-133.357
11
177.866
21
-133.361
0
LINE
8
BLACK
6
CONTINUOUS
10
177.866
20
-133.361
11
177.868
21
-133.368
0
LINE
8
BLACK
6
CONTINUOUS
10
177.868
20
-133.368
11
177.872
21
-133.375
0
LINE
8
BLACK
6
CONTINUOUS
10
177.872
20
-133.375
11
177.873
21
-133.381
0
LINE
8
BLACK
6
CONTINUOUS
10
177.873
20
-133.381
11
177.875
21
-133.386
0
LINE
8
BLACK
6
CONTINUOUS
10
177.875
20
-133.386
11
177.875
21
-133.393
0
LINE
8
BLACK
6
CONTINUOUS
10
177.875
20
-133.393
11
177.876
21
-133.401
0
LINE
8
BLACK
6
CONTINUOUS
10
177.876
20
-133.401
11
177.875
21
-133.407
0
LINE
8
BLACK
6
CONTINUOUS
10
177.875
20
-133.407
11
177.875
21
-133.413
0
LINE
8
BLACK
6
CONTINUOUS
10
177.875
20
-133.413
11
177.873
21
-133.42
0
LINE
8
BLACK
6
CONTINUOUS
10
177.873
20
-133.42
11
177.871
21
-133.427
0
LINE
8
BLACK
6
CONTINUOUS
10
177.871
20
-133.427
11
177.865
21
-133.437
0
LINE
8
BLACK
6
CONTINUOUS
10
177.865
20
-133.437
11
176.165
21
-136.437
0
LINE
8
BLACK
6
CONTINUOUS
10
176.165
20
-136.437
11
176.159
21
-136.448
0
LINE
8
BLACK
6
CONTINUOUS
10
176.159
20
-136.448
11
176.154
21
-136.452
0
LINE
8
BLACK
6
CONTINUOUS
10
176.154
20
-136.452
11
176.149
21
-136.458
0
LINE
8
BLACK
6
CONTINUOUS
10
176.149
20
-136.458
11
176.144
21
-136.461
0
LINE
8
BLACK
6
CONTINUOUS
10
176.144
20
-136.461
11
176.139
21
-136.465
0
LINE
8
BLACK
6
CONTINUOUS
10
176.139
20
-136.465
11
176.133
21
-136.468
0
LINE
8
BLACK
6
CONTINUOUS
10
176.133
20
-136.468
11
176.127
21
-136.471
0
LINE
8
BLACK
6
CONTINUOUS
10
176.127
20
-136.471
11
176.121
21
-136.472
0
LINE
8
BLACK
6
CONTINUOUS
10
176.121
20
-136.472
11
176.115
21
-136.475
0
LINE
8
BLACK
6
CONTINUOUS
10
176.115
20
-136.475
11
176.108
21
-136.475
0
LINE
8
BLACK
6
CONTINUOUS
10
176.108
20
-136.475
11
176.101
21
-136.476
0
LINE
8
BLACK
6
CONTINUOUS
10
176.101
20
-136.476
11
176.095
21
-136.475
0
LINE
8
BLACK
6
CONTINUOUS
10
176.095
20
-136.475
11
176.088
21
-136.475
0
LINE
8
BLACK
6
CONTINUOUS
10
176.088
20
-136.475
11
176.082
21
-136.473
0
LINE
8
BLACK
6
CONTINUOUS
10
176.082
20
-136.473
11
176.075
21
-136.472
0
LINE
8
BLACK
6
CONTINUOUS
10
176.075
20
-136.472
11
176.064
21
-136.466
0
LINE
8
BLACK
6
CONTINUOUS
10
176.064
20
-136.466
11
172.075
21
-134.272
0
LINE
8
BLACK
6
CONTINUOUS
10
172.075
20
-134.272
11
172.074
21
-134.271
0
LINE
8
BLACK
6
CONTINUOUS
10
172.074
20
-134.271
11
172.063
21
-134.265
0
LINE
8
BLACK
6
CONTINUOUS
10
172.063
20
-134.265
11
172.058
21
-134.263
0
LINE
8
BLACK
6
CONTINUOUS
10
172.058
20
-134.263
11
172.057
21
-134.262
0
LINE
8
BLACK
6
CONTINUOUS
10
172.057
20
-134.262
11
172.051
21
-134.258
0
LINE
8
BLACK
6
CONTINUOUS
10
172.051
20
-134.258
11
172.047
21
-134.254
0
LINE
8
BLACK
6
CONTINUOUS
10
172.047
20
-134.254
11
172.043
21
-134.25
0
LINE
8
BLACK
6
CONTINUOUS
10
172.043
20
-134.25
11
172.039
21
-134.244
0
LINE
8
BLACK
6
CONTINUOUS
10
172.039
20
-134.244
11
172.034
21
-134.238
0
LINE
8
BLACK
6
CONTINUOUS
10
172.034
20
-134.238
11
172.032
21
-134.232
0
LINE
8
BLACK
6
CONTINUOUS
10
172.032
20
-134.232
11
172.029
21
-134.228
0
LINE
8
BLACK
6
CONTINUOUS
10
172.029
20
-134.228
11
172.028
21
-134.22
0
LINE
8
BLACK
6
CONTINUOUS
10
172.028
20
-134.22
11
172.025
21
-134.213
0
LINE
8
BLACK
6
CONTINUOUS
10
172.025
20
-134.213
11
172.025
21
-134.207
0
LINE
8
BLACK
6
CONTINUOUS
10
172.025
20
-134.207
11
172.024
21
-134.202
0
LINE
8
BLACK
6
CONTINUOUS
10
172.024
20
-134.202
11
172.025
21
-134.194
0
LINE
8
BLACK
6
CONTINUOUS
10
172.025
20
-134.194
11
172.025
21
-134.187
0
LINE
8
BLACK
6
CONTINUOUS
10
172.025
20
-134.187
11
172.027
21
-134.181
0
LINE
8
BLACK
6
CONTINUOUS
10
172.027
20
-134.181
11
172.028
21
-134.175
0
LINE
8
BLACK
6
CONTINUOUS
10
172.028
20
-134.175
11
172.032
21
-134.169
0
LINE
8
BLACK
6
CONTINUOUS
10
172.032
20
-134.169
11
172.032
21
-134.168
0
LINE
8
BLACK
6
CONTINUOUS
10
172.032
20
-134.168
11
172.035
21
-134.163
0
LINE
8
BLACK
6
CONTINUOUS
10
172.035
20
-134.163
11
172.041
21
-134.152
0
LINE
8
BLACK
6
CONTINUOUS
10
172.041
20
-134.152
11
172.041
21
-134.152
0
LINE
8
BLACK
6
CONTINUOUS
10
172.041
20
-134.152
11
173.829
21
-131.074
0
LINE
8
BLACK
6
CONTINUOUS
10
173.829
20
-131.074
11
173.829
21
-131.073
0
LINE
8
BLACK
6
CONTINUOUS
10
173.829
20
-131.073
11
173.835
21
-131.062
0
LINE
8
BLACK
6
CONTINUOUS
10
173.835
20
-131.062
11
173.838
21
-131.057
0
LINE
8
BLACK
6
CONTINUOUS
10
173.838
20
-131.057
11
173.839
21
-131.056
0
LINE
8
BLACK
6
CONTINUOUS
10
173.839
20
-131.056
11
173.842
21
-131.051
0
LINE
8
BLACK
6
CONTINUOUS
10
173.842
20
-131.051
11
173.847
21
-131.046
0
LINE
8
BLACK
6
CONTINUOUS
10
173.847
20
-131.046
11
173.851
21
-131.042
0
LINE
8
BLACK
6
CONTINUOUS
10
173.851
20
-131.042
11
173.857
21
-131.038
0
LINE
8
BLACK
6
CONTINUOUS
10
173.857
20
-131.038
11
173.863
21
-131.034
0
LINE
8
BLACK
6
CONTINUOUS
10
173.863
20
-131.034
11
173.869
21
-131.032
0
LINE
8
BLACK
6
CONTINUOUS
10
173.869
20
-131.032
11
173.874
21
-131.028
0
LINE
8
BLACK
6
CONTINUOUS
10
173.874
20
-131.028
11
173.881
21
-131.027
0
LINE
8
BLACK
6
CONTINUOUS
10
173.881
20
-131.027
11
173.887
21
-131.025
0
LINE
8
BLACK
6
CONTINUOUS
10
173.887
20
-131.025
11
173.894
21
-131.025
0
LINE
8
BLACK
6
CONTINUOUS
10
173.894
20
-131.025
11
173.9
21
-131.024
0
LINE
8
BLACK
6
CONTINUOUS
10
173.9
20
-131.024
11
173.907
21
-131.025
0
LINE
8
BLACK
6
CONTINUOUS
10
172.203
20
-134.171
11
176.071
21
-136.299
0
LINE
8
BLACK
6
CONTINUOUS
10
176.071
20
-136.299
11
177.698
21
-133.427
0
LINE
8
BLACK
6
CONTINUOUS
10
177.698
20
-133.427
11
173.927
21
-131.203
0
LINE
8
BLACK
6
CONTINUOUS
10
173.927
20
-131.203
11
172.203
21
-134.171
0
LINE
8
BLACK
6
CONTINUOUS
10
157.9
20
-124.825
11
157.907
21
-124.824
0
LINE
8
BLACK
6
CONTINUOUS
10
157.907
20
-124.824
11
157.919
21
-124.828
0
LINE
8
BLACK
6
CONTINUOUS
10
157.919
20
-124.828
11
161.307
21
-125.724
0
LINE
8
BLACK
6
CONTINUOUS
10
161.307
20
-125.724
11
161.307
21
-125.724
0
LINE
8
BLACK
6
CONTINUOUS
10
161.307
20
-125.724
11
161.319
21
-125.728
0
LINE
8
BLACK
6
CONTINUOUS
10
161.319
20
-125.728
11
161.326
21
-125.729
0
LINE
8
BLACK
6
CONTINUOUS
10
161.326
20
-125.729
11
161.326
21
-125.729
0
LINE
8
BLACK
6
CONTINUOUS
10
161.326
20
-125.729
11
161.332
21
-125.731
0
LINE
8
BLACK
6
CONTINUOUS
10
161.332
20
-125.731
11
161.338
21
-125.735
0
LINE
8
BLACK
6
CONTINUOUS
10
161.338
20
-125.735
11
161.343
21
-125.737
0
LINE
8
BLACK
6
CONTINUOUS
10
161.343
20
-125.737
11
161.348
21
-125.742
0
LINE
8
BLACK
6
CONTINUOUS
10
161.348
20
-125.742
11
161.354
21
-125.746
0
LINE
8
BLACK
6
CONTINUOUS
10
161.354
20
-125.746
11
161.358
21
-125.752
0
LINE
8
BLACK
6
CONTINUOUS
10
161.358
20
-125.752
11
161.362
21
-125.756
0
LINE
8
BLACK
6
CONTINUOUS
10
161.362
20
-125.756
11
161.365
21
-125.762
0
LINE
8
BLACK
6
CONTINUOUS
10
161.365
20
-125.762
11
161.369
21
-125.768
0
LINE
8
BLACK
6
CONTINUOUS
10
161.369
20
-125.768
11
161.371
21
-125.774
0
LINE
8
BLACK
6
CONTINUOUS
10
161.371
20
-125.774
11
161.373
21
-125.78
0
LINE
8
BLACK
6
CONTINUOUS
10
161.373
20
-125.78
11
161.374
21
-125.787
0
LINE
8
BLACK
6
CONTINUOUS
10
161.374
20
-125.787
11
161.376
21
-125.794
0
LINE
8
BLACK
6
CONTINUOUS
10
161.376
20
-125.794
11
161.375
21
-125.8
0
LINE
8
BLACK
6
CONTINUOUS
10
161.375
20
-125.8
11
161.376
21
-125.806
0
LINE
8
BLACK
6
CONTINUOUS
10
161.376
20
-125.806
11
161.374
21
-125.813
0
LINE
8
BLACK
6
CONTINUOUS
10
161.374
20
-125.813
11
161.374
21
-125.813
0
LINE
8
BLACK
6
CONTINUOUS
10
161.374
20
-125.813
11
161.372
21
-125.82
0
LINE
8
BLACK
6
CONTINUOUS
10
161.372
20
-125.82
11
161.369
21
-125.832
0
LINE
8
BLACK
6
CONTINUOUS
10
161.369
20
-125.832
11
161.369
21
-125.832
0
LINE
8
BLACK
6
CONTINUOUS
10
161.369
20
-125.832
11
160.172
21
-130.22
0
LINE
8
BLACK
6
CONTINUOUS
10
160.172
20
-130.22
11
160.169
21
-130.232
0
LINE
8
BLACK
6
CONTINUOUS
10
160.169
20
-130.232
11
160.165
21
-130.238
0
LINE
8
BLACK
6
CONTINUOUS
10
160.165
20
-130.238
11
160.162
21
-130.244
0
LINE
8
BLACK
6
CONTINUOUS
10
160.162
20
-130.244
11
160.158
21
-130.248
0
LINE
8
BLACK
6
CONTINUOUS
10
160.158
20
-130.248
11
160.154
21
-130.254
0
LINE
8
BLACK
6
CONTINUOUS
10
160.154
20
-130.254
11
160.148
21
-130.258
0
LINE
8
BLACK
6
CONTINUOUS
10
160.148
20
-130.258
11
160.143
21
-130.263
0
LINE
8
BLACK
6
CONTINUOUS
10
160.143
20
-130.263
11
160.138
21
-130.265
0
LINE
8
BLACK
6
CONTINUOUS
10
160.138
20
-130.265
11
160.132
21
-130.269
0
LINE
8
BLACK
6
CONTINUOUS
10
160.132
20
-130.269
11
160.126
21
-130.271
0
LINE
8
BLACK
6
CONTINUOUS
10
160.126
20
-130.271
11
160.119
21
-130.274
0
LINE
8
BLACK
6
CONTINUOUS
10
160.119
20
-130.274
11
160.113
21
-130.274
0
LINE
8
BLACK
6
CONTINUOUS
10
160.113
20
-130.274
11
160.107
21
-130.276
0
LINE
8
BLACK
6
CONTINUOUS
10
160.107
20
-130.276
11
160.1
21
-130.275
0
LINE
8
BLACK
6
CONTINUOUS
10
160.1
20
-130.275
11
160.093
21
-130.276
0
LINE
8
BLACK
6
CONTINUOUS
10
160.093
20
-130.276
11
160.081
21
-130.272
0
LINE
8
BLACK
6
CONTINUOUS
10
160.081
20
-130.272
11
156.693
21
-129.376
0
LINE
8
BLACK
6
CONTINUOUS
10
156.693
20
-129.376
11
156.693
21
-129.376
0
LINE
8
BLACK
6
CONTINUOUS
10
156.693
20
-129.376
11
156.681
21
-129.372
0
LINE
8
BLACK
6
CONTINUOUS
10
156.681
20
-129.372
11
156.674
21
-129.371
0
LINE
8
BLACK
6
CONTINUOUS
10
156.674
20
-129.371
11
156.674
21
-129.371
0
LINE
8
BLACK
6
CONTINUOUS
10
156.674
20
-129.371
11
156.668
21
-129.369
0
LINE
8
BLACK
6
CONTINUOUS
10
156.668
20
-129.369
11
156.662
21
-129.365
0
LINE
8
BLACK
6
CONTINUOUS
10
156.662
20
-129.365
11
156.657
21
-129.363
0
LINE
8
BLACK
6
CONTINUOUS
10
156.657
20
-129.363
11
156.652
21
-129.358
0
LINE
8
BLACK
6
CONTINUOUS
10
156.652
20
-129.358
11
156.646
21
-129.354
0
LINE
8
BLACK
6
CONTINUOUS
10
156.646
20
-129.354
11
156.642
21
-129.348
0
LINE
8
BLACK
6
CONTINUOUS
10
156.642
20
-129.348
11
156.638
21
-129.344
0
LINE
8
BLACK
6
CONTINUOUS
10
156.638
20
-129.344
11
156.635
21
-129.338
0
LINE
8
BLACK
6
CONTINUOUS
10
156.635
20
-129.338
11
156.631
21
-129.332
0
LINE
8
BLACK
6
CONTINUOUS
10
156.631
20
-129.332
11
156.629
21
-129.326
0
LINE
8
BLACK
6
CONTINUOUS
10
156.629
20
-129.326
11
156.626
21
-129.32
0
LINE
8
BLACK
6
CONTINUOUS
10
156.626
20
-129.32
11
156.626
21
-129.313
0
LINE
8
BLACK
6
CONTINUOUS
10
156.626
20
-129.313
11
156.624
21
-129.306
0
LINE
8
BLACK
6
CONTINUOUS
10
156.624
20
-129.306
11
156.625
21
-129.3
0
LINE
8
BLACK
6
CONTINUOUS
10
156.625
20
-129.3
11
156.624
21
-129.294
0
LINE
8
BLACK
6
CONTINUOUS
10
156.624
20
-129.294
11
156.626
21
-129.287
0
LINE
8
BLACK
6
CONTINUOUS
10
156.626
20
-129.287
11
156.626
21
-129.287
0
LINE
8
BLACK
6
CONTINUOUS
10
156.626
20
-129.287
11
156.628
21
-129.28
0
LINE
8
BLACK
6
CONTINUOUS
10
156.628
20
-129.28
11
156.631
21
-129.268
0
LINE
8
BLACK
6
CONTINUOUS
10
156.631
20
-129.268
11
156.631
21
-129.268
0
LINE
8
BLACK
6
CONTINUOUS
10
156.631
20
-129.268
11
157.828
21
-124.88
0
LINE
8
BLACK
6
CONTINUOUS
10
157.828
20
-124.88
11
157.831
21
-124.868
0
LINE
8
BLACK
6
CONTINUOUS
10
157.831
20
-124.868
11
157.835
21
-124.862
0
LINE
8
BLACK
6
CONTINUOUS
10
157.835
20
-124.862
11
157.838
21
-124.856
0
LINE
8
BLACK
6
CONTINUOUS
10
157.838
20
-124.856
11
157.842
21
-124.852
0
LINE
8
BLACK
6
CONTINUOUS
10
157.842
20
-124.852
11
157.846
21
-124.846
0
LINE
8
BLACK
6
CONTINUOUS
10
157.846
20
-124.846
11
157.852
21
-124.842
0
LINE
8
BLACK
6
CONTINUOUS
10
157.852
20
-124.842
11
157.857
21
-124.837
0
LINE
8
BLACK
6
CONTINUOUS
10
157.857
20
-124.837
11
157.862
21
-124.835
0
LINE
8
BLACK
6
CONTINUOUS
10
157.862
20
-124.835
11
157.868
21
-124.831
0
LINE
8
BLACK
6
CONTINUOUS
10
157.868
20
-124.831
11
157.874
21
-124.829
0
LINE
8
BLACK
6
CONTINUOUS
10
157.874
20
-124.829
11
157.881
21
-124.826
0
LINE
8
BLACK
6
CONTINUOUS
10
157.881
20
-124.826
11
157.887
21
-124.826
0
LINE
8
BLACK
6
CONTINUOUS
10
157.887
20
-124.826
11
157.893
21
-124.824
0
LINE
8
BLACK
6
CONTINUOUS
10
157.893
20
-124.824
11
157.9
21
-124.825
0
LINE
8
BLACK
6
CONTINUOUS
10
156.792
20
-129.247
11
160.047
21
-130.108
0
LINE
8
BLACK
6
CONTINUOUS
10
160.047
20
-130.108
11
161.208
21
-125.853
0
LINE
8
BLACK
6
CONTINUOUS
10
161.208
20
-125.853
11
157.953
21
-124.992
0
LINE
8
BLACK
6
CONTINUOUS
10
157.953
20
-124.992
11
156.792
21
-129.247
0
LINE
8
BLACK
6
CONTINUOUS
10
138.257
20
-122.225
11
138.263
21
-122.225
0
LINE
8
BLACK
6
CONTINUOUS
10
138.263
20
-122.225
11
138.269
21
-122.227
0
LINE
8
BLACK
6
CONTINUOUS
10
138.269
20
-122.227
11
138.276
21
-122.228
0
LINE
8
BLACK
6
CONTINUOUS
10
138.276
20
-122.228
11
138.282
21
-122.232
0
LINE
8
BLACK
6
CONTINUOUS
10
138.282
20
-122.232
11
138.288
21
-122.234
0
LINE
8
BLACK
6
CONTINUOUS
10
138.288
20
-122.234
11
138.293
21
-122.238
0
LINE
8
BLACK
6
CONTINUOUS
10
138.293
20
-122.238
11
138.299
21
-122.242
0
LINE
8
BLACK
6
CONTINUOUS
10
138.299
20
-122.242
11
138.303
21
-122.247
0
LINE
8
BLACK
6
CONTINUOUS
10
138.303
20
-122.247
11
138.308
21
-122.251
0
LINE
8
BLACK
6
CONTINUOUS
10
138.308
20
-122.251
11
138.312
21
-122.257
0
LINE
8
BLACK
6
CONTINUOUS
10
138.312
20
-122.257
11
138.316
21
-122.262
0
LINE
8
BLACK
6
CONTINUOUS
10
138.316
20
-122.262
11
138.318
21
-122.268
0
LINE
8
BLACK
6
CONTINUOUS
10
138.318
20
-122.268
11
138.322
21
-122.274
0
LINE
8
BLACK
6
CONTINUOUS
10
138.322
20
-122.274
11
138.323
21
-122.281
0
LINE
8
BLACK
6
CONTINUOUS
10
138.323
20
-122.281
11
138.325
21
-122.287
0
LINE
8
BLACK
6
CONTINUOUS
10
138.325
20
-122.287
11
138.325
21
-122.293
0
LINE
8
BLACK
6
CONTINUOUS
10
138.325
20
-122.293
11
138.325
21
-122.293
0
LINE
8
BLACK
6
CONTINUOUS
10
138.325
20
-122.293
11
138.325
21
-126.757
0
LINE
8
BLACK
6
CONTINUOUS
10
138.325
20
-126.757
11
138.325
21
-126.757
0
LINE
8
BLACK
6
CONTINUOUS
10
138.325
20
-126.757
11
138.325
21
-126.763
0
LINE
8
BLACK
6
CONTINUOUS
10
138.325
20
-126.763
11
138.323
21
-126.769
0
LINE
8
BLACK
6
CONTINUOUS
10
138.323
20
-126.769
11
138.322
21
-126.776
0
LINE
8
BLACK
6
CONTINUOUS
10
138.322
20
-126.776
11
138.318
21
-126.782
0
LINE
8
BLACK
6
CONTINUOUS
10
138.318
20
-126.782
11
138.316
21
-126.788
0
LINE
8
BLACK
6
CONTINUOUS
10
138.316
20
-126.788
11
138.312
21
-126.793
0
LINE
8
BLACK
6
CONTINUOUS
10
138.312
20
-126.793
11
138.308
21
-126.799
0
LINE
8
BLACK
6
CONTINUOUS
10
138.308
20
-126.799
11
138.303
21
-126.803
0
LINE
8
BLACK
6
CONTINUOUS
10
138.303
20
-126.803
11
138.299
21
-126.808
0
LINE
8
BLACK
6
CONTINUOUS
10
138.299
20
-126.808
11
138.293
21
-126.812
0
LINE
8
BLACK
6
CONTINUOUS
10
138.293
20
-126.812
11
138.288
21
-126.816
0
LINE
8
BLACK
6
CONTINUOUS
10
138.288
20
-126.816
11
138.282
21
-126.818
0
LINE
8
BLACK
6
CONTINUOUS
10
138.282
20
-126.818
11
138.276
21
-126.822
0
LINE
8
BLACK
6
CONTINUOUS
10
138.276
20
-126.822
11
138.269
21
-126.823
0
LINE
8
BLACK
6
CONTINUOUS
10
138.269
20
-126.823
11
138.263
21
-126.825
0
LINE
8
BLACK
6
CONTINUOUS
10
138.263
20
-126.825
11
138.257
21
-126.825
0
LINE
8
BLACK
6
CONTINUOUS
10
138.257
20
-126.825
11
138.257
21
-126.825
0
LINE
8
BLACK
6
CONTINUOUS
10
138.257
20
-126.825
11
134.743
21
-126.825
0
LINE
8
BLACK
6
CONTINUOUS
10
134.743
20
-126.825
11
134.743
21
-126.825
0
LINE
8
BLACK
6
CONTINUOUS
10
134.743
20
-126.825
11
134.737
21
-126.825
0
LINE
8
BLACK
6
CONTINUOUS
10
134.737
20
-126.825
11
134.731
21
-126.823
0
LINE
8
BLACK
6
CONTINUOUS
10
134.731
20
-126.823
11
134.724
21
-126.822
0
LINE
8
BLACK
6
CONTINUOUS
10
134.724
20
-126.822
11
134.718
21
-126.818
0
LINE
8
BLACK
6
CONTINUOUS
10
134.718
20
-126.818
11
134.712
21
-126.816
0
LINE
8
BLACK
6
CONTINUOUS
10
134.712
20
-126.816
11
134.707
21
-126.812
0
LINE
8
BLACK
6
CONTINUOUS
10
134.707
20
-126.812
11
134.701
21
-126.808
0
LINE
8
BLACK
6
CONTINUOUS
10
134.701
20
-126.808
11
134.697
21
-126.803
0
LINE
8
BLACK
6
CONTINUOUS
10
134.697
20
-126.803
11
134.692
21
-126.799
0
LINE
8
BLACK
6
CONTINUOUS
10
134.692
20
-126.799
11
134.688
21
-126.793
0
LINE
8
BLACK
6
CONTINUOUS
10
134.688
20
-126.793
11
134.684
21
-126.788
0
LINE
8
BLACK
6
CONTINUOUS
10
134.684
20
-126.788
11
134.682
21
-126.782
0
LINE
8
BLACK
6
CONTINUOUS
10
134.682
20
-126.782
11
134.678
21
-126.776
0
LINE
8
BLACK
6
CONTINUOUS
10
134.678
20
-126.776
11
134.677
21
-126.769
0
LINE
8
BLACK
6
CONTINUOUS
10
134.677
20
-126.769
11
134.675
21
-126.763
0
LINE
8
BLACK
6
CONTINUOUS
10
134.675
20
-126.763
11
134.675
21
-126.737
0
LINE
8
BLACK
6
CONTINUOUS
10
134.675
20
-126.737
11
134.675
21
-122.343
0
LINE
8
BLACK
6
CONTINUOUS
10
134.675
20
-122.343
11
134.678
21
-122.324
0
LINE
8
BLACK
6
CONTINUOUS
10
134.678
20
-122.324
11
134.679
21
-122.323
0
LINE
8
BLACK
6
CONTINUOUS
10
134.679
20
-122.323
11
134.675
21
-122.313
0
LINE
8
BLACK
6
CONTINUOUS
10
134.675
20
-122.313
11
134.675
21
-122.287
0
LINE
8
BLACK
6
CONTINUOUS
10
134.675
20
-122.287
11
134.684
21
-122.262
0
LINE
8
BLACK
6
CONTINUOUS
10
134.684
20
-122.262
11
134.701
21
-122.242
0
LINE
8
BLACK
6
CONTINUOUS
10
134.701
20
-122.242
11
134.724
21
-122.228
0
LINE
8
BLACK
6
CONTINUOUS
10
134.724
20
-122.228
11
134.743
21
-122.225
0
LINE
8
BLACK
6
CONTINUOUS
10
134.743
20
-122.225
11
138.257
21
-122.225
0
LINE
8
BLACK
6
CONTINUOUS
10
138.257
20
-122.225
11
138.257
21
-122.225
0
LINE
8
BLACK
6
CONTINUOUS
10
134.825
20
-122.375
11
134.825
21
-126.675
0
LINE
8
BLACK
6
CONTINUOUS
10
134.825
20
-126.675
11
138.175
21
-126.675
0
LINE
8
BLACK
6
CONTINUOUS
10
138.175
20
-126.675
11
138.175
21
-122.375
0
LINE
8
BLACK
6
CONTINUOUS
10
138.175
20
-122.375
11
134.825
21
-122.375
0
LINE
8
BLACK
6
CONTINUOUS
10
79.5032
20
-96.9261
11
79.513
21
-96.9261
0
LINE
8
BLACK
6
CONTINUOUS
10
79.513
20
-96.9261
11
79.684
21
-96.9563
0
LINE
8
BLACK
6
CONTINUOUS
10
79.684
20
-96.9563
11
79.7085
21
-96.9652
0
LINE
8
BLACK
6
CONTINUOUS
10
79.7085
20
-96.9652
11
79.8589
21
-97.052
0
LINE
8
BLACK
6
CONTINUOUS
10
79.8589
20
-97.052
11
79.8788
21
-97.0688
0
LINE
8
BLACK
6
CONTINUOUS
10
79.8788
20
-97.0688
11
79.9905
21
-97.2018
0
LINE
8
BLACK
6
CONTINUOUS
10
79.9905
20
-97.2018
11
80.0035
21
-97.2243
0
LINE
8
BLACK
6
CONTINUOUS
10
80.0035
20
-97.2243
11
80.0629
21
-97.3875
0
LINE
8
BLACK
6
CONTINUOUS
10
80.0629
20
-97.3875
11
80.0646
21
-97.3972
0
LINE
8
BLACK
6
CONTINUOUS
10
80.0646
20
-97.3972
11
80.0671
21
-97.4066
0
LINE
8
BLACK
6
CONTINUOUS
10
80.0671
20
-97.4066
11
80.0744
21
-97.4902
0
LINE
8
BLACK
6
CONTINUOUS
10
80.0744
20
-97.4902
11
80.075
21
-97.4934
0
LINE
8
BLACK
6
CONTINUOUS
10
80.075
20
-97.4934
11
80.075
21
-113.507
0
LINE
8
BLACK
6
CONTINUOUS
10
80.075
20
-113.507
11
80.0739
21
-113.513
0
LINE
8
BLACK
6
CONTINUOUS
10
80.0739
20
-113.513
11
80.0739
21
-113.513
0
LINE
8
BLACK
6
CONTINUOUS
10
80.0739
20
-113.513
11
80.0437
21
-113.684
0
LINE
8
BLACK
6
CONTINUOUS
10
80.0437
20
-113.684
11
80.0348
21
-113.709
0
LINE
8
BLACK
6
CONTINUOUS
10
80.0348
20
-113.709
11
80.0348
21
-113.709
0
LINE
8
BLACK
6
CONTINUOUS
10
80.0348
20
-113.709
11
79.948
21
-113.859
0
LINE
8
BLACK
6
CONTINUOUS
10
79.948
20
-113.859
11
79.9312
21
-113.879
0
LINE
8
BLACK
6
CONTINUOUS
10
79.9312
20
-113.879
11
79.9312
21
-113.879
0
LINE
8
BLACK
6
CONTINUOUS
10
79.9312
20
-113.879
11
79.7982
21
-113.99
0
LINE
8
BLACK
6
CONTINUOUS
10
79.7982
20
-113.99
11
79.7757
21
-114.003
0
LINE
8
BLACK
6
CONTINUOUS
10
79.7757
20
-114.003
11
79.6125
21
-114.063
0
LINE
8
BLACK
6
CONTINUOUS
10
79.6125
20
-114.063
11
79.6028
21
-114.065
0
LINE
8
BLACK
6
CONTINUOUS
10
79.6028
20
-114.065
11
79.5934
21
-114.067
0
LINE
8
BLACK
6
CONTINUOUS
10
79.5934
20
-114.067
11
79.5065
21
-114.075
0
LINE
8
BLACK
6
CONTINUOUS
10
79.5065
20
-114.075
11
79.4968
21
-114.074
0
LINE
8
BLACK
6
CONTINUOUS
10
79.4968
20
-114.074
11
79.487
21
-114.074
0
LINE
8
BLACK
6
CONTINUOUS
10
79.487
20
-114.074
11
79.316
21
-114.044
0
LINE
8
BLACK
6
CONTINUOUS
10
79.316
20
-114.044
11
79.2915
21
-114.035
0
LINE
8
BLACK
6
CONTINUOUS
10
79.2915
20
-114.035
11
79.2915
21
-114.035
0
LINE
8
BLACK
6
CONTINUOUS
10
79.2915
20
-114.035
11
79.1411
21
-113.948
0
LINE
8
BLACK
6
CONTINUOUS
10
79.1411
20
-113.948
11
79.1212
21
-113.931
0
LINE
8
BLACK
6
CONTINUOUS
10
79.1212
20
-113.931
11
79.1212
21
-113.931
0
LINE
8
BLACK
6
CONTINUOUS
10
79.1212
20
-113.931
11
79.0095
21
-113.798
0
LINE
8
BLACK
6
CONTINUOUS
10
79.0095
20
-113.798
11
78.9965
21
-113.776
0
LINE
8
BLACK
6
CONTINUOUS
10
78.9965
20
-113.776
11
78.9371
21
-113.612
0
LINE
8
BLACK
6
CONTINUOUS
10
78.9371
20
-113.612
11
78.9354
21
-113.603
0
LINE
8
BLACK
6
CONTINUOUS
10
78.9354
20
-113.603
11
78.9329
21
-113.593
0
LINE
8
BLACK
6
CONTINUOUS
10
78.9329
20
-113.593
11
78.9256
21
-113.51
0
LINE
8
BLACK
6
CONTINUOUS
10
78.9256
20
-113.51
11
78.925
21
-113.507
0
LINE
8
BLACK
6
CONTINUOUS
10
78.925
20
-113.507
11
78.925
21
-97.4934
0
LINE
8
BLACK
6
CONTINUOUS
10
78.925
20
-97.4934
11
78.9261
21
-97.487
0
LINE
8
BLACK
6
CONTINUOUS
10
78.9261
20
-97.487
11
78.9261
21
-97.487
0
LINE
8
BLACK
6
CONTINUOUS
10
78.9261
20
-97.487
11
78.9563
21
-97.316
0
LINE
8
BLACK
6
CONTINUOUS
10
78.9563
20
-97.316
11
78.9652
21
-97.2915
0
LINE
8
BLACK
6
CONTINUOUS
10
78.9652
20
-97.2915
11
79.052
21
-97.1411
0
LINE
8
BLACK
6
CONTINUOUS
10
79.052
20
-97.1411
11
79.0688
21
-97.1212
0
LINE
8
BLACK
6
CONTINUOUS
10
79.0688
20
-97.1212
11
79.2018
21
-97.0095
0
LINE
8
BLACK
6
CONTINUOUS
10
79.2018
20
-97.0095
11
79.2243
21
-96.9965
0
LINE
8
BLACK
6
CONTINUOUS
10
79.2243
20
-96.9965
11
79.3875
21
-96.9371
0
LINE
8
BLACK
6
CONTINUOUS
10
79.3875
20
-96.9371
11
79.3972
21
-96.9354
0
LINE
8
BLACK
6
CONTINUOUS
10
79.3972
20
-96.9354
11
79.4066
21
-96.9329
0
LINE
8
BLACK
6
CONTINUOUS
10
79.4066
20
-96.9329
11
79.4935
21
-96.9253
0
LINE
8
BLACK
6
CONTINUOUS
10
79.4935
20
-96.9253
11
79.5032
21
-96.9261
0
LINE
8
BLACK
6
CONTINUOUS
10
79.4295
20
-97.0815
11
79.2881
21
-97.1329
0
LINE
8
BLACK
6
CONTINUOUS
10
79.2881
20
-97.1329
11
79.1753
21
-97.2276
0
LINE
8
BLACK
6
CONTINUOUS
10
79.1753
20
-97.2276
11
79.1017
21
-97.355
0
LINE
8
BLACK
6
CONTINUOUS
10
79.1017
20
-97.355
11
79.075
21
-97.5066
0
LINE
8
BLACK
6
CONTINUOUS
10
79.075
20
-97.5066
11
79.075
21
-113.497
0
LINE
8
BLACK
6
CONTINUOUS
10
79.075
20
-113.497
11
79.0815
21
-113.57
0
LINE
8
BLACK
6
CONTINUOUS
10
79.0815
20
-113.57
11
79.1329
21
-113.712
0
LINE
8
BLACK
6
CONTINUOUS
10
79.1329
20
-113.712
11
79.2276
21
-113.825
0
LINE
8
BLACK
6
CONTINUOUS
10
79.2276
20
-113.825
11
79.355
21
-113.898
0
LINE
8
BLACK
6
CONTINUOUS
10
79.355
20
-113.898
11
79.5033
21
-113.924
0
LINE
8
BLACK
6
CONTINUOUS
10
79.5033
20
-113.924
11
79.5705
21
-113.919
0
LINE
8
BLACK
6
CONTINUOUS
10
79.5705
20
-113.919
11
79.7119
21
-113.867
0
LINE
8
BLACK
6
CONTINUOUS
10
79.7119
20
-113.867
11
79.8247
21
-113.772
0
LINE
8
BLACK
6
CONTINUOUS
10
79.8247
20
-113.772
11
79.8983
21
-113.645
0
LINE
8
BLACK
6
CONTINUOUS
10
79.8983
20
-113.645
11
79.925
21
-113.493
0
LINE
8
BLACK
6
CONTINUOUS
10
79.925
20
-113.493
11
79.925
21
-97.5033
0
LINE
8
BLACK
6
CONTINUOUS
10
79.925
20
-97.5033
11
79.9185
21
-97.4295
0
LINE
8
BLACK
6
CONTINUOUS
10
79.9185
20
-97.4295
11
79.8671
21
-97.2881
0
LINE
8
BLACK
6
CONTINUOUS
10
79.8671
20
-97.2881
11
79.7724
21
-97.1753
0
LINE
8
BLACK
6
CONTINUOUS
10
79.7724
20
-97.1753
11
79.645
21
-97.1017
0
LINE
8
BLACK
6
CONTINUOUS
10
79.645
20
-97.1017
11
79.4967
21
-97.0756
0
LINE
8
BLACK
6
CONTINUOUS
10
79.4967
20
-97.0756
11
79.4295
21
-97.0815
0
LINE
8
BLACK
6
CONTINUOUS
10
71.7566
20
-107.325
11
71.7632
21
-107.325
0
LINE
8
BLACK
6
CONTINUOUS
10
71.7632
20
-107.325
11
71.7695
21
-107.327
0
LINE
8
BLACK
6
CONTINUOUS
10
71.7695
20
-107.327
11
71.776
21
-107.328
0
LINE
8
BLACK
6
CONTINUOUS
10
71.776
20
-107.328
11
71.7818
21
-107.332
0
LINE
8
BLACK
6
CONTINUOUS
10
71.7818
20
-107.332
11
71.7881
21
-107.334
0
LINE
8
BLACK
6
CONTINUOUS
10
71.7881
20
-107.334
11
71.7932
21
-107.338
0
LINE
8
BLACK
6
CONTINUOUS
10
71.7932
20
-107.338
11
71.799
21
-107.342
0
LINE
8
BLACK
6
CONTINUOUS
10
71.799
20
-107.342
11
71.8032
21
-107.347
0
LINE
8
BLACK
6
CONTINUOUS
10
71.8032
20
-107.347
11
71.8083
21
-107.351
0
LINE
8
BLACK
6
CONTINUOUS
10
71.8083
20
-107.351
11
71.8117
21
-107.357
0
LINE
8
BLACK
6
CONTINUOUS
10
71.8117
20
-107.357
11
71.816
21
-107.362
0
LINE
8
BLACK
6
CONTINUOUS
10
71.816
20
-107.362
11
71.8182
21
-107.368
0
LINE
8
BLACK
6
CONTINUOUS
10
71.8182
20
-107.368
11
71.8216
21
-107.374
0
LINE
8
BLACK
6
CONTINUOUS
10
71.8216
20
-107.374
11
71.8227
21
-107.381
0
LINE
8
BLACK
6
CONTINUOUS
10
71.8227
20
-107.381
11
71.825
21
-107.387
0
LINE
8
BLACK
6
CONTINUOUS
10
71.825
20
-107.387
11
71.825
21
-107.393
0
LINE
8
BLACK
6
CONTINUOUS
10
71.825
20
-107.393
11
71.825
21
-107.393
0
LINE
8
BLACK
6
CONTINUOUS
10
71.825
20
-107.393
11
71.825
21
-111.907
0
LINE
8
BLACK
6
CONTINUOUS
10
71.825
20
-111.907
11
71.825
21
-111.907
0
LINE
8
BLACK
6
CONTINUOUS
10
71.825
20
-111.907
11
71.825
21
-111.913
0
LINE
8
BLACK
6
CONTINUOUS
10
71.825
20
-111.913
11
71.8227
21
-111.919
0
LINE
8
BLACK
6
CONTINUOUS
10
71.8227
20
-111.919
11
71.8216
21
-111.926
0
LINE
8
BLACK
6
CONTINUOUS
10
71.8216
20
-111.926
11
71.8182
21
-111.932
0
LINE
8
BLACK
6
CONTINUOUS
10
71.8182
20
-111.932
11
71.816
21
-111.938
0
LINE
8
BLACK
6
CONTINUOUS
10
71.816
20
-111.938
11
71.8117
21
-111.943
0
LINE
8
BLACK
6
CONTINUOUS
10
71.8117
20
-111.943
11
71.8083
21
-111.949
0
LINE
8
BLACK
6
CONTINUOUS
10
71.8083
20
-111.949
11
71.8032
21
-111.953
0
LINE
8
BLACK
6
CONTINUOUS
10
71.8032
20
-111.953
11
71.799
21
-111.958
0
LINE
8
BLACK
6
CONTINUOUS
10
71.799
20
-111.958
11
71.7932
21
-111.962
0
LINE
8
BLACK
6
CONTINUOUS
10
71.7932
20
-111.962
11
71.7881
21
-111.966
0
LINE
8
BLACK
6
CONTINUOUS
10
71.7881
20
-111.966
11
71.7818
21
-111.968
0
LINE
8
BLACK
6
CONTINUOUS
10
71.7818
20
-111.968
11
71.776
21
-111.972
0
LINE
8
BLACK
6
CONTINUOUS
10
71.776
20
-111.972
11
71.7695
21
-111.973
0
LINE
8
BLACK
6
CONTINUOUS
10
71.7695
20
-111.973
11
71.7632
21
-111.975
0
LINE
8
BLACK
6
CONTINUOUS
10
71.7632
20
-111.975
11
71.7566
21
-111.975
0
LINE
8
BLACK
6
CONTINUOUS
10
71.7566
20
-111.975
11
71.7566
21
-111.975
0
LINE
8
BLACK
6
CONTINUOUS
10
71.7566
20
-111.975
11
68.2434
21
-111.975
0
LINE
8
BLACK
6
CONTINUOUS
10
68.2434
20
-111.975
11
68.2434
21
-111.975
0
LINE
8
BLACK
6
CONTINUOUS
10
68.2434
20
-111.975
11
68.2368
21
-111.975
0
LINE
8
BLACK
6
CONTINUOUS
10
68.2368
20
-111.975
11
68.2305
21
-111.973
0
LINE
8
BLACK
6
CONTINUOUS
10
68.2305
20
-111.973
11
68.224
21
-111.972
0
LINE
8
BLACK
6
CONTINUOUS
10
68.224
20
-111.972
11
68.2182
21
-111.968
0
LINE
8
BLACK
6
CONTINUOUS
10
68.2182
20
-111.968
11
68.2119
21
-111.966
0
LINE
8
BLACK
6
CONTINUOUS
10
68.2119
20
-111.966
11
68.2068
21
-111.962
0
LINE
8
BLACK
6
CONTINUOUS
10
68.2068
20
-111.962
11
68.201
21
-111.958
0
LINE
8
BLACK
6
CONTINUOUS
10
68.201
20
-111.958
11
68.1968
21
-111.953
0
LINE
8
BLACK
6
CONTINUOUS
10
68.1968
20
-111.953
11
68.1917
21
-111.949
0
LINE
8
BLACK
6
CONTINUOUS
10
68.1917
20
-111.949
11
68.1883
21
-111.943
0
LINE
8
BLACK
6
CONTINUOUS
10
68.1883
20
-111.943
11
68.184
21
-111.938
0
LINE
8
BLACK
6
CONTINUOUS
10
68.184
20
-111.938
11
68.1818
21
-111.932
0
LINE
8
BLACK
6
CONTINUOUS
10
68.1818
20
-111.932
11
68.1784
21
-111.926
0
LINE
8
BLACK
6
CONTINUOUS
10
68.1784
20
-111.926
11
68.1773
21
-111.919
0
LINE
8
BLACK
6
CONTINUOUS
10
68.1773
20
-111.919
11
68.175
21
-111.913
0
LINE
8
BLACK
6
CONTINUOUS
10
68.175
20
-111.913
11
68.175
21
-111.887
0
LINE
8
BLACK
6
CONTINUOUS
10
68.175
20
-111.887
11
68.175
21
-107.393
0
LINE
8
BLACK
6
CONTINUOUS
10
68.175
20
-107.393
11
68.175
21
-107.393
0
LINE
8
BLACK
6
CONTINUOUS
10
68.175
20
-107.393
11
68.175
21
-107.387
0
LINE
8
BLACK
6
CONTINUOUS
10
68.175
20
-107.387
11
68.1773
21
-107.381
0
LINE
8
BLACK
6
CONTINUOUS
10
68.1773
20
-107.381
11
68.1784
21
-107.374
0
LINE
8
BLACK
6
CONTINUOUS
10
68.1784
20
-107.374
11
68.1818
21
-107.368
0
LINE
8
BLACK
6
CONTINUOUS
10
68.1818
20
-107.368
11
68.184
21
-107.362
0
LINE
8
BLACK
6
CONTINUOUS
10
68.184
20
-107.362
11
68.1883
21
-107.357
0
LINE
8
BLACK
6
CONTINUOUS
10
68.1883
20
-107.357
11
68.1917
21
-107.351
0
LINE
8
BLACK
6
CONTINUOUS
10
68.1917
20
-107.351
11
68.1968
21
-107.347
0
LINE
8
BLACK
6
CONTINUOUS
10
68.1968
20
-107.347
11
68.201
21
-107.342
0
LINE
8
BLACK
6
CONTINUOUS
10
68.201
20
-107.342
11
68.2068
21
-107.338
0
LINE
8
BLACK
6
CONTINUOUS
10
68.2068
20
-107.338
11
68.2119
21
-107.334
0
LINE
8
BLACK
6
CONTINUOUS
10
68.2119
20
-107.334
11
68.2182
21
-107.332
0
LINE
8
BLACK
6
CONTINUOUS
10
68.2182
20
-107.332
11
68.224
21
-107.328
0
LINE
8
BLACK
6
CONTINUOUS
10
68.224
20
-107.328
11
68.2305
21
-107.327
0
LINE
8
BLACK
6
CONTINUOUS
10
68.2305
20
-107.327
11
68.2368
21
-107.325
0
LINE
8
BLACK
6
CONTINUOUS
10
68.2368
20
-107.325
11
68.2434
21
-107.325
0
LINE
8
BLACK
6
CONTINUOUS
10
68.2434
20
-107.325
11
68.2434
21
-107.325
0
LINE
8
BLACK
6
CONTINUOUS
10
68.2434
20
-107.325
11
71.7566
21
-107.325
0
LINE
8
BLACK
6
CONTINUOUS
10
71.7566
20
-107.325
11
71.7566
21
-107.325
0
LINE
8
BLACK
6
CONTINUOUS
10
68.325
20
-107.475
11
68.325
21
-111.825
0
LINE
8
BLACK
6
CONTINUOUS
10
68.325
20
-111.825
11
71.675
21
-111.825
0
LINE
8
BLACK
6
CONTINUOUS
10
71.675
20
-111.825
11
71.675
21
-107.475
0
LINE
8
BLACK
6
CONTINUOUS
10
71.675
20
-107.475
11
68.325
21
-107.475
0
LINE
8
BLACK
6
CONTINUOUS
10
90.7566
20
-107.325
11
90.7632
21
-107.325
0
LINE
8
BLACK
6
CONTINUOUS
10
90.7632
20
-107.325
11
90.7695
21
-107.327
0
LINE
8
BLACK
6
CONTINUOUS
10
90.7695
20
-107.327
11
90.776
21
-107.328
0
LINE
8
BLACK
6
CONTINUOUS
10
90.776
20
-107.328
11
90.7818
21
-107.332
0
LINE
8
BLACK
6
CONTINUOUS
10
90.7818
20
-107.332
11
90.7881
21
-107.334
0
LINE
8
BLACK
6
CONTINUOUS
10
90.7881
20
-107.334
11
90.7932
21
-107.338
0
LINE
8
BLACK
6
CONTINUOUS
10
90.7932
20
-107.338
11
90.799
21
-107.342
0
LINE
8
BLACK
6
CONTINUOUS
10
90.799
20
-107.342
11
90.8032
21
-107.347
0
LINE
8
BLACK
6
CONTINUOUS
10
90.8032
20
-107.347
11
90.8083
21
-107.351
0
LINE
8
BLACK
6
CONTINUOUS
10
90.8083
20
-107.351
11
90.8117
21
-107.357
0
LINE
8
BLACK
6
CONTINUOUS
10
90.8117
20
-107.357
11
90.816
21
-107.362
0
LINE
8
BLACK
6
CONTINUOUS
10
90.816
20
-107.362
11
90.8182
21
-107.368
0
LINE
8
BLACK
6
CONTINUOUS
10
90.8182
20
-107.368
11
90.8216
21
-107.374
0
LINE
8
BLACK
6
CONTINUOUS
10
90.8216
20
-107.374
11
90.8227
21
-107.381
0
LINE
8
BLACK
6
CONTINUOUS
10
90.8227
20
-107.381
11
90.825
21
-107.387
0
LINE
8
BLACK
6
CONTINUOUS
10
90.825
20
-107.387
11
90.825
21
-107.393
0
LINE
8
BLACK
6
CONTINUOUS
10
90.825
20
-107.393
11
90.825
21
-107.393
0
LINE
8
BLACK
6
CONTINUOUS
10
90.825
20
-107.393
11
90.825
21
-111.907
0
LINE
8
BLACK
6
CONTINUOUS
10
90.825
20
-111.907
11
90.825
21
-111.907
0
LINE
8
BLACK
6
CONTINUOUS
10
90.825
20
-111.907
11
90.825
21
-111.913
0
LINE
8
BLACK
6
CONTINUOUS
10
90.825
20
-111.913
11
90.8227
21
-111.919
0
LINE
8
BLACK
6
CONTINUOUS
10
90.8227
20
-111.919
11
90.8216
21
-111.926
0
LINE
8
BLACK
6
CONTINUOUS
10
90.8216
20
-111.926
11
90.8182
21
-111.932
0
LINE
8
BLACK
6
CONTINUOUS
10
90.8182
20
-111.932
11
90.816
21
-111.938
0
LINE
8
BLACK
6
CONTINUOUS
10
90.816
20
-111.938
11
90.8117
21
-111.943
0
LINE
8
BLACK
6
CONTINUOUS
10
90.8117
20
-111.943
11
90.8083
21
-111.949
0
LINE
8
BLACK
6
CONTINUOUS
10
90.8083
20
-111.949
11
90.8032
21
-111.953
0
LINE
8
BLACK
6
CONTINUOUS
10
90.8032
20
-111.953
11
90.799
21
-111.958
0
LINE
8
BLACK
6
CONTINUOUS
10
90.799
20
-111.958
11
90.7932
21
-111.962
0
LINE
8
BLACK
6
CONTINUOUS
10
90.7932
20
-111.962
11
90.7881
21
-111.966
0
LINE
8
BLACK
6
CONTINUOUS
10
90.7881
20
-111.966
11
90.7818
21
-111.968
0
LINE
8
BLACK
6
CONTINUOUS
10
90.7818
20
-111.968
11
90.776
21
-111.972
0
LINE
8
BLACK
6
CONTINUOUS
10
90.776
20
-111.972
11
90.7695
21
-111.973
0
LINE
8
BLACK
6
CONTINUOUS
10
90.7695
20
-111.973
11
90.7632
21
-111.975
0
LINE
8
BLACK
6
CONTINUOUS
10
90.7632
20
-111.975
11
90.7566
21
-111.975
0
LINE
8
BLACK
6
CONTINUOUS
10
90.7566
20
-111.975
11
90.7566
21
-111.975
0
LINE
8
BLACK
6
CONTINUOUS
10
90.7566
20
-111.975
11
87.2434
21
-111.975
0
LINE
8
BLACK
6
CONTINUOUS
10
87.2434
20
-111.975
11
87.2434
21
-111.975
0
LINE
8
BLACK
6
CONTINUOUS
10
87.2434
20
-111.975
11
87.2368
21
-111.975
0
LINE
8
BLACK
6
CONTINUOUS
10
87.2368
20
-111.975
11
87.2305
21
-111.973
0
LINE
8
BLACK
6
CONTINUOUS
10
87.2305
20
-111.973
11
87.224
21
-111.972
0
LINE
8
BLACK
6
CONTINUOUS
10
87.224
20
-111.972
11
87.2182
21
-111.968
0
LINE
8
BLACK
6
CONTINUOUS
10
87.2182
20
-111.968
11
87.2119
21
-111.966
0
LINE
8
BLACK
6
CONTINUOUS
10
87.2119
20
-111.966
11
87.2068
21
-111.962
0
LINE
8
BLACK
6
CONTINUOUS
10
87.2068
20
-111.962
11
87.201
21
-111.958
0
LINE
8
BLACK
6
CONTINUOUS
10
87.201
20
-111.958
11
87.1968
21
-111.953
0
LINE
8
BLACK
6
CONTINUOUS
10
87.1968
20
-111.953
11
87.1917
21
-111.949
0
LINE
8
BLACK
6
CONTINUOUS
10
87.1917
20
-111.949
11
87.1883
21
-111.943
0
LINE
8
BLACK
6
CONTINUOUS
10
87.1883
20
-111.943
11
87.184
21
-111.938
0
LINE
8
BLACK
6
CONTINUOUS
10
87.184
20
-111.938
11
87.1818
21
-111.932
0
LINE
8
BLACK
6
CONTINUOUS
10
87.1818
20
-111.932
11
87.1784
21
-111.926
0
LINE
8
BLACK
6
CONTINUOUS
10
87.1784
20
-111.926
11
87.1773
21
-111.919
0
LINE
8
BLACK
6
CONTINUOUS
10
87.1773
20
-111.919
11
87.175
21
-111.913
0
LINE
8
BLACK
6
CONTINUOUS
10
87.175
20
-111.913
11
87.175
21
-111.887
0
LINE
8
BLACK
6
CONTINUOUS
10
87.175
20
-111.887
11
87.175
21
-107.393
0
LINE
8
BLACK
6
CONTINUOUS
10
87.175
20
-107.393
11
87.175
21
-107.393
0
LINE
8
BLACK
6
CONTINUOUS
10
87.175
20
-107.393
11
87.175
21
-107.387
0
LINE
8
BLACK
6
CONTINUOUS
10
87.175
20
-107.387
11
87.1773
21
-107.381
0
LINE
8
BLACK
6
CONTINUOUS
10
87.1773
20
-107.381
11
87.1784
21
-107.374
0
LINE
8
BLACK
6
CONTINUOUS
10
87.1784
20
-107.374
11
87.1818
21
-107.368
0
LINE
8
BLACK
6
CONTINUOUS
10
87.1818
20
-107.368
11
87.184
21
-107.362
0
LINE
8
BLACK
6
CONTINUOUS
10
87.184
20
-107.362
11
87.1883
21
-107.357
0
LINE
8
BLACK
6
CONTINUOUS
10
87.1883
20
-107.357
11
87.1917
21
-107.351
0
LINE
8
BLACK
6
CONTINUOUS
10
87.1917
20
-107.351
11
87.1968
21
-107.347
0
LINE
8
BLACK
6
CONTINUOUS
10
87.1968
20
-107.347
11
87.201
21
-107.342
0
LINE
8
BLACK
6
CONTINUOUS
10
87.201
20
-107.342
11
87.2068
21
-107.338
0
LINE
8
BLACK
6
CONTINUOUS
10
87.2068
20
-107.338
11
87.2119
21
-107.334
0
LINE
8
BLACK
6
CONTINUOUS
10
87.2119
20
-107.334
11
87.2182
21
-107.332
0
LINE
8
BLACK
6
CONTINUOUS
10
87.2182
20
-107.332
11
87.224
21
-107.328
0
LINE
8
BLACK
6
CONTINUOUS
10
87.224
20
-107.328
11
87.2305
21
-107.327
0
LINE
8
BLACK
6
CONTINUOUS
10
87.2305
20
-107.327
11
87.2368
21
-107.325
0
LINE
8
BLACK
6
CONTINUOUS
10
87.2368
20
-107.325
11
87.2434
21
-107.325
0
LINE
8
BLACK
6
CONTINUOUS
10
87.2434
20
-107.325
11
87.2434
21
-107.325
0
LINE
8
BLACK
6
CONTINUOUS
10
87.2434
20
-107.325
11
90.7566
21
-107.325
0
LINE
8
BLACK
6
CONTINUOUS
10
90.7566
20
-107.325
11
90.7566
21
-107.325
0
LINE
8
BLACK
6
CONTINUOUS
10
87.325
20
-107.475
11
87.325
21
-111.825
0
LINE
8
BLACK
6
CONTINUOUS
10
87.325
20
-111.825
11
90.675
21
-111.825
0
LINE
8
BLACK
6
CONTINUOUS
10
90.675
20
-111.825
11
90.675
21
-107.475
0
LINE
8
BLACK
6
CONTINUOUS
10
90.675
20
-107.475
11
87.325
21
-107.475
0
LINE
8
BLACK
6
CONTINUOUS
10
166.757
20
-104.925
11
166.763
21
-104.925
0
LINE
8
BLACK
6
CONTINUOUS
10
166.763
20
-104.925
11
166.769
21
-104.927
0
LINE
8
BLACK
6
CONTINUOUS
10
166.769
20
-104.927
11
166.776
21
-104.928
0
LINE
8
BLACK
6
CONTINUOUS
10
166.776
20
-104.928
11
166.782
21
-104.932
0
LINE
8
BLACK
6
CONTINUOUS
10
166.782
20
-104.932
11
166.788
21
-104.934
0
LINE
8
BLACK
6
CONTINUOUS
10
166.788
20
-104.934
11
166.793
21
-104.938
0
LINE
8
BLACK
6
CONTINUOUS
10
166.793
20
-104.938
11
166.799
21
-104.942
0
LINE
8
BLACK
6
CONTINUOUS
10
166.799
20
-104.942
11
166.803
21
-104.947
0
LINE
8
BLACK
6
CONTINUOUS
10
166.803
20
-104.947
11
166.808
21
-104.951
0
LINE
8
BLACK
6
CONTINUOUS
10
166.808
20
-104.951
11
166.812
21
-104.957
0
LINE
8
BLACK
6
CONTINUOUS
10
166.812
20
-104.957
11
166.816
21
-104.962
0
LINE
8
BLACK
6
CONTINUOUS
10
166.816
20
-104.962
11
166.818
21
-104.968
0
LINE
8
BLACK
6
CONTINUOUS
10
166.818
20
-104.968
11
166.822
21
-104.974
0
LINE
8
BLACK
6
CONTINUOUS
10
166.822
20
-104.974
11
166.823
21
-104.981
0
LINE
8
BLACK
6
CONTINUOUS
10
166.823
20
-104.981
11
166.825
21
-104.987
0
LINE
8
BLACK
6
CONTINUOUS
10
166.825
20
-104.987
11
166.825
21
-104.993
0
LINE
8
BLACK
6
CONTINUOUS
10
166.825
20
-104.993
11
166.825
21
-104.993
0
LINE
8
BLACK
6
CONTINUOUS
10
166.825
20
-104.993
11
166.825
21
-109.507
0
LINE
8
BLACK
6
CONTINUOUS
10
166.825
20
-109.507
11
166.825
21
-109.507
0
LINE
8
BLACK
6
CONTINUOUS
10
166.825
20
-109.507
11
166.825
21
-109.513
0
LINE
8
BLACK
6
CONTINUOUS
10
166.825
20
-109.513
11
166.823
21
-109.519
0
LINE
8
BLACK
6
CONTINUOUS
10
166.823
20
-109.519
11
166.822
21
-109.526
0
LINE
8
BLACK
6
CONTINUOUS
10
166.822
20
-109.526
11
166.818
21
-109.532
0
LINE
8
BLACK
6
CONTINUOUS
10
166.818
20
-109.532
11
166.816
21
-109.538
0
LINE
8
BLACK
6
CONTINUOUS
10
166.816
20
-109.538
11
166.812
21
-109.543
0
LINE
8
BLACK
6
CONTINUOUS
10
166.812
20
-109.543
11
166.808
21
-109.549
0
LINE
8
BLACK
6
CONTINUOUS
10
166.808
20
-109.549
11
166.803
21
-109.553
0
LINE
8
BLACK
6
CONTINUOUS
10
166.803
20
-109.553
11
166.799
21
-109.558
0
LINE
8
BLACK
6
CONTINUOUS
10
166.799
20
-109.558
11
166.793
21
-109.562
0
LINE
8
BLACK
6
CONTINUOUS
10
166.793
20
-109.562
11
166.788
21
-109.566
0
LINE
8
BLACK
6
CONTINUOUS
10
166.788
20
-109.566
11
166.782
21
-109.568
0
LINE
8
BLACK
6
CONTINUOUS
10
166.782
20
-109.568
11
166.776
21
-109.572
0
LINE
8
BLACK
6
CONTINUOUS
10
166.776
20
-109.572
11
166.769
21
-109.573
0
LINE
8
BLACK
6
CONTINUOUS
10
166.769
20
-109.573
11
166.763
21
-109.575
0
LINE
8
BLACK
6
CONTINUOUS
10
166.763
20
-109.575
11
166.757
21
-109.575
0
LINE
8
BLACK
6
CONTINUOUS
10
166.757
20
-109.575
11
166.757
21
-109.575
0
LINE
8
BLACK
6
CONTINUOUS
10
166.757
20
-109.575
11
163.243
21
-109.575
0
LINE
8
BLACK
6
CONTINUOUS
10
163.243
20
-109.575
11
163.243
21
-109.575
0
LINE
8
BLACK
6
CONTINUOUS
10
163.243
20
-109.575
11
163.237
21
-109.575
0
LINE
8
BLACK
6
CONTINUOUS
10
163.237
20
-109.575
11
163.231
21
-109.573
0
LINE
8
BLACK
6
CONTINUOUS
10
163.231
20
-109.573
11
163.224
21
-109.572
0
LINE
8
BLACK
6
CONTINUOUS
10
163.224
20
-109.572
11
163.218
21
-109.568
0
LINE
8
BLACK
6
CONTINUOUS
10
163.218
20
-109.568
11
163.212
21
-109.566
0
LINE
8
BLACK
6
CONTINUOUS
10
163.212
20
-109.566
11
163.207
21
-109.562
0
LINE
8
BLACK
6
CONTINUOUS
10
163.207
20
-109.562
11
163.201
21
-109.558
0
LINE
8
BLACK
6
CONTINUOUS
10
163.201
20
-109.558
11
163.197
21
-109.553
0
LINE
8
BLACK
6
CONTINUOUS
10
163.197
20
-109.553
11
163.192
21
-109.549
0
LINE
8
BLACK
6
CONTINUOUS
10
163.192
20
-109.549
11
163.188
21
-109.543
0
LINE
8
BLACK
6
CONTINUOUS
10
163.188
20
-109.543
11
163.184
21
-109.538
0
LINE
8
BLACK
6
CONTINUOUS
10
163.184
20
-109.538
11
163.182
21
-109.532
0
LINE
8
BLACK
6
CONTINUOUS
10
163.182
20
-109.532
11
163.178
21
-109.526
0
LINE
8
BLACK
6
CONTINUOUS
10
163.178
20
-109.526
11
163.177
21
-109.519
0
LINE
8
BLACK
6
CONTINUOUS
10
163.177
20
-109.519
11
163.175
21
-109.513
0
LINE
8
BLACK
6
CONTINUOUS
10
163.175
20
-109.513
11
163.175
21
-109.487
0
LINE
8
BLACK
6
CONTINUOUS
10
163.175
20
-109.487
11
163.175
21
-104.993
0
LINE
8
BLACK
6
CONTINUOUS
10
163.175
20
-104.993
11
163.175
21
-104.993
0
LINE
8
BLACK
6
CONTINUOUS
10
163.175
20
-104.993
11
163.175
21
-104.987
0
LINE
8
BLACK
6
CONTINUOUS
10
163.175
20
-104.987
11
163.177
21
-104.981
0
LINE
8
BLACK
6
CONTINUOUS
10
163.177
20
-104.981
11
163.178
21
-104.974
0
LINE
8
BLACK
6
CONTINUOUS
10
163.178
20
-104.974
11
163.182
21
-104.968
0
LINE
8
BLACK
6
CONTINUOUS
10
163.182
20
-104.968
11
163.184
21
-104.962
0
LINE
8
BLACK
6
CONTINUOUS
10
163.184
20
-104.962
11
163.188
21
-104.957
0
LINE
8
BLACK
6
CONTINUOUS
10
163.188
20
-104.957
11
163.192
21
-104.951
0
LINE
8
BLACK
6
CONTINUOUS
10
163.192
20
-104.951
11
163.197
21
-104.947
0
LINE
8
BLACK
6
CONTINUOUS
10
163.197
20
-104.947
11
163.201
21
-104.942
0
LINE
8
BLACK
6
CONTINUOUS
10
163.201
20
-104.942
11
163.207
21
-104.938
0
LINE
8
BLACK
6
CONTINUOUS
10
163.207
20
-104.938
11
163.212
21
-104.934
0
LINE
8
BLACK
6
CONTINUOUS
10
163.212
20
-104.934
11
163.218
21
-104.932
0
LINE
8
BLACK
6
CONTINUOUS
10
163.218
20
-104.932
11
163.224
21
-104.928
0
LINE
8
BLACK
6
CONTINUOUS
10
163.224
20
-104.928
11
163.231
21
-104.927
0
LINE
8
BLACK
6
CONTINUOUS
10
163.231
20
-104.927
11
163.237
21
-104.925
0
LINE
8
BLACK
6
CONTINUOUS
10
163.237
20
-104.925
11
163.243
21
-104.925
0
LINE
8
BLACK
6
CONTINUOUS
10
163.243
20
-104.925
11
163.243
21
-104.925
0
LINE
8
BLACK
6
CONTINUOUS
10
163.243
20
-104.925
11
166.757
21
-104.925
0
LINE
8
BLACK
6
CONTINUOUS
10
166.757
20
-104.925
11
166.757
21
-104.925
0
LINE
8
BLACK
6
CONTINUOUS
10
163.325
20
-105.075
11
163.325
21
-109.425
0
LINE
8
BLACK
6
CONTINUOUS
10
163.325
20
-109.425
11
166.675
21
-109.425
0
LINE
8
BLACK
6
CONTINUOUS
10
166.675
20
-109.425
11
166.675
21
-105.075
0
LINE
8
BLACK
6
CONTINUOUS
10
166.675
20
-105.075
11
163.325
21
-105.075
0
LINE
8
BLACK
6
CONTINUOUS
10
109.757
20
-102.575
11
109.763
21
-102.575
0
LINE
8
BLACK
6
CONTINUOUS
10
109.763
20
-102.575
11
109.769
21
-102.577
0
LINE
8
BLACK
6
CONTINUOUS
10
109.769
20
-102.577
11
109.776
21
-102.578
0
LINE
8
BLACK
6
CONTINUOUS
10
109.776
20
-102.578
11
109.782
21
-102.582
0
LINE
8
BLACK
6
CONTINUOUS
10
109.782
20
-102.582
11
109.788
21
-102.584
0
LINE
8
BLACK
6
CONTINUOUS
10
109.788
20
-102.584
11
109.793
21
-102.588
0
LINE
8
BLACK
6
CONTINUOUS
10
109.793
20
-102.588
11
109.799
21
-102.592
0
LINE
8
BLACK
6
CONTINUOUS
10
109.799
20
-102.592
11
109.803
21
-102.597
0
LINE
8
BLACK
6
CONTINUOUS
10
109.803
20
-102.597
11
109.808
21
-102.601
0
LINE
8
BLACK
6
CONTINUOUS
10
109.808
20
-102.601
11
109.812
21
-102.607
0
LINE
8
BLACK
6
CONTINUOUS
10
109.812
20
-102.607
11
109.816
21
-102.612
0
LINE
8
BLACK
6
CONTINUOUS
10
109.816
20
-102.612
11
109.818
21
-102.618
0
LINE
8
BLACK
6
CONTINUOUS
10
109.818
20
-102.618
11
109.822
21
-102.624
0
LINE
8
BLACK
6
CONTINUOUS
10
109.822
20
-102.624
11
109.823
21
-102.631
0
LINE
8
BLACK
6
CONTINUOUS
10
109.823
20
-102.631
11
109.825
21
-102.637
0
LINE
8
BLACK
6
CONTINUOUS
10
109.825
20
-102.637
11
109.825
21
-102.643
0
LINE
8
BLACK
6
CONTINUOUS
10
109.825
20
-102.643
11
109.825
21
-102.643
0
LINE
8
BLACK
6
CONTINUOUS
10
109.825
20
-102.643
11
109.825
21
-107.157
0
LINE
8
BLACK
6
CONTINUOUS
10
109.825
20
-107.157
11
109.825
21
-107.157
0
LINE
8
BLACK
6
CONTINUOUS
10
109.825
20
-107.157
11
109.825
21
-107.163
0
LINE
8
BLACK
6
CONTINUOUS
10
109.825
20
-107.163
11
109.823
21
-107.169
0
LINE
8
BLACK
6
CONTINUOUS
10
109.823
20
-107.169
11
109.822
21
-107.176
0
LINE
8
BLACK
6
CONTINUOUS
10
109.822
20
-107.176
11
109.818
21
-107.182
0
LINE
8
BLACK
6
CONTINUOUS
10
109.818
20
-107.182
11
109.816
21
-107.188
0
LINE
8
BLACK
6
CONTINUOUS
10
109.816
20
-107.188
11
109.812
21
-107.193
0
LINE
8
BLACK
6
CONTINUOUS
10
109.812
20
-107.193
11
109.808
21
-107.199
0
LINE
8
BLACK
6
CONTINUOUS
10
109.808
20
-107.199
11
109.803
21
-107.203
0
LINE
8
BLACK
6
CONTINUOUS
10
109.803
20
-107.203
11
109.799
21
-107.208
0
LINE
8
BLACK
6
CONTINUOUS
10
109.799
20
-107.208
11
109.793
21
-107.212
0
LINE
8
BLACK
6
CONTINUOUS
10
109.793
20
-107.212
11
109.788
21
-107.216
0
LINE
8
BLACK
6
CONTINUOUS
10
109.788
20
-107.216
11
109.782
21
-107.218
0
LINE
8
BLACK
6
CONTINUOUS
10
109.782
20
-107.218
11
109.776
21
-107.222
0
LINE
8
BLACK
6
CONTINUOUS
10
109.776
20
-107.222
11
109.769
21
-107.223
0
LINE
8
BLACK
6
CONTINUOUS
10
109.769
20
-107.223
11
109.763
21
-107.225
0
LINE
8
BLACK
6
CONTINUOUS
10
109.763
20
-107.225
11
109.757
21
-107.225
0
LINE
8
BLACK
6
CONTINUOUS
10
109.757
20
-107.225
11
109.757
21
-107.225
0
LINE
8
BLACK
6
CONTINUOUS
10
109.757
20
-107.225
11
106.243
21
-107.225
0
LINE
8
BLACK
6
CONTINUOUS
10
106.243
20
-107.225
11
106.224
21
-107.222
0
LINE
8
BLACK
6
CONTINUOUS
10
106.224
20
-107.222
11
106.201
21
-107.208
0
LINE
8
BLACK
6
CONTINUOUS
10
106.201
20
-107.208
11
106.184
21
-107.188
0
LINE
8
BLACK
6
CONTINUOUS
10
106.184
20
-107.188
11
106.175
21
-107.163
0
LINE
8
BLACK
6
CONTINUOUS
10
106.175
20
-107.163
11
106.175
21
-107.137
0
LINE
8
BLACK
6
CONTINUOUS
10
106.175
20
-107.137
11
106.179
21
-107.127
0
LINE
8
BLACK
6
CONTINUOUS
10
106.179
20
-107.127
11
106.178
21
-107.126
0
LINE
8
BLACK
6
CONTINUOUS
10
106.178
20
-107.126
11
106.175
21
-107.107
0
LINE
8
BLACK
6
CONTINUOUS
10
106.175
20
-107.107
11
106.175
21
-102.643
0
LINE
8
BLACK
6
CONTINUOUS
10
106.175
20
-102.643
11
106.175
21
-102.643
0
LINE
8
BLACK
6
CONTINUOUS
10
106.175
20
-102.643
11
106.175
21
-102.637
0
LINE
8
BLACK
6
CONTINUOUS
10
106.175
20
-102.637
11
106.177
21
-102.631
0
LINE
8
BLACK
6
CONTINUOUS
10
106.177
20
-102.631
11
106.178
21
-102.624
0
LINE
8
BLACK
6
CONTINUOUS
10
106.178
20
-102.624
11
106.182
21
-102.618
0
LINE
8
BLACK
6
CONTINUOUS
10
106.182
20
-102.618
11
106.184
21
-102.612
0
LINE
8
BLACK
6
CONTINUOUS
10
106.184
20
-102.612
11
106.188
21
-102.607
0
LINE
8
BLACK
6
CONTINUOUS
10
106.188
20
-102.607
11
106.192
21
-102.601
0
LINE
8
BLACK
6
CONTINUOUS
10
106.192
20
-102.601
11
106.197
21
-102.597
0
LINE
8
BLACK
6
CONTINUOUS
10
106.197
20
-102.597
11
106.201
21
-102.592
0
LINE
8
BLACK
6
CONTINUOUS
10
106.201
20
-102.592
11
106.207
21
-102.588
0
LINE
8
BLACK
6
CONTINUOUS
10
106.207
20
-102.588
11
106.212
21
-102.584
0
LINE
8
BLACK
6
CONTINUOUS
10
106.212
20
-102.584
11
106.218
21
-102.582
0
LINE
8
BLACK
6
CONTINUOUS
10
106.218
20
-102.582
11
106.224
21
-102.578
0
LINE
8
BLACK
6
CONTINUOUS
10
106.224
20
-102.578
11
106.231
21
-102.577
0
LINE
8
BLACK
6
CONTINUOUS
10
106.231
20
-102.577
11
106.237
21
-102.575
0
LINE
8
BLACK
6
CONTINUOUS
10
106.237
20
-102.575
11
106.243
21
-102.575
0
LINE
8
BLACK
6
CONTINUOUS
10
106.243
20
-102.575
11
106.243
21
-102.575
0
LINE
8
BLACK
6
CONTINUOUS
10
106.243
20
-102.575
11
109.757
21
-102.575
0
LINE
8
BLACK
6
CONTINUOUS
10
109.757
20
-102.575
11
109.757
21
-102.575
0
LINE
8
BLACK
6
CONTINUOUS
10
106.325
20
-102.725
11
106.325
21
-107.075
0
LINE
8
BLACK
6
CONTINUOUS
10
106.325
20
-107.075
11
109.675
21
-107.075
0
LINE
8
BLACK
6
CONTINUOUS
10
109.675
20
-107.075
11
109.675
21
-102.725
0
LINE
8
BLACK
6
CONTINUOUS
10
109.675
20
-102.725
11
106.325
21
-102.725
0
LINE
8
BLACK
6
CONTINUOUS
10
147.757
20
-102.575
11
147.763
21
-102.575
0
LINE
8
BLACK
6
CONTINUOUS
10
147.763
20
-102.575
11
147.769
21
-102.577
0
LINE
8
BLACK
6
CONTINUOUS
10
147.769
20
-102.577
11
147.776
21
-102.578
0
LINE
8
BLACK
6
CONTINUOUS
10
147.776
20
-102.578
11
147.782
21
-102.582
0
LINE
8
BLACK
6
CONTINUOUS
10
147.782
20
-102.582
11
147.788
21
-102.584
0
LINE
8
BLACK
6
CONTINUOUS
10
147.788
20
-102.584
11
147.793
21
-102.588
0
LINE
8
BLACK
6
CONTINUOUS
10
147.793
20
-102.588
11
147.799
21
-102.592
0
LINE
8
BLACK
6
CONTINUOUS
10
147.799
20
-102.592
11
147.803
21
-102.597
0
LINE
8
BLACK
6
CONTINUOUS
10
147.803
20
-102.597
11
147.808
21
-102.601
0
LINE
8
BLACK
6
CONTINUOUS
10
147.808
20
-102.601
11
147.812
21
-102.607
0
LINE
8
BLACK
6
CONTINUOUS
10
147.812
20
-102.607
11
147.816
21
-102.612
0
LINE
8
BLACK
6
CONTINUOUS
10
147.816
20
-102.612
11
147.818
21
-102.618
0
LINE
8
BLACK
6
CONTINUOUS
10
147.818
20
-102.618
11
147.822
21
-102.624
0
LINE
8
BLACK
6
CONTINUOUS
10
147.822
20
-102.624
11
147.823
21
-102.631
0
LINE
8
BLACK
6
CONTINUOUS
10
147.823
20
-102.631
11
147.825
21
-102.637
0
LINE
8
BLACK
6
CONTINUOUS
10
147.825
20
-102.637
11
147.825
21
-102.643
0
LINE
8
BLACK
6
CONTINUOUS
10
147.825
20
-102.643
11
147.825
21
-102.643
0
LINE
8
BLACK
6
CONTINUOUS
10
147.825
20
-102.643
11
147.825
21
-107.157
0
LINE
8
BLACK
6
CONTINUOUS
10
147.825
20
-107.157
11
147.825
21
-107.157
0
LINE
8
BLACK
6
CONTINUOUS
10
147.825
20
-107.157
11
147.825
21
-107.163
0
LINE
8
BLACK
6
CONTINUOUS
10
147.825
20
-107.163
11
147.823
21
-107.169
0
LINE
8
BLACK
6
CONTINUOUS
10
147.823
20
-107.169
11
147.822
21
-107.176
0
LINE
8
BLACK
6
CONTINUOUS
10
147.822
20
-107.176
11
147.818
21
-107.182
0
LINE
8
BLACK
6
CONTINUOUS
10
147.818
20
-107.182
11
147.816
21
-107.188
0
LINE
8
BLACK
6
CONTINUOUS
10
147.816
20
-107.188
11
147.812
21
-107.193
0
LINE
8
BLACK
6
CONTINUOUS
10
147.812
20
-107.193
11
147.808
21
-107.199
0
LINE
8
BLACK
6
CONTINUOUS
10
147.808
20
-107.199
11
147.803
21
-107.203
0
LINE
8
BLACK
6
CONTINUOUS
10
147.803
20
-107.203
11
147.799
21
-107.208
0
LINE
8
BLACK
6
CONTINUOUS
10
147.799
20
-107.208
11
147.793
21
-107.212
0
LINE
8
BLACK
6
CONTINUOUS
10
147.793
20
-107.212
11
147.788
21
-107.216
0
LINE
8
BLACK
6
CONTINUOUS
10
147.788
20
-107.216
11
147.782
21
-107.218
0
LINE
8
BLACK
6
CONTINUOUS
10
147.782
20
-107.218
11
147.776
21
-107.222
0
LINE
8
BLACK
6
CONTINUOUS
10
147.776
20
-107.222
11
147.769
21
-107.223
0
LINE
8
BLACK
6
CONTINUOUS
10
147.769
20
-107.223
11
147.763
21
-107.225
0
LINE
8
BLACK
6
CONTINUOUS
10
147.763
20
-107.225
11
147.757
21
-107.225
0
LINE
8
BLACK
6
CONTINUOUS
10
147.757
20
-107.225
11
147.757
21
-107.225
0
LINE
8
BLACK
6
CONTINUOUS
10
147.757
20
-107.225
11
144.243
21
-107.225
0
LINE
8
BLACK
6
CONTINUOUS
10
144.243
20
-107.225
11
144.224
21
-107.222
0
LINE
8
BLACK
6
CONTINUOUS
10
144.224
20
-107.222
11
144.201
21
-107.208
0
LINE
8
BLACK
6
CONTINUOUS
10
144.201
20
-107.208
11
144.184
21
-107.188
0
LINE
8
BLACK
6
CONTINUOUS
10
144.184
20
-107.188
11
144.175
21
-107.163
0
LINE
8
BLACK
6
CONTINUOUS
10
144.175
20
-107.163
11
144.175
21
-107.137
0
LINE
8
BLACK
6
CONTINUOUS
10
144.175
20
-107.137
11
144.179
21
-107.127
0
LINE
8
BLACK
6
CONTINUOUS
10
144.179
20
-107.127
11
144.178
21
-107.126
0
LINE
8
BLACK
6
CONTINUOUS
10
144.178
20
-107.126
11
144.175
21
-107.107
0
LINE
8
BLACK
6
CONTINUOUS
10
144.175
20
-107.107
11
144.175
21
-102.643
0
LINE
8
BLACK
6
CONTINUOUS
10
144.175
20
-102.643
11
144.175
21
-102.643
0
LINE
8
BLACK
6
CONTINUOUS
10
144.175
20
-102.643
11
144.175
21
-102.637
0
LINE
8
BLACK
6
CONTINUOUS
10
144.175
20
-102.637
11
144.177
21
-102.631
0
LINE
8
BLACK
6
CONTINUOUS
10
144.177
20
-102.631
11
144.178
21
-102.624
0
LINE
8
BLACK
6
CONTINUOUS
10
144.178
20
-102.624
11
144.182
21
-102.618
0
LINE
8
BLACK
6
CONTINUOUS
10
144.182
20
-102.618
11
144.184
21
-102.612
0
LINE
8
BLACK
6
CONTINUOUS
10
144.184
20
-102.612
11
144.188
21
-102.607
0
LINE
8
BLACK
6
CONTINUOUS
10
144.188
20
-102.607
11
144.192
21
-102.601
0
LINE
8
BLACK
6
CONTINUOUS
10
144.192
20
-102.601
11
144.197
21
-102.597
0
LINE
8
BLACK
6
CONTINUOUS
10
144.197
20
-102.597
11
144.201
21
-102.592
0
LINE
8
BLACK
6
CONTINUOUS
10
144.201
20
-102.592
11
144.207
21
-102.588
0
LINE
8
BLACK
6
CONTINUOUS
10
144.207
20
-102.588
11
144.212
21
-102.584
0
LINE
8
BLACK
6
CONTINUOUS
10
144.212
20
-102.584
11
144.218
21
-102.582
0
LINE
8
BLACK
6
CONTINUOUS
10
144.218
20
-102.582
11
144.224
21
-102.578
0
LINE
8
BLACK
6
CONTINUOUS
10
144.224
20
-102.578
11
144.231
21
-102.577
0
LINE
8
BLACK
6
CONTINUOUS
10
144.231
20
-102.577
11
144.237
21
-102.575
0
LINE
8
BLACK
6
CONTINUOUS
10
144.237
20
-102.575
11
144.243
21
-102.575
0
LINE
8
BLACK
6
CONTINUOUS
10
144.243
20
-102.575
11
144.243
21
-102.575
0
LINE
8
BLACK
6
CONTINUOUS
10
144.243
20
-102.575
11
147.757
21
-102.575
0
LINE
8
BLACK
6
CONTINUOUS
10
147.757
20
-102.575
11
147.757
21
-102.575
0
LINE
8
BLACK
6
CONTINUOUS
10
144.325
20
-102.725
11
144.325
21
-107.075
0
LINE
8
BLACK
6
CONTINUOUS
10
144.325
20
-107.075
11
147.675
21
-107.075
0
LINE
8
BLACK
6
CONTINUOUS
10
147.675
20
-107.075
11
147.675
21
-102.725
0
LINE
8
BLACK
6
CONTINUOUS
10
147.675
20
-102.725
11
144.325
21
-102.725
0
LINE
8
BLACK
6
CONTINUOUS
10
128.776
20
-100.178
11
128.799
21
-100.192
0
LINE
8
BLACK
6
CONTINUOUS
10
128.799
20
-100.192
11
128.816
21
-100.212
0
LINE
8
BLACK
6
CONTINUOUS
10
128.816
20
-100.212
11
128.825
21
-100.237
0
LINE
8
BLACK
6
CONTINUOUS
10
128.825
20
-100.237
11
128.825
21
-100.263
0
LINE
8
BLACK
6
CONTINUOUS
10
128.825
20
-100.263
11
128.821
21
-100.273
0
LINE
8
BLACK
6
CONTINUOUS
10
128.821
20
-100.273
11
128.822
21
-100.274
0
LINE
8
BLACK
6
CONTINUOUS
10
128.822
20
-100.274
11
128.825
21
-100.293
0
LINE
8
BLACK
6
CONTINUOUS
10
128.825
20
-100.293
11
128.825
21
-104.757
0
LINE
8
BLACK
6
CONTINUOUS
10
128.825
20
-104.757
11
128.825
21
-104.757
0
LINE
8
BLACK
6
CONTINUOUS
10
128.825
20
-104.757
11
128.825
21
-104.763
0
LINE
8
BLACK
6
CONTINUOUS
10
128.825
20
-104.763
11
128.823
21
-104.769
0
LINE
8
BLACK
6
CONTINUOUS
10
128.823
20
-104.769
11
128.822
21
-104.776
0
LINE
8
BLACK
6
CONTINUOUS
10
128.822
20
-104.776
11
128.818
21
-104.782
0
LINE
8
BLACK
6
CONTINUOUS
10
128.818
20
-104.782
11
128.816
21
-104.788
0
LINE
8
BLACK
6
CONTINUOUS
10
128.816
20
-104.788
11
128.812
21
-104.793
0
LINE
8
BLACK
6
CONTINUOUS
10
128.812
20
-104.793
11
128.808
21
-104.799
0
LINE
8
BLACK
6
CONTINUOUS
10
128.808
20
-104.799
11
128.803
21
-104.803
0
LINE
8
BLACK
6
CONTINUOUS
10
128.803
20
-104.803
11
128.799
21
-104.808
0
LINE
8
BLACK
6
CONTINUOUS
10
128.799
20
-104.808
11
128.793
21
-104.812
0
LINE
8
BLACK
6
CONTINUOUS
10
128.793
20
-104.812
11
128.788
21
-104.816
0
LINE
8
BLACK
6
CONTINUOUS
10
128.788
20
-104.816
11
128.782
21
-104.818
0
LINE
8
BLACK
6
CONTINUOUS
10
128.782
20
-104.818
11
128.776
21
-104.822
0
LINE
8
BLACK
6
CONTINUOUS
10
128.776
20
-104.822
11
128.769
21
-104.823
0
LINE
8
BLACK
6
CONTINUOUS
10
128.769
20
-104.823
11
128.763
21
-104.825
0
LINE
8
BLACK
6
CONTINUOUS
10
128.763
20
-104.825
11
128.757
21
-104.825
0
LINE
8
BLACK
6
CONTINUOUS
10
128.757
20
-104.825
11
128.757
21
-104.825
0
LINE
8
BLACK
6
CONTINUOUS
10
128.757
20
-104.825
11
125.243
21
-104.825
0
LINE
8
BLACK
6
CONTINUOUS
10
125.243
20
-104.825
11
125.243
21
-104.825
0
LINE
8
BLACK
6
CONTINUOUS
10
125.243
20
-104.825
11
125.237
21
-104.825
0
LINE
8
BLACK
6
CONTINUOUS
10
125.237
20
-104.825
11
125.231
21
-104.823
0
LINE
8
BLACK
6
CONTINUOUS
10
125.231
20
-104.823
11
125.224
21
-104.822
0
LINE
8
BLACK
6
CONTINUOUS
10
125.224
20
-104.822
11
125.218
21
-104.818
0
LINE
8
BLACK
6
CONTINUOUS
10
125.218
20
-104.818
11
125.212
21
-104.816
0
LINE
8
BLACK
6
CONTINUOUS
10
125.212
20
-104.816
11
125.207
21
-104.812
0
LINE
8
BLACK
6
CONTINUOUS
10
125.207
20
-104.812
11
125.201
21
-104.808
0
LINE
8
BLACK
6
CONTINUOUS
10
125.201
20
-104.808
11
125.197
21
-104.803
0
LINE
8
BLACK
6
CONTINUOUS
10
125.197
20
-104.803
11
125.192
21
-104.799
0
LINE
8
BLACK
6
CONTINUOUS
10
125.192
20
-104.799
11
125.188
21
-104.793
0
LINE
8
BLACK
6
CONTINUOUS
10
125.188
20
-104.793
11
125.184
21
-104.788
0
LINE
8
BLACK
6
CONTINUOUS
10
125.184
20
-104.788
11
125.182
21
-104.782
0
LINE
8
BLACK
6
CONTINUOUS
10
125.182
20
-104.782
11
125.178
21
-104.776
0
LINE
8
BLACK
6
CONTINUOUS
10
125.178
20
-104.776
11
125.177
21
-104.769
0
LINE
8
BLACK
6
CONTINUOUS
10
125.177
20
-104.769
11
125.175
21
-104.763
0
LINE
8
BLACK
6
CONTINUOUS
10
125.175
20
-104.763
11
125.175
21
-104.737
0
LINE
8
BLACK
6
CONTINUOUS
10
125.175
20
-104.737
11
125.175
21
-100.293
0
LINE
8
BLACK
6
CONTINUOUS
10
125.175
20
-100.293
11
125.178
21
-100.274
0
LINE
8
BLACK
6
CONTINUOUS
10
125.178
20
-100.274
11
125.179
21
-100.273
0
LINE
8
BLACK
6
CONTINUOUS
10
125.179
20
-100.273
11
125.175
21
-100.263
0
LINE
8
BLACK
6
CONTINUOUS
10
125.175
20
-100.263
11
125.175
21
-100.237
0
LINE
8
BLACK
6
CONTINUOUS
10
125.175
20
-100.237
11
125.184
21
-100.212
0
LINE
8
BLACK
6
CONTINUOUS
10
125.184
20
-100.212
11
125.201
21
-100.192
0
LINE
8
BLACK
6
CONTINUOUS
10
125.201
20
-100.192
11
125.224
21
-100.178
0
LINE
8
BLACK
6
CONTINUOUS
10
125.224
20
-100.178
11
125.243
21
-100.175
0
LINE
8
BLACK
6
CONTINUOUS
10
125.243
20
-100.175
11
128.757
21
-100.175
0
LINE
8
BLACK
6
CONTINUOUS
10
128.757
20
-100.175
11
128.776
21
-100.178
0
LINE
8
BLACK
6
CONTINUOUS
10
125.325
20
-100.325
11
125.325
21
-104.675
0
LINE
8
BLACK
6
CONTINUOUS
10
125.325
20
-104.675
11
128.675
21
-104.675
0
LINE
8
BLACK
6
CONTINUOUS
10
128.675
20
-104.675
11
128.675
21
-100.325
0
LINE
8
BLACK
6
CONTINUOUS
10
128.675
20
-100.325
11
125.325
21
-100.325
0
LINE
8
BLACK
6
CONTINUOUS
10
79.5032
20
-77.9261
11
79.513
21
-77.9261
0
LINE
8
BLACK
6
CONTINUOUS
10
79.513
20
-77.9261
11
79.684
21
-77.9563
0
LINE
8
BLACK
6
CONTINUOUS
10
79.684
20
-77.9563
11
79.7085
21
-77.9652
0
LINE
8
BLACK
6
CONTINUOUS
10
79.7085
20
-77.9652
11
79.8589
21
-78.052
0
LINE
8
BLACK
6
CONTINUOUS
10
79.8589
20
-78.052
11
79.8788
21
-78.0688
0
LINE
8
BLACK
6
CONTINUOUS
10
79.8788
20
-78.0688
11
79.9905
21
-78.2018
0
LINE
8
BLACK
6
CONTINUOUS
10
79.9905
20
-78.2018
11
80.0035
21
-78.2243
0
LINE
8
BLACK
6
CONTINUOUS
10
80.0035
20
-78.2243
11
80.0629
21
-78.3875
0
LINE
8
BLACK
6
CONTINUOUS
10
80.0629
20
-78.3875
11
80.0646
21
-78.3972
0
LINE
8
BLACK
6
CONTINUOUS
10
80.0646
20
-78.3972
11
80.0671
21
-78.4066
0
LINE
8
BLACK
6
CONTINUOUS
10
80.0671
20
-78.4066
11
80.0744
21
-78.4902
0
LINE
8
BLACK
6
CONTINUOUS
10
80.0744
20
-78.4902
11
80.075
21
-78.4934
0
LINE
8
BLACK
6
CONTINUOUS
10
80.075
20
-78.4934
11
80.075
21
-94.5066
0
LINE
8
BLACK
6
CONTINUOUS
10
80.075
20
-94.5066
11
80.0739
21
-94.513
0
LINE
8
BLACK
6
CONTINUOUS
10
80.0739
20
-94.513
11
80.0739
21
-94.513
0
LINE
8
BLACK
6
CONTINUOUS
10
80.0739
20
-94.513
11
80.0437
21
-94.684
0
LINE
8
BLACK
6
CONTINUOUS
10
80.0437
20
-94.684
11
80.0348
21
-94.7085
0
LINE
8
BLACK
6
CONTINUOUS
10
80.0348
20
-94.7085
11
80.0348
21
-94.7085
0
LINE
8
BLACK
6
CONTINUOUS
10
80.0348
20
-94.7085
11
79.948
21
-94.8589
0
LINE
8
BLACK
6
CONTINUOUS
10
79.948
20
-94.8589
11
79.9312
21
-94.8788
0
LINE
8
BLACK
6
CONTINUOUS
10
79.9312
20
-94.8788
11
79.9312
21
-94.8788
0
LINE
8
BLACK
6
CONTINUOUS
10
79.9312
20
-94.8788
11
79.7982
21
-94.9905
0
LINE
8
BLACK
6
CONTINUOUS
10
79.7982
20
-94.9905
11
79.7757
21
-95.0035
0
LINE
8
BLACK
6
CONTINUOUS
10
79.7757
20
-95.0035
11
79.6125
21
-95.0629
0
LINE
8
BLACK
6
CONTINUOUS
10
79.6125
20
-95.0629
11
79.6028
21
-95.0646
0
LINE
8
BLACK
6
CONTINUOUS
10
79.6028
20
-95.0646
11
79.5934
21
-95.0671
0
LINE
8
BLACK
6
CONTINUOUS
10
79.5934
20
-95.0671
11
79.5065
21
-95.0747
0
LINE
8
BLACK
6
CONTINUOUS
10
79.5065
20
-95.0747
11
79.4968
21
-95.0739
0
LINE
8
BLACK
6
CONTINUOUS
10
79.4968
20
-95.0739
11
79.487
21
-95.0739
0
LINE
8
BLACK
6
CONTINUOUS
10
79.487
20
-95.0739
11
79.316
21
-95.0437
0
LINE
8
BLACK
6
CONTINUOUS
10
79.316
20
-95.0437
11
79.2915
21
-95.0348
0
LINE
8
BLACK
6
CONTINUOUS
10
79.2915
20
-95.0348
11
79.2915
21
-95.0348
0
LINE
8
BLACK
6
CONTINUOUS
10
79.2915
20
-95.0348
11
79.1411
21
-94.948
0
LINE
8
BLACK
6
CONTINUOUS
10
79.1411
20
-94.948
11
79.1212
21
-94.9312
0
LINE
8
BLACK
6
CONTINUOUS
10
79.1212
20
-94.9312
11
79.1212
21
-94.9312
0
LINE
8
BLACK
6
CONTINUOUS
10
79.1212
20
-94.9312
11
79.0095
21
-94.7982
0
LINE
8
BLACK
6
CONTINUOUS
10
79.0095
20
-94.7982
11
78.9965
21
-94.7757
0
LINE
8
BLACK
6
CONTINUOUS
10
78.9965
20
-94.7757
11
78.9371
21
-94.6125
0
LINE
8
BLACK
6
CONTINUOUS
10
78.9371
20
-94.6125
11
78.9354
21
-94.6028
0
LINE
8
BLACK
6
CONTINUOUS
10
78.9354
20
-94.6028
11
78.9329
21
-94.5934
0
LINE
8
BLACK
6
CONTINUOUS
10
78.9329
20
-94.5934
11
78.9256
21
-94.5098
0
LINE
8
BLACK
6
CONTINUOUS
10
78.9256
20
-94.5098
11
78.925
21
-94.5066
0
LINE
8
BLACK
6
CONTINUOUS
10
78.925
20
-94.5066
11
78.925
21
-78.4934
0
LINE
8
BLACK
6
CONTINUOUS
10
78.925
20
-78.4934
11
78.9261
21
-78.487
0
LINE
8
BLACK
6
CONTINUOUS
10
78.9261
20
-78.487
11
78.9261
21
-78.487
0
LINE
8
BLACK
6
CONTINUOUS
10
78.9261
20
-78.487
11
78.9563
21
-78.316
0
LINE
8
BLACK
6
CONTINUOUS
10
78.9563
20
-78.316
11
78.9652
21
-78.2915
0
LINE
8
BLACK
6
CONTINUOUS
10
78.9652
20
-78.2915
11
79.052
21
-78.1411
0
LINE
8
BLACK
6
CONTINUOUS
10
79.052
20
-78.1411
11
79.0688
21
-78.1212
0
LINE
8
BLACK
6
CONTINUOUS
10
79.0688
20
-78.1212
11
79.2018
21
-78.0095
0
LINE
8
BLACK
6
CONTINUOUS
10
79.2018
20
-78.0095
11
79.2243
21
-77.9965
0
LINE
8
BLACK
6
CONTINUOUS
10
79.2243
20
-77.9965
11
79.3875
21
-77.9371
0
LINE
8
BLACK
6
CONTINUOUS
10
79.3875
20
-77.9371
11
79.3972
21
-77.9354
0
LINE
8
BLACK
6
CONTINUOUS
10
79.3972
20
-77.9354
11
79.4066
21
-77.9329
0
LINE
8
BLACK
6
CONTINUOUS
10
79.4066
20
-77.9329
11
79.4935
21
-77.9253
0
LINE
8
BLACK
6
CONTINUOUS
10
79.4935
20
-77.9253
11
79.5032
21
-77.9261
0
LINE
8
BLACK
6
CONTINUOUS
10
79.4295
20
-78.0815
11
79.2881
21
-78.1329
0
LINE
8
BLACK
6
CONTINUOUS
10
79.2881
20
-78.1329
11
79.1753
21
-78.2276
0
LINE
8
BLACK
6
CONTINUOUS
10
79.1753
20
-78.2276
11
79.1017
21
-78.355
0
LINE
8
BLACK
6
CONTINUOUS
10
79.1017
20
-78.355
11
79.075
21
-78.5066
0
LINE
8
BLACK
6
CONTINUOUS
10
79.075
20
-78.5066
11
79.075
21
-94.4967
0
LINE
8
BLACK
6
CONTINUOUS
10
79.075
20
-94.4967
11
79.0815
21
-94.5705
0
LINE
8
BLACK
6
CONTINUOUS
10
79.0815
20
-94.5705
11
79.1329
21
-94.7119
0
LINE
8
BLACK
6
CONTINUOUS
10
79.1329
20
-94.7119
11
79.2276
21
-94.8247
0
LINE
8
BLACK
6
CONTINUOUS
10
79.2276
20
-94.8247
11
79.355
21
-94.8983
0
LINE
8
BLACK
6
CONTINUOUS
10
79.355
20
-94.8983
11
79.5033
21
-94.9244
0
LINE
8
BLACK
6
CONTINUOUS
10
79.5033
20
-94.9244
11
79.5705
21
-94.9185
0
LINE
8
BLACK
6
CONTINUOUS
10
79.5705
20
-94.9185
11
79.7119
21
-94.8671
0
LINE
8
BLACK
6
CONTINUOUS
10
79.7119
20
-94.8671
11
79.8247
21
-94.7724
0
LINE
8
BLACK
6
CONTINUOUS
10
79.8247
20
-94.7724
11
79.8983
21
-94.645
0
LINE
8
BLACK
6
CONTINUOUS
10
79.8983
20
-94.645
11
79.925
21
-94.4934
0
LINE
8
BLACK
6
CONTINUOUS
10
79.925
20
-94.4934
11
79.925
21
-78.5033
0
LINE
8
BLACK
6
CONTINUOUS
10
79.925
20
-78.5033
11
79.9185
21
-78.4295
0
LINE
8
BLACK
6
CONTINUOUS
10
79.9185
20
-78.4295
11
79.8671
21
-78.2881
0
LINE
8
BLACK
6
CONTINUOUS
10
79.8671
20
-78.2881
11
79.7724
21
-78.1753
0
LINE
8
BLACK
6
CONTINUOUS
10
79.7724
20
-78.1753
11
79.645
21
-78.1017
0
LINE
8
BLACK
6
CONTINUOUS
10
79.645
20
-78.1017
11
79.4967
21
-78.0756
0
LINE
8
BLACK
6
CONTINUOUS
10
79.4967
20
-78.0756
11
79.4295
21
-78.0815
0
LINE
8
BLACK
6
CONTINUOUS
10
71.7566
20
-88.325
11
71.7632
21
-88.325
0
LINE
8
BLACK
6
CONTINUOUS
10
71.7632
20
-88.325
11
71.7695
21
-88.3273
0
LINE
8
BLACK
6
CONTINUOUS
10
71.7695
20
-88.3273
11
71.776
21
-88.3284
0
LINE
8
BLACK
6
CONTINUOUS
10
71.776
20
-88.3284
11
71.7818
21
-88.3318
0
LINE
8
BLACK
6
CONTINUOUS
10
71.7818
20
-88.3318
11
71.7881
21
-88.334
0
LINE
8
BLACK
6
CONTINUOUS
10
71.7881
20
-88.334
11
71.7932
21
-88.3383
0
LINE
8
BLACK
6
CONTINUOUS
10
71.7932
20
-88.3383
11
71.799
21
-88.3417
0
LINE
8
BLACK
6
CONTINUOUS
10
71.799
20
-88.3417
11
71.8032
21
-88.3468
0
LINE
8
BLACK
6
CONTINUOUS
10
71.8032
20
-88.3468
11
71.8083
21
-88.351
0
LINE
8
BLACK
6
CONTINUOUS
10
71.8083
20
-88.351
11
71.8117
21
-88.3568
0
LINE
8
BLACK
6
CONTINUOUS
10
71.8117
20
-88.3568
11
71.816
21
-88.3619
0
LINE
8
BLACK
6
CONTINUOUS
10
71.816
20
-88.3619
11
71.8182
21
-88.3682
0
LINE
8
BLACK
6
CONTINUOUS
10
71.8182
20
-88.3682
11
71.8216
21
-88.374
0
LINE
8
BLACK
6
CONTINUOUS
10
71.8216
20
-88.374
11
71.8227
21
-88.3805
0
LINE
8
BLACK
6
CONTINUOUS
10
71.8227
20
-88.3805
11
71.825
21
-88.3868
0
LINE
8
BLACK
6
CONTINUOUS
10
71.825
20
-88.3868
11
71.825
21
-88.3934
0
LINE
8
BLACK
6
CONTINUOUS
10
71.825
20
-88.3934
11
71.825
21
-88.3934
0
LINE
8
BLACK
6
CONTINUOUS
10
71.825
20
-88.3934
11
71.825
21
-92.9066
0
LINE
8
BLACK
6
CONTINUOUS
10
71.825
20
-92.9066
11
71.825
21
-92.9066
0
LINE
8
BLACK
6
CONTINUOUS
10
71.825
20
-92.9066
11
71.825
21
-92.9132
0
LINE
8
BLACK
6
CONTINUOUS
10
71.825
20
-92.9132
11
71.8227
21
-92.9195
0
LINE
8
BLACK
6
CONTINUOUS
10
71.8227
20
-92.9195
11
71.8216
21
-92.926
0
LINE
8
BLACK
6
CONTINUOUS
10
71.8216
20
-92.926
11
71.8182
21
-92.9318
0
LINE
8
BLACK
6
CONTINUOUS
10
71.8182
20
-92.9318
11
71.816
21
-92.9381
0
LINE
8
BLACK
6
CONTINUOUS
10
71.816
20
-92.9381
11
71.8117
21
-92.9432
0
LINE
8
BLACK
6
CONTINUOUS
10
71.8117
20
-92.9432
11
71.8083
21
-92.949
0
LINE
8
BLACK
6
CONTINUOUS
10
71.8083
20
-92.949
11
71.8032
21
-92.9532
0
LINE
8
BLACK
6
CONTINUOUS
10
71.8032
20
-92.9532
11
71.799
21
-92.9583
0
LINE
8
BLACK
6
CONTINUOUS
10
71.799
20
-92.9583
11
71.7932
21
-92.9617
0
LINE
8
BLACK
6
CONTINUOUS
10
71.7932
20
-92.9617
11
71.7881
21
-92.966
0
LINE
8
BLACK
6
CONTINUOUS
10
71.7881
20
-92.966
11
71.7818
21
-92.9682
0
LINE
8
BLACK
6
CONTINUOUS
10
71.7818
20
-92.9682
11
71.776
21
-92.9716
0
LINE
8
BLACK
6
CONTINUOUS
10
71.776
20
-92.9716
11
71.7695
21
-92.9727
0
LINE
8
BLACK
6
CONTINUOUS
10
71.7695
20
-92.9727
11
71.7632
21
-92.975
0
LINE
8
BLACK
6
CONTINUOUS
10
71.7632
20
-92.975
11
71.7566
21
-92.975
0
LINE
8
BLACK
6
CONTINUOUS
10
71.7566
20
-92.975
11
71.7566
21
-92.975
0
LINE
8
BLACK
6
CONTINUOUS
10
71.7566
20
-92.975
11
68.2434
21
-92.975
0
LINE
8
BLACK
6
CONTINUOUS
10
68.2434
20
-92.975
11
68.2434
21
-92.975
0
LINE
8
BLACK
6
CONTINUOUS
10
68.2434
20
-92.975
11
68.2368
21
-92.975
0
LINE
8
BLACK
6
CONTINUOUS
10
68.2368
20
-92.975
11
68.2305
21
-92.9727
0
LINE
8
BLACK
6
CONTINUOUS
10
68.2305
20
-92.9727
11
68.224
21
-92.9716
0
LINE
8
BLACK
6
CONTINUOUS
10
68.224
20
-92.9716
11
68.2182
21
-92.9682
0
LINE
8
BLACK
6
CONTINUOUS
10
68.2182
20
-92.9682
11
68.2119
21
-92.966
0
LINE
8
BLACK
6
CONTINUOUS
10
68.2119
20
-92.966
11
68.2068
21
-92.9617
0
LINE
8
BLACK
6
CONTINUOUS
10
68.2068
20
-92.9617
11
68.201
21
-92.9583
0
LINE
8
BLACK
6
CONTINUOUS
10
68.201
20
-92.9583
11
68.1968
21
-92.9532
0
LINE
8
BLACK
6
CONTINUOUS
10
68.1968
20
-92.9532
11
68.1917
21
-92.949
0
LINE
8
BLACK
6
CONTINUOUS
10
68.1917
20
-92.949
11
68.1883
21
-92.9432
0
LINE
8
BLACK
6
CONTINUOUS
10
68.1883
20
-92.9432
11
68.184
21
-92.9381
0
LINE
8
BLACK
6
CONTINUOUS
10
68.184
20
-92.9381
11
68.1818
21
-92.9318
0
LINE
8
BLACK
6
CONTINUOUS
10
68.1818
20
-92.9318
11
68.1784
21
-92.926
0
LINE
8
BLACK
6
CONTINUOUS
10
68.1784
20
-92.926
11
68.1773
21
-92.9195
0
LINE
8
BLACK
6
CONTINUOUS
10
68.1773
20
-92.9195
11
68.175
21
-92.9132
0
LINE
8
BLACK
6
CONTINUOUS
10
68.175
20
-92.9132
11
68.175
21
-92.8868
0
LINE
8
BLACK
6
CONTINUOUS
10
68.175
20
-92.8868
11
68.175
21
-88.3934
0
LINE
8
BLACK
6
CONTINUOUS
10
68.175
20
-88.3934
11
68.175
21
-88.3934
0
LINE
8
BLACK
6
CONTINUOUS
10
68.175
20
-88.3934
11
68.175
21
-88.3868
0
LINE
8
BLACK
6
CONTINUOUS
10
68.175
20
-88.3868
11
68.1773
21
-88.3805
0
LINE
8
BLACK
6
CONTINUOUS
10
68.1773
20
-88.3805
11
68.1784
21
-88.374
0
LINE
8
BLACK
6
CONTINUOUS
10
68.1784
20
-88.374
11
68.1818
21
-88.3682
0
LINE
8
BLACK
6
CONTINUOUS
10
68.1818
20
-88.3682
11
68.184
21
-88.3619
0
LINE
8
BLACK
6
CONTINUOUS
10
68.184
20
-88.3619
11
68.1883
21
-88.3568
0
LINE
8
BLACK
6
CONTINUOUS
10
68.1883
20
-88.3568
11
68.1917
21
-88.351
0
LINE
8
BLACK
6
CONTINUOUS
10
68.1917
20
-88.351
11
68.1968
21
-88.3468
0
LINE
8
BLACK
6
CONTINUOUS
10
68.1968
20
-88.3468
11
68.201
21
-88.3417
0
LINE
8
BLACK
6
CONTINUOUS
10
68.201
20
-88.3417
11
68.2068
21
-88.3383
0
LINE
8
BLACK
6
CONTINUOUS
10
68.2068
20
-88.3383
11
68.2119
21
-88.334
0
LINE
8
BLACK
6
CONTINUOUS
10
68.2119
20
-88.334
11
68.2182
21
-88.3318
0
LINE
8
BLACK
6
CONTINUOUS
10
68.2182
20
-88.3318
11
68.224
21
-88.3284
0
LINE
8
BLACK
6
CONTINUOUS
10
68.224
20
-88.3284
11
68.2305
21
-88.3273
0
LINE
8
BLACK
6
CONTINUOUS
10
68.2305
20
-88.3273
11
68.2368
21
-88.325
0
LINE
8
BLACK
6
CONTINUOUS
10
68.2368
20
-88.325
11
68.2434
21
-88.325
0
LINE
8
BLACK
6
CONTINUOUS
10
68.2434
20
-88.325
11
68.2434
21
-88.325
0
LINE
8
BLACK
6
CONTINUOUS
10
68.2434
20
-88.325
11
71.7566
21
-88.325
0
LINE
8
BLACK
6
CONTINUOUS
10
71.7566
20
-88.325
11
71.7566
21
-88.325
0
LINE
8
BLACK
6
CONTINUOUS
10
68.325
20
-88.475
11
68.325
21
-92.825
0
LINE
8
BLACK
6
CONTINUOUS
10
68.325
20
-92.825
11
71.675
21
-92.825
0
LINE
8
BLACK
6
CONTINUOUS
10
71.675
20
-92.825
11
71.675
21
-88.475
0
LINE
8
BLACK
6
CONTINUOUS
10
71.675
20
-88.475
11
68.325
21
-88.475
0
LINE
8
BLACK
6
CONTINUOUS
10
90.7566
20
-88.325
11
90.7632
21
-88.325
0
LINE
8
BLACK
6
CONTINUOUS
10
90.7632
20
-88.325
11
90.7695
21
-88.3273
0
LINE
8
BLACK
6
CONTINUOUS
10
90.7695
20
-88.3273
11
90.776
21
-88.3284
0
LINE
8
BLACK
6
CONTINUOUS
10
90.776
20
-88.3284
11
90.7818
21
-88.3318
0
LINE
8
BLACK
6
CONTINUOUS
10
90.7818
20
-88.3318
11
90.7881
21
-88.334
0
LINE
8
BLACK
6
CONTINUOUS
10
90.7881
20
-88.334
11
90.7932
21
-88.3383
0
LINE
8
BLACK
6
CONTINUOUS
10
90.7932
20
-88.3383
11
90.799
21
-88.3417
0
LINE
8
BLACK
6
CONTINUOUS
10
90.799
20
-88.3417
11
90.8032
21
-88.3468
0
LINE
8
BLACK
6
CONTINUOUS
10
90.8032
20
-88.3468
11
90.8083
21
-88.351
0
LINE
8
BLACK
6
CONTINUOUS
10
90.8083
20
-88.351
11
90.8117
21
-88.3568
0
LINE
8
BLACK
6
CONTINUOUS
10
90.8117
20
-88.3568
11
90.816
21
-88.3619
0
LINE
8
BLACK
6
CONTINUOUS
10
90.816
20
-88.3619
11
90.8182
21
-88.3682
0
LINE
8
BLACK
6
CONTINUOUS
10
90.8182
20
-88.3682
11
90.8216
21
-88.374
0
LINE
8
BLACK
6
CONTINUOUS
10
90.8216
20
-88.374
11
90.8227
21
-88.3805
0
LINE
8
BLACK
6
CONTINUOUS
10
90.8227
20
-88.3805
11
90.825
21
-88.3868
0
LINE
8
BLACK
6
CONTINUOUS
10
90.825
20
-88.3868
11
90.825
21
-88.3934
0
LINE
8
BLACK
6
CONTINUOUS
10
90.825
20
-88.3934
11
90.825
21
-88.3934
0
LINE
8
BLACK
6
CONTINUOUS
10
90.825
20
-88.3934
11
90.825
21
-92.9066
0
LINE
8
BLACK
6
CONTINUOUS
10
90.825
20
-92.9066
11
90.825
21
-92.9066
0
LINE
8
BLACK
6
CONTINUOUS
10
90.825
20
-92.9066
11
90.825
21
-92.9132
0
LINE
8
BLACK
6
CONTINUOUS
10
90.825
20
-92.9132
11
90.8227
21
-92.9195
0
LINE
8
BLACK
6
CONTINUOUS
10
90.8227
20
-92.9195
11
90.8216
21
-92.926
0
LINE
8
BLACK
6
CONTINUOUS
10
90.8216
20
-92.926
11
90.8182
21
-92.9318
0
LINE
8
BLACK
6
CONTINUOUS
10
90.8182
20
-92.9318
11
90.816
21
-92.9381
0
LINE
8
BLACK
6
CONTINUOUS
10
90.816
20
-92.9381
11
90.8117
21
-92.9432
0
LINE
8
BLACK
6
CONTINUOUS
10
90.8117
20
-92.9432
11
90.8083
21
-92.949
0
LINE
8
BLACK
6
CONTINUOUS
10
90.8083
20
-92.949
11
90.8032
21
-92.9532
0
LINE
8
BLACK
6
CONTINUOUS
10
90.8032
20
-92.9532
11
90.799
21
-92.9583
0
LINE
8
BLACK
6
CONTINUOUS
10
90.799
20
-92.9583
11
90.7932
21
-92.9617
0
LINE
8
BLACK
6
CONTINUOUS
10
90.7932
20
-92.9617
11
90.7881
21
-92.966
0
LINE
8
BLACK
6
CONTINUOUS
10
90.7881
20
-92.966
11
90.7818
21
-92.9682
0
LINE
8
BLACK
6
CONTINUOUS
10
90.7818
20
-92.9682
11
90.776
21
-92.9716
0
LINE
8
BLACK
6
CONTINUOUS
10
90.776
20
-92.9716
11
90.7695
21
-92.9727
0
LINE
8
BLACK
6
CONTINUOUS
10
90.7695
20
-92.9727
11
90.7632
21
-92.975
0
LINE
8
BLACK
6
CONTINUOUS
10
90.7632
20
-92.975
11
90.7566
21
-92.975
0
LINE
8
BLACK
6
CONTINUOUS
10
90.7566
20
-92.975
11
90.7566
21
-92.975
0
LINE
8
BLACK
6
CONTINUOUS
10
90.7566
20
-92.975
11
87.2434
21
-92.975
0
LINE
8
BLACK
6
CONTINUOUS
10
87.2434
20
-92.975
11
87.2434
21
-92.975
0
LINE
8
BLACK
6
CONTINUOUS
10
87.2434
20
-92.975
11
87.2368
21
-92.975
0
LINE
8
BLACK
6
CONTINUOUS
10
87.2368
20
-92.975
11
87.2305
21
-92.9727
0
LINE
8
BLACK
6
CONTINUOUS
10
87.2305
20
-92.9727
11
87.224
21
-92.9716
0
LINE
8
BLACK
6
CONTINUOUS
10
87.224
20
-92.9716
11
87.2182
21
-92.9682
0
LINE
8
BLACK
6
CONTINUOUS
10
87.2182
20
-92.9682
11
87.2119
21
-92.966
0
LINE
8
BLACK
6
CONTINUOUS
10
87.2119
20
-92.966
11
87.2068
21
-92.9617
0
LINE
8
BLACK
6
CONTINUOUS
10
87.2068
20
-92.9617
11
87.201
21
-92.9583
0
LINE
8
BLACK
6
CONTINUOUS
10
87.201
20
-92.9583
11
87.1968
21
-92.9532
0
LINE
8
BLACK
6
CONTINUOUS
10
87.1968
20
-92.9532
11
87.1917
21
-92.949
0
LINE
8
BLACK
6
CONTINUOUS
10
87.1917
20
-92.949
11
87.1883
21
-92.9432
0
LINE
8
BLACK
6
CONTINUOUS
10
87.1883
20
-92.9432
11
87.184
21
-92.9381
0
LINE
8
BLACK
6
CONTINUOUS
10
87.184
20
-92.9381
11
87.1818
21
-92.9318
0
LINE
8
BLACK
6
CONTINUOUS
10
87.1818
20
-92.9318
11
87.1784
21
-92.926
0
LINE
8
BLACK
6
CONTINUOUS
10
87.1784
20
-92.926
11
87.1773
21
-92.9195
0
LINE
8
BLACK
6
CONTINUOUS
10
87.1773
20
-92.9195
11
87.175
21
-92.9132
0
LINE
8
BLACK
6
CONTINUOUS
10
87.175
20
-92.9132
11
87.175
21
-92.8868
0
LINE
8
BLACK
6
CONTINUOUS
10
87.175
20
-92.8868
11
87.175
21
-88.3934
0
LINE
8
BLACK
6
CONTINUOUS
10
87.175
20
-88.3934
11
87.175
21
-88.3934
0
LINE
8
BLACK
6
CONTINUOUS
10
87.175
20
-88.3934
11
87.175
21
-88.3868
0
LINE
8
BLACK
6
CONTINUOUS
10
87.175
20
-88.3868
11
87.1773
21
-88.3805
0
LINE
8
BLACK
6
CONTINUOUS
10
87.1773
20
-88.3805
11
87.1784
21
-88.374
0
LINE
8
BLACK
6
CONTINUOUS
10
87.1784
20
-88.374
11
87.1818
21
-88.3682
0
LINE
8
BLACK
6
CONTINUOUS
10
87.1818
20
-88.3682
11
87.184
21
-88.3619
0
LINE
8
BLACK
6
CONTINUOUS
10
87.184
20
-88.3619
11
87.1883
21
-88.3568
0
LINE
8
BLACK
6
CONTINUOUS
10
87.1883
20
-88.3568
11
87.1917
21
-88.351
0
LINE
8
BLACK
6
CONTINUOUS
10
87.1917
20
-88.351
11
87.1968
21
-88.3468
0
LINE
8
BLACK
6
CONTINUOUS
10
87.1968
20
-88.3468
11
87.201
21
-88.3417
0
LINE
8
BLACK
6
CONTINUOUS
10
87.201
20
-88.3417
11
87.2068
21
-88.3383
0
LINE
8
BLACK
6
CONTINUOUS
10
87.2068
20
-88.3383
11
87.2119
21
-88.334
0
LINE
8
BLACK
6
CONTINUOUS
10
87.2119
20
-88.334
11
87.2182
21
-88.3318
0
LINE
8
BLACK
6
CONTINUOUS
10
87.2182
20
-88.3318
11
87.224
21
-88.3284
0
LINE
8
BLACK
6
CONTINUOUS
10
87.224
20
-88.3284
11
87.2305
21
-88.3273
0
LINE
8
BLACK
6
CONTINUOUS
10
87.2305
20
-88.3273
11
87.2368
21
-88.325
0
LINE
8
BLACK
6
CONTINUOUS
10
87.2368
20
-88.325
11
87.2434
21
-88.325
0
LINE
8
BLACK
6
CONTINUOUS
10
87.2434
20
-88.325
11
87.2434
21
-88.325
0
LINE
8
BLACK
6
CONTINUOUS
10
87.2434
20
-88.325
11
90.7566
21
-88.325
0
LINE
8
BLACK
6
CONTINUOUS
10
90.7566
20
-88.325
11
90.7566
21
-88.325
0
LINE
8
BLACK
6
CONTINUOUS
10
87.325
20
-88.475
11
87.325
21
-92.825
0
LINE
8
BLACK
6
CONTINUOUS
10
87.325
20
-92.825
11
90.675
21
-92.825
0
LINE
8
BLACK
6
CONTINUOUS
10
90.675
20
-92.825
11
90.675
21
-88.475
0
LINE
8
BLACK
6
CONTINUOUS
10
90.675
20
-88.475
11
87.325
21
-88.475
0
LINE
8
BLACK
6
CONTINUOUS
10
166.757
20
-85.925
11
166.763
21
-85.925
0
LINE
8
BLACK
6
CONTINUOUS
10
166.763
20
-85.925
11
166.769
21
-85.9273
0
LINE
8
BLACK
6
CONTINUOUS
10
166.769
20
-85.9273
11
166.776
21
-85.9284
0
LINE
8
BLACK
6
CONTINUOUS
10
166.776
20
-85.9284
11
166.782
21
-85.9318
0
LINE
8
BLACK
6
CONTINUOUS
10
166.782
20
-85.9318
11
166.788
21
-85.934
0
LINE
8
BLACK
6
CONTINUOUS
10
166.788
20
-85.934
11
166.793
21
-85.9383
0
LINE
8
BLACK
6
CONTINUOUS
10
166.793
20
-85.9383
11
166.799
21
-85.9417
0
LINE
8
BLACK
6
CONTINUOUS
10
166.799
20
-85.9417
11
166.803
21
-85.9468
0
LINE
8
BLACK
6
CONTINUOUS
10
166.803
20
-85.9468
11
166.808
21
-85.951
0
LINE
8
BLACK
6
CONTINUOUS
10
166.808
20
-85.951
11
166.812
21
-85.9568
0
LINE
8
BLACK
6
CONTINUOUS
10
166.812
20
-85.9568
11
166.816
21
-85.9619
0
LINE
8
BLACK
6
CONTINUOUS
10
166.816
20
-85.9619
11
166.818
21
-85.9682
0
LINE
8
BLACK
6
CONTINUOUS
10
166.818
20
-85.9682
11
166.822
21
-85.974
0
LINE
8
BLACK
6
CONTINUOUS
10
166.822
20
-85.974
11
166.823
21
-85.9805
0
LINE
8
BLACK
6
CONTINUOUS
10
166.823
20
-85.9805
11
166.825
21
-85.9868
0
LINE
8
BLACK
6
CONTINUOUS
10
166.825
20
-85.9868
11
166.825
21
-85.9934
0
LINE
8
BLACK
6
CONTINUOUS
10
166.825
20
-85.9934
11
166.825
21
-85.9934
0
LINE
8
BLACK
6
CONTINUOUS
10
166.825
20
-85.9934
11
166.825
21
-90.5066
0
LINE
8
BLACK
6
CONTINUOUS
10
166.825
20
-90.5066
11
166.825
21
-90.5066
0
LINE
8
BLACK
6
CONTINUOUS
10
166.825
20
-90.5066
11
166.825
21
-90.5132
0
LINE
8
BLACK
6
CONTINUOUS
10
166.825
20
-90.5132
11
166.823
21
-90.5195
0
LINE
8
BLACK
6
CONTINUOUS
10
166.823
20
-90.5195
11
166.822
21
-90.526
0
LINE
8
BLACK
6
CONTINUOUS
10
166.822
20
-90.526
11
166.818
21
-90.5318
0
LINE
8
BLACK
6
CONTINUOUS
10
166.818
20
-90.5318
11
166.816
21
-90.5381
0
LINE
8
BLACK
6
CONTINUOUS
10
166.816
20
-90.5381
11
166.812
21
-90.5432
0
LINE
8
BLACK
6
CONTINUOUS
10
166.812
20
-90.5432
11
166.808
21
-90.549
0
LINE
8
BLACK
6
CONTINUOUS
10
166.808
20
-90.549
11
166.803
21
-90.5532
0
LINE
8
BLACK
6
CONTINUOUS
10
166.803
20
-90.5532
11
166.799
21
-90.5583
0
LINE
8
BLACK
6
CONTINUOUS
10
166.799
20
-90.5583
11
166.793
21
-90.5617
0
LINE
8
BLACK
6
CONTINUOUS
10
166.793
20
-90.5617
11
166.788
21
-90.566
0
LINE
8
BLACK
6
CONTINUOUS
10
166.788
20
-90.566
11
166.782
21
-90.5682
0
LINE
8
BLACK
6
CONTINUOUS
10
166.782
20
-90.5682
11
166.776
21
-90.5716
0
LINE
8
BLACK
6
CONTINUOUS
10
166.776
20
-90.5716
11
166.769
21
-90.5727
0
LINE
8
BLACK
6
CONTINUOUS
10
166.769
20
-90.5727
11
166.763
21
-90.575
0
LINE
8
BLACK
6
CONTINUOUS
10
166.763
20
-90.575
11
166.757
21
-90.575
0
LINE
8
BLACK
6
CONTINUOUS
10
166.757
20
-90.575
11
166.757
21
-90.575
0
LINE
8
BLACK
6
CONTINUOUS
10
166.757
20
-90.575
11
163.243
21
-90.575
0
LINE
8
BLACK
6
CONTINUOUS
10
163.243
20
-90.575
11
163.243
21
-90.575
0
LINE
8
BLACK
6
CONTINUOUS
10
163.243
20
-90.575
11
163.237
21
-90.575
0
LINE
8
BLACK
6
CONTINUOUS
10
163.237
20
-90.575
11
163.231
21
-90.5727
0
LINE
8
BLACK
6
CONTINUOUS
10
163.231
20
-90.5727
11
163.224
21
-90.5716
0
LINE
8
BLACK
6
CONTINUOUS
10
163.224
20
-90.5716
11
163.218
21
-90.5682
0
LINE
8
BLACK
6
CONTINUOUS
10
163.218
20
-90.5682
11
163.212
21
-90.566
0
LINE
8
BLACK
6
CONTINUOUS
10
163.212
20
-90.566
11
163.207
21
-90.5617
0
LINE
8
BLACK
6
CONTINUOUS
10
163.207
20
-90.5617
11
163.201
21
-90.5583
0
LINE
8
BLACK
6
CONTINUOUS
10
163.201
20
-90.5583
11
163.197
21
-90.5532
0
LINE
8
BLACK
6
CONTINUOUS
10
163.197
20
-90.5532
11
163.192
21
-90.549
0
LINE
8
BLACK
6
CONTINUOUS
10
163.192
20
-90.549
11
163.188
21
-90.5432
0
LINE
8
BLACK
6
CONTINUOUS
10
163.188
20
-90.5432
11
163.184
21
-90.5381
0
LINE
8
BLACK
6
CONTINUOUS
10
163.184
20
-90.5381
11
163.182
21
-90.5318
0
LINE
8
BLACK
6
CONTINUOUS
10
163.182
20
-90.5318
11
163.178
21
-90.526
0
LINE
8
BLACK
6
CONTINUOUS
10
163.178
20
-90.526
11
163.177
21
-90.5195
0
LINE
8
BLACK
6
CONTINUOUS
10
163.177
20
-90.5195
11
163.175
21
-90.5132
0
LINE
8
BLACK
6
CONTINUOUS
10
163.175
20
-90.5132
11
163.175
21
-90.4868
0
LINE
8
BLACK
6
CONTINUOUS
10
163.175
20
-90.4868
11
163.175
21
-85.9934
0
LINE
8
BLACK
6
CONTINUOUS
10
163.175
20
-85.9934
11
163.175
21
-85.9934
0
LINE
8
BLACK
6
CONTINUOUS
10
163.175
20
-85.9934
11
163.175
21
-85.9868
0
LINE
8
BLACK
6
CONTINUOUS
10
163.175
20
-85.9868
11
163.177
21
-85.9805
0
LINE
8
BLACK
6
CONTINUOUS
10
163.177
20
-85.9805
11
163.178
21
-85.974
0
LINE
8
BLACK
6
CONTINUOUS
10
163.178
20
-85.974
11
163.182
21
-85.9682
0
LINE
8
BLACK
6
CONTINUOUS
10
163.182
20
-85.9682
11
163.184
21
-85.9619
0
LINE
8
BLACK
6
CONTINUOUS
10
163.184
20
-85.9619
11
163.188
21
-85.9568
0
LINE
8
BLACK
6
CONTINUOUS
10
163.188
20
-85.9568
11
163.192
21
-85.951
0
LINE
8
BLACK
6
CONTINUOUS
10
163.192
20
-85.951
11
163.197
21
-85.9468
0
LINE
8
BLACK
6
CONTINUOUS
10
163.197
20
-85.9468
11
163.201
21
-85.9417
0
LINE
8
BLACK
6
CONTINUOUS
10
163.201
20
-85.9417
11
163.207
21
-85.9383
0
LINE
8
BLACK
6
CONTINUOUS
10
163.207
20
-85.9383
11
163.212
21
-85.934
0
LINE
8
BLACK
6
CONTINUOUS
10
163.212
20
-85.934
11
163.218
21
-85.9318
0
LINE
8
BLACK
6
CONTINUOUS
10
163.218
20
-85.9318
11
163.224
21
-85.9284
0
LINE
8
BLACK
6
CONTINUOUS
10
163.224
20
-85.9284
11
163.231
21
-85.9273
0
LINE
8
BLACK
6
CONTINUOUS
10
163.231
20
-85.9273
11
163.237
21
-85.925
0
LINE
8
BLACK
6
CONTINUOUS
10
163.237
20
-85.925
11
163.243
21
-85.925
0
LINE
8
BLACK
6
CONTINUOUS
10
163.243
20
-85.925
11
163.243
21
-85.925
0
LINE
8
BLACK
6
CONTINUOUS
10
163.243
20
-85.925
11
166.757
21
-85.925
0
LINE
8
BLACK
6
CONTINUOUS
10
166.757
20
-85.925
11
166.757
21
-85.925
0
LINE
8
BLACK
6
CONTINUOUS
10
163.325
20
-86.075
11
163.325
21
-90.425
0
LINE
8
BLACK
6
CONTINUOUS
10
163.325
20
-90.425
11
166.675
21
-90.425
0
LINE
8
BLACK
6
CONTINUOUS
10
166.675
20
-90.425
11
166.675
21
-86.075
0
LINE
8
BLACK
6
CONTINUOUS
10
166.675
20
-86.075
11
163.325
21
-86.075
0
LINE
8
BLACK
6
CONTINUOUS
10
109.757
20
-83.575
11
109.763
21
-83.575
0
LINE
8
BLACK
6
CONTINUOUS
10
109.763
20
-83.575
11
109.769
21
-83.5773
0
LINE
8
BLACK
6
CONTINUOUS
10
109.769
20
-83.5773
11
109.776
21
-83.5784
0
LINE
8
BLACK
6
CONTINUOUS
10
109.776
20
-83.5784
11
109.782
21
-83.5818
0
LINE
8
BLACK
6
CONTINUOUS
10
109.782
20
-83.5818
11
109.788
21
-83.584
0
LINE
8
BLACK
6
CONTINUOUS
10
109.788
20
-83.584
11
109.793
21
-83.5883
0
LINE
8
BLACK
6
CONTINUOUS
10
109.793
20
-83.5883
11
109.799
21
-83.5917
0
LINE
8
BLACK
6
CONTINUOUS
10
109.799
20
-83.5917
11
109.803
21
-83.5968
0
LINE
8
BLACK
6
CONTINUOUS
10
109.803
20
-83.5968
11
109.808
21
-83.601
0
LINE
8
BLACK
6
CONTINUOUS
10
109.808
20
-83.601
11
109.812
21
-83.6068
0
LINE
8
BLACK
6
CONTINUOUS
10
109.812
20
-83.6068
11
109.816
21
-83.6119
0
LINE
8
BLACK
6
CONTINUOUS
10
109.816
20
-83.6119
11
109.818
21
-83.6182
0
LINE
8
BLACK
6
CONTINUOUS
10
109.818
20
-83.6182
11
109.822
21
-83.624
0
LINE
8
BLACK
6
CONTINUOUS
10
109.822
20
-83.624
11
109.823
21
-83.6305
0
LINE
8
BLACK
6
CONTINUOUS
10
109.823
20
-83.6305
11
109.825
21
-83.6368
0
LINE
8
BLACK
6
CONTINUOUS
10
109.825
20
-83.6368
11
109.825
21
-83.6434
0
LINE
8
BLACK
6
CONTINUOUS
10
109.825
20
-83.6434
11
109.825
21
-83.6434
0
LINE
8
BLACK
6
CONTINUOUS
10
109.825
20
-83.6434
11
109.825
21
-88.1566
0
LINE
8
BLACK
6
CONTINUOUS
10
109.825
20
-88.1566
11
109.825
21
-88.1566
0
LINE
8
BLACK
6
CONTINUOUS
10
109.825
20
-88.1566
11
109.825
21
-88.1632
0
LINE
8
BLACK
6
CONTINUOUS
10
109.825
20
-88.1632
11
109.823
21
-88.1695
0
LINE
8
BLACK
6
CONTINUOUS
10
109.823
20
-88.1695
11
109.822
21
-88.176
0
LINE
8
BLACK
6
CONTINUOUS
10
109.822
20
-88.176
11
109.818
21
-88.1818
0
LINE
8
BLACK
6
CONTINUOUS
10
109.818
20
-88.1818
11
109.816
21
-88.1881
0
LINE
8
BLACK
6
CONTINUOUS
10
109.816
20
-88.1881
11
109.812
21
-88.1932
0
LINE
8
BLACK
6
CONTINUOUS
10
109.812
20
-88.1932
11
109.808
21
-88.199
0
LINE
8
BLACK
6
CONTINUOUS
10
109.808
20
-88.199
11
109.803
21
-88.2032
0
LINE
8
BLACK
6
CONTINUOUS
10
109.803
20
-88.2032
11
109.799
21
-88.2083
0
LINE
8
BLACK
6
CONTINUOUS
10
109.799
20
-88.2083
11
109.793
21
-88.2117
0
LINE
8
BLACK
6
CONTINUOUS
10
109.793
20
-88.2117
11
109.788
21
-88.216
0
LINE
8
BLACK
6
CONTINUOUS
10
109.788
20
-88.216
11
109.782
21
-88.2182
0
LINE
8
BLACK
6
CONTINUOUS
10
109.782
20
-88.2182
11
109.776
21
-88.2216
0
LINE
8
BLACK
6
CONTINUOUS
10
109.776
20
-88.2216
11
109.769
21
-88.2227
0
LINE
8
BLACK
6
CONTINUOUS
10
109.769
20
-88.2227
11
109.763
21
-88.225
0
LINE
8
BLACK
6
CONTINUOUS
10
109.763
20
-88.225
11
109.757
21
-88.225
0
LINE
8
BLACK
6
CONTINUOUS
10
109.757
20
-88.225
11
109.757
21
-88.225
0
LINE
8
BLACK
6
CONTINUOUS
10
109.757
20
-88.225
11
106.243
21
-88.225
0
LINE
8
BLACK
6
CONTINUOUS
10
106.243
20
-88.225
11
106.224
21
-88.2216
0
LINE
8
BLACK
6
CONTINUOUS
10
106.224
20
-88.2216
11
106.201
21
-88.2083
0
LINE
8
BLACK
6
CONTINUOUS
10
106.201
20
-88.2083
11
106.184
21
-88.1881
0
LINE
8
BLACK
6
CONTINUOUS
10
106.184
20
-88.1881
11
106.175
21
-88.1632
0
LINE
8
BLACK
6
CONTINUOUS
10
106.175
20
-88.1632
11
106.175
21
-88.1368
0
LINE
8
BLACK
6
CONTINUOUS
10
106.175
20
-88.1368
11
106.179
21
-88.1265
0
LINE
8
BLACK
6
CONTINUOUS
10
106.179
20
-88.1265
11
106.178
21
-88.126
0
LINE
8
BLACK
6
CONTINUOUS
10
106.178
20
-88.126
11
106.175
21
-88.1066
0
LINE
8
BLACK
6
CONTINUOUS
10
106.175
20
-88.1066
11
106.175
21
-83.6434
0
LINE
8
BLACK
6
CONTINUOUS
10
106.175
20
-83.6434
11
106.175
21
-83.6434
0
LINE
8
BLACK
6
CONTINUOUS
10
106.175
20
-83.6434
11
106.175
21
-83.6368
0
LINE
8
BLACK
6
CONTINUOUS
10
106.175
20
-83.6368
11
106.177
21
-83.6305
0
LINE
8
BLACK
6
CONTINUOUS
10
106.177
20
-83.6305
11
106.178
21
-83.624
0
LINE
8
BLACK
6
CONTINUOUS
10
106.178
20
-83.624
11
106.182
21
-83.6182
0
LINE
8
BLACK
6
CONTINUOUS
10
106.182
20
-83.6182
11
106.184
21
-83.6119
0
LINE
8
BLACK
6
CONTINUOUS
10
106.184
20
-83.6119
11
106.188
21
-83.6068
0
LINE
8
BLACK
6
CONTINUOUS
10
106.188
20
-83.6068
11
106.192
21
-83.601
0
LINE
8
BLACK
6
CONTINUOUS
10
106.192
20
-83.601
11
106.197
21
-83.5968
0
LINE
8
BLACK
6
CONTINUOUS
10
106.197
20
-83.5968
11
106.201
21
-83.5917
0
LINE
8
BLACK
6
CONTINUOUS
10
106.201
20
-83.5917
11
106.207
21
-83.5883
0
LINE
8
BLACK
6
CONTINUOUS
10
106.207
20
-83.5883
11
106.212
21
-83.584
0
LINE
8
BLACK
6
CONTINUOUS
10
106.212
20
-83.584
11
106.218
21
-83.5818
0
LINE
8
BLACK
6
CONTINUOUS
10
106.218
20
-83.5818
11
106.224
21
-83.5784
0
LINE
8
BLACK
6
CONTINUOUS
10
106.224
20
-83.5784
11
106.231
21
-83.5773
0
LINE
8
BLACK
6
CONTINUOUS
10
106.231
20
-83.5773
11
106.237
21
-83.575
0
LINE
8
BLACK
6
CONTINUOUS
10
106.237
20
-83.575
11
106.243
21
-83.575
0
LINE
8
BLACK
6
CONTINUOUS
10
106.243
20
-83.575
11
106.243
21
-83.575
0
LINE
8
BLACK
6
CONTINUOUS
10
106.243
20
-83.575
11
109.757
21
-83.575
0
LINE
8
BLACK
6
CONTINUOUS
10
109.757
20
-83.575
11
109.757
21
-83.575
0
LINE
8
BLACK
6
CONTINUOUS
10
106.325
20
-83.725
11
106.325
21
-88.075
0
LINE
8
BLACK
6
CONTINUOUS
10
106.325
20
-88.075
11
109.675
21
-88.075
0
LINE
8
BLACK
6
CONTINUOUS
10
109.675
20
-88.075
11
109.675
21
-83.725
0
LINE
8
BLACK
6
CONTINUOUS
10
109.675
20
-83.725
11
106.325
21
-83.725
0
LINE
8
BLACK
6
CONTINUOUS
10
147.757
20
-83.575
11
147.763
21
-83.575
0
LINE
8
BLACK
6
CONTINUOUS
10
147.763
20
-83.575
11
147.769
21
-83.5773
0
LINE
8
BLACK
6
CONTINUOUS
10
147.769
20
-83.5773
11
147.776
21
-83.5784
0
LINE
8
BLACK
6
CONTINUOUS
10
147.776
20
-83.5784
11
147.782
21
-83.5818
0
LINE
8
BLACK
6
CONTINUOUS
10
147.782
20
-83.5818
11
147.788
21
-83.584
0
LINE
8
BLACK
6
CONTINUOUS
10
147.788
20
-83.584
11
147.793
21
-83.5883
0
LINE
8
BLACK
6
CONTINUOUS
10
147.793
20
-83.5883
11
147.799
21
-83.5917
0
LINE
8
BLACK
6
CONTINUOUS
10
147.799
20
-83.5917
11
147.803
21
-83.5968
0
LINE
8
BLACK
6
CONTINUOUS
10
147.803
20
-83.5968
11
147.808
21
-83.601
0
LINE
8
BLACK
6
CONTINUOUS
10
147.808
20
-83.601
11
147.812
21
-83.6068
0
LINE
8
BLACK
6
CONTINUOUS
10
147.812
20
-83.6068
11
147.816
21
-83.6119
0
LINE
8
BLACK
6
CONTINUOUS
10
147.816
20
-83.6119
11
147.818
21
-83.6182
0
LINE
8
BLACK
6
CONTINUOUS
10
147.818
20
-83.6182
11
147.822
21
-83.624
0
LINE
8
BLACK
6
CONTINUOUS
10
147.822
20
-83.624
11
147.823
21
-83.6305
0
LINE
8
BLACK
6
CONTINUOUS
10
147.823
20
-83.6305
11
147.825
21
-83.6368
0
LINE
8
BLACK
6
CONTINUOUS
10
147.825
20
-83.6368
11
147.825
21
-83.6434
0
LINE
8
BLACK
6
CONTINUOUS
10
147.825
20
-83.6434
11
147.825
21
-83.6434
0
LINE
8
BLACK
6
CONTINUOUS
10
147.825
20
-83.6434
11
147.825
21
-88.1566
0
LINE
8
BLACK
6
CONTINUOUS
10
147.825
20
-88.1566
11
147.825
21
-88.1566
0
LINE
8
BLACK
6
CONTINUOUS
10
147.825
20
-88.1566
11
147.825
21
-88.1632
0
LINE
8
BLACK
6
CONTINUOUS
10
147.825
20
-88.1632
11
147.823
21
-88.1695
0
LINE
8
BLACK
6
CONTINUOUS
10
147.823
20
-88.1695
11
147.822
21
-88.176
0
LINE
8
BLACK
6
CONTINUOUS
10
147.822
20
-88.176
11
147.818
21
-88.1818
0
LINE
8
BLACK
6
CONTINUOUS
10
147.818
20
-88.1818
11
147.816
21
-88.1881
0
LINE
8
BLACK
6
CONTINUOUS
10
147.816
20
-88.1881
11
147.812
21
-88.1932
0
LINE
8
BLACK
6
CONTINUOUS
10
147.812
20
-88.1932
11
147.808
21
-88.199
0
LINE
8
BLACK
6
CONTINUOUS
10
147.808
20
-88.199
11
147.803
21
-88.2032
0
LINE
8
BLACK
6
CONTINUOUS
10
147.803
20
-88.2032
11
147.799
21
-88.2083
0
LINE
8
BLACK
6
CONTINUOUS
10
147.799
20
-88.2083
11
147.793
21
-88.2117
0
LINE
8
BLACK
6
CONTINUOUS
10
147.793
20
-88.2117
11
147.788
21
-88.216
0
LINE
8
BLACK
6
CONTINUOUS
10
147.788
20
-88.216
11
147.782
21
-88.2182
0
LINE
8
BLACK
6
CONTINUOUS
10
147.782
20
-88.2182
11
147.776
21
-88.2216
0
LINE
8
BLACK
6
CONTINUOUS
10
147.776
20
-88.2216
11
147.769
21
-88.2227
0
LINE
8
BLACK
6
CONTINUOUS
10
147.769
20
-88.2227
11
147.763
21
-88.225
0
LINE
8
BLACK
6
CONTINUOUS
10
147.763
20
-88.225
11
147.757
21
-88.225
0
LINE
8
BLACK
6
CONTINUOUS
10
147.757
20
-88.225
11
147.757
21
-88.225
0
LINE
8
BLACK
6
CONTINUOUS
10
147.757
20
-88.225
11
144.243
21
-88.225
0
LINE
8
BLACK
6
CONTINUOUS
10
144.243
20
-88.225
11
144.224
21
-88.2216
0
LINE
8
BLACK
6
CONTINUOUS
10
144.224
20
-88.2216
11
144.201
21
-88.2083
0
LINE
8
BLACK
6
CONTINUOUS
10
144.201
20
-88.2083
11
144.184
21
-88.1881
0
LINE
8
BLACK
6
CONTINUOUS
10
144.184
20
-88.1881
11
144.175
21
-88.1632
0
LINE
8
BLACK
6
CONTINUOUS
10
144.175
20
-88.1632
11
144.175
21
-88.1368
0
LINE
8
BLACK
6
CONTINUOUS
10
144.175
20
-88.1368
11
144.179
21
-88.1265
0
LINE
8
BLACK
6
CONTINUOUS
10
144.179
20
-88.1265
11
144.178
21
-88.126
0
LINE
8
BLACK
6
CONTINUOUS
10
144.178
20
-88.126
11
144.175
21
-88.1066
0
LINE
8
BLACK
6
CONTINUOUS
10
144.175
20
-88.1066
11
144.175
21
-83.6434
0
LINE
8
BLACK
6
CONTINUOUS
10
144.175
20
-83.6434
11
144.175
21
-83.6434
0
LINE
8
BLACK
6
CONTINUOUS
10
144.175
20
-83.6434
11
144.175
21
-83.6368
0
LINE
8
BLACK
6
CONTINUOUS
10
144.175
20
-83.6368
11
144.177
21
-83.6305
0
LINE
8
BLACK
6
CONTINUOUS
10
144.177
20
-83.6305
11
144.178
21
-83.624
0
LINE
8
BLACK
6
CONTINUOUS
10
144.178
20
-83.624
11
144.182
21
-83.6182
0
LINE
8
BLACK
6
CONTINUOUS
10
144.182
20
-83.6182
11
144.184
21
-83.6119
0
LINE
8
BLACK
6
CONTINUOUS
10
144.184
20
-83.6119
11
144.188
21
-83.6068
0
LINE
8
BLACK
6
CONTINUOUS
10
144.188
20
-83.6068
11
144.192
21
-83.601
0
LINE
8
BLACK
6
CONTINUOUS
10
144.192
20
-83.601
11
144.197
21
-83.5968
0
LINE
8
BLACK
6
CONTINUOUS
10
144.197
20
-83.5968
11
144.201
21
-83.5917
0
LINE
8
BLACK
6
CONTINUOUS
10
144.201
20
-83.5917
11
144.207
21
-83.5883
0
LINE
8
BLACK
6
CONTINUOUS
10
144.207
20
-83.5883
11
144.212
21
-83.584
0
LINE
8
BLACK
6
CONTINUOUS
10
144.212
20
-83.584
11
144.218
21
-83.5818
0
LINE
8
BLACK
6
CONTINUOUS
10
144.218
20
-83.5818
11
144.224
21
-83.5784
0
LINE
8
BLACK
6
CONTINUOUS
10
144.224
20
-83.5784
11
144.231
21
-83.5773
0
LINE
8
BLACK
6
CONTINUOUS
10
144.231
20
-83.5773
11
144.237
21
-83.575
0
LINE
8
BLACK
6
CONTINUOUS
10
144.237
20
-83.575
11
144.243
21
-83.575
0
LINE
8
BLACK
6
CONTINUOUS
10
144.243
20
-83.575
11
144.243
21
-83.575
0
LINE
8
BLACK
6
CONTINUOUS
10
144.243
20
-83.575
11
147.757
21
-83.575
0
LINE
8
BLACK
6
CONTINUOUS
10
147.757
20
-83.575
11
147.757
21
-83.575
0
LINE
8
BLACK
6
CONTINUOUS
10
144.325
20
-83.725
11
144.325
21
-88.075
0
LINE
8
BLACK
6
CONTINUOUS
10
144.325
20
-88.075
11
147.675
21
-88.075
0
LINE
8
BLACK
6
CONTINUOUS
10
147.675
20
-88.075
11
147.675
21
-83.725
0
LINE
8
BLACK
6
CONTINUOUS
10
147.675
20
-83.725
11
144.325
21
-83.725
0
LINE
8
BLACK
6
CONTINUOUS
10
128.776
20
-81.1784
11
128.799
21
-81.1917
0
LINE
8
BLACK
6
CONTINUOUS
10
128.799
20
-81.1917
11
128.816
21
-81.2119
0
LINE
8
BLACK
6
CONTINUOUS
10
128.816
20
-81.2119
11
128.825
21
-81.2368
0
LINE
8
BLACK
6
CONTINUOUS
10
128.825
20
-81.2368
11
128.825
21
-81.2632
0
LINE
8
BLACK
6
CONTINUOUS
10
128.825
20
-81.2632
11
128.821
21
-81.2735
0
LINE
8
BLACK
6
CONTINUOUS
10
128.821
20
-81.2735
11
128.822
21
-81.274
0
LINE
8
BLACK
6
CONTINUOUS
10
128.822
20
-81.274
11
128.825
21
-81.2934
0
LINE
8
BLACK
6
CONTINUOUS
10
128.825
20
-81.2934
11
128.825
21
-85.7566
0
LINE
8
BLACK
6
CONTINUOUS
10
128.825
20
-85.7566
11
128.825
21
-85.7566
0
LINE
8
BLACK
6
CONTINUOUS
10
128.825
20
-85.7566
11
128.825
21
-85.7632
0
LINE
8
BLACK
6
CONTINUOUS
10
128.825
20
-85.7632
11
128.823
21
-85.7695
0
LINE
8
BLACK
6
CONTINUOUS
10
128.823
20
-85.7695
11
128.822
21
-85.776
0
LINE
8
BLACK
6
CONTINUOUS
10
128.822
20
-85.776
11
128.818
21
-85.7818
0
LINE
8
BLACK
6
CONTINUOUS
10
128.818
20
-85.7818
11
128.816
21
-85.7881
0
LINE
8
BLACK
6
CONTINUOUS
10
128.816
20
-85.7881
11
128.812
21
-85.7932
0
LINE
8
BLACK
6
CONTINUOUS
10
128.812
20
-85.7932
11
128.808
21
-85.799
0
LINE
8
BLACK
6
CONTINUOUS
10
128.808
20
-85.799
11
128.803
21
-85.8032
0
LINE
8
BLACK
6
CONTINUOUS
10
128.803
20
-85.8032
11
128.799
21
-85.8083
0
LINE
8
BLACK
6
CONTINUOUS
10
128.799
20
-85.8083
11
128.793
21
-85.8117
0
LINE
8
BLACK
6
CONTINUOUS
10
128.793
20
-85.8117
11
128.788
21
-85.816
0
LINE
8
BLACK
6
CONTINUOUS
10
128.788
20
-85.816
11
128.782
21
-85.8182
0
LINE
8
BLACK
6
CONTINUOUS
10
128.782
20
-85.8182
11
128.776
21
-85.8216
0
LINE
8
BLACK
6
CONTINUOUS
10
128.776
20
-85.8216
11
128.769
21
-85.8227
0
LINE
8
BLACK
6
CONTINUOUS
10
128.769
20
-85.8227
11
128.763
21
-85.825
0
LINE
8
BLACK
6
CONTINUOUS
10
128.763
20
-85.825
11
128.757
21
-85.825
0
LINE
8
BLACK
6
CONTINUOUS
10
128.757
20
-85.825
11
128.757
21
-85.825
0
LINE
8
BLACK
6
CONTINUOUS
10
128.757
20
-85.825
11
125.243
21
-85.825
0
LINE
8
BLACK
6
CONTINUOUS
10
125.243
20
-85.825
11
125.243
21
-85.825
0
LINE
8
BLACK
6
CONTINUOUS
10
125.243
20
-85.825
11
125.237
21
-85.825
0
LINE
8
BLACK
6
CONTINUOUS
10
125.237
20
-85.825
11
125.231
21
-85.8227
0
LINE
8
BLACK
6
CONTINUOUS
10
125.231
20
-85.8227
11
125.224
21
-85.8216
0
LINE
8
BLACK
6
CONTINUOUS
10
125.224
20
-85.8216
11
125.218
21
-85.8182
0
LINE
8
BLACK
6
CONTINUOUS
10
125.218
20
-85.8182
11
125.212
21
-85.816
0
LINE
8
BLACK
6
CONTINUOUS
10
125.212
20
-85.816
11
125.207
21
-85.8117
0
LINE
8
BLACK
6
CONTINUOUS
10
125.207
20
-85.8117
11
125.201
21
-85.8083
0
LINE
8
BLACK
6
CONTINUOUS
10
125.201
20
-85.8083
11
125.197
21
-85.8032
0
LINE
8
BLACK
6
CONTINUOUS
10
125.197
20
-85.8032
11
125.192
21
-85.799
0
LINE
8
BLACK
6
CONTINUOUS
10
125.192
20
-85.799
11
125.188
21
-85.7932
0
LINE
8
BLACK
6
CONTINUOUS
10
125.188
20
-85.7932
11
125.184
21
-85.7881
0
LINE
8
BLACK
6
CONTINUOUS
10
125.184
20
-85.7881
11
125.182
21
-85.7818
0
LINE
8
BLACK
6
CONTINUOUS
10
125.182
20
-85.7818
11
125.178
21
-85.776
0
LINE
8
BLACK
6
CONTINUOUS
10
125.178
20
-85.776
11
125.177
21
-85.7695
0
LINE
8
BLACK
6
CONTINUOUS
10
125.177
20
-85.7695
11
125.175
21
-85.7632
0
LINE
8
BLACK
6
CONTINUOUS
10
125.175
20
-85.7632
11
125.175
21
-85.7368
0
LINE
8
BLACK
6
CONTINUOUS
10
125.175
20
-85.7368
11
125.175
21
-81.2934
0
LINE
8
BLACK
6
CONTINUOUS
10
125.175
20
-81.2934
11
125.178
21
-81.274
0
LINE
8
BLACK
6
CONTINUOUS
10
125.178
20
-81.274
11
125.179
21
-81.2735
0
LINE
8
BLACK
6
CONTINUOUS
10
125.179
20
-81.2735
11
125.175
21
-81.2632
0
LINE
8
BLACK
6
CONTINUOUS
10
125.175
20
-81.2632
11
125.175
21
-81.2368
0
LINE
8
BLACK
6
CONTINUOUS
10
125.175
20
-81.2368
11
125.184
21
-81.2119
0
LINE
8
BLACK
6
CONTINUOUS
10
125.184
20
-81.2119
11
125.201
21
-81.1917
0
LINE
8
BLACK
6
CONTINUOUS
10
125.201
20
-81.1917
11
125.224
21
-81.1784
0
LINE
8
BLACK
6
CONTINUOUS
10
125.224
20
-81.1784
11
125.243
21
-81.175
0
LINE
8
BLACK
6
CONTINUOUS
10
125.243
20
-81.175
11
128.757
21
-81.175
0
LINE
8
BLACK
6
CONTINUOUS
10
128.757
20
-81.175
11
128.776
21
-81.1784
0
LINE
8
BLACK
6
CONTINUOUS
10
125.325
20
-81.325
11
125.325
21
-85.675
0
LINE
8
BLACK
6
CONTINUOUS
10
125.325
20
-85.675
11
128.675
21
-85.675
0
LINE
8
BLACK
6
CONTINUOUS
10
128.675
20
-85.675
11
128.675
21
-81.325
0
LINE
8
BLACK
6
CONTINUOUS
10
128.675
20
-81.325
11
125.325
21
-81.325
0
LINE
8
BLACK
6
CONTINUOUS
10
71.7566
20
-69.325
11
71.7632
21
-69.325
0
LINE
8
BLACK
6
CONTINUOUS
10
71.7632
20
-69.325
11
71.7695
21
-69.3273
0
LINE
8
BLACK
6
CONTINUOUS
10
71.7695
20
-69.3273
11
71.776
21
-69.3284
0
LINE
8
BLACK
6
CONTINUOUS
10
71.776
20
-69.3284
11
71.7818
21
-69.3318
0
LINE
8
BLACK
6
CONTINUOUS
10
71.7818
20
-69.3318
11
71.7881
21
-69.334
0
LINE
8
BLACK
6
CONTINUOUS
10
71.7881
20
-69.334
11
71.7932
21
-69.3383
0
LINE
8
BLACK
6
CONTINUOUS
10
71.7932
20
-69.3383
11
71.799
21
-69.3417
0
LINE
8
BLACK
6
CONTINUOUS
10
71.799
20
-69.3417
11
71.8032
21
-69.3468
0
LINE
8
BLACK
6
CONTINUOUS
10
71.8032
20
-69.3468
11
71.8083
21
-69.351
0
LINE
8
BLACK
6
CONTINUOUS
10
71.8083
20
-69.351
11
71.8117
21
-69.3568
0
LINE
8
BLACK
6
CONTINUOUS
10
71.8117
20
-69.3568
11
71.816
21
-69.3619
0
LINE
8
BLACK
6
CONTINUOUS
10
71.816
20
-69.3619
11
71.8182
21
-69.3682
0
LINE
8
BLACK
6
CONTINUOUS
10
71.8182
20
-69.3682
11
71.8216
21
-69.374
0
LINE
8
BLACK
6
CONTINUOUS
10
71.8216
20
-69.374
11
71.8227
21
-69.3805
0
LINE
8
BLACK
6
CONTINUOUS
10
71.8227
20
-69.3805
11
71.825
21
-69.3868
0
LINE
8
BLACK
6
CONTINUOUS
10
71.825
20
-69.3868
11
71.825
21
-69.3934
0
LINE
8
BLACK
6
CONTINUOUS
10
71.825
20
-69.3934
11
71.825
21
-69.3934
0
LINE
8
BLACK
6
CONTINUOUS
10
71.825
20
-69.3934
11
71.825
21
-73.9066
0
LINE
8
BLACK
6
CONTINUOUS
10
71.825
20
-73.9066
11
71.825
21
-73.9066
0
LINE
8
BLACK
6
CONTINUOUS
10
71.825
20
-73.9066
11
71.825
21
-73.9132
0
LINE
8
BLACK
6
CONTINUOUS
10
71.825
20
-73.9132
11
71.8227
21
-73.9195
0
LINE
8
BLACK
6
CONTINUOUS
10
71.8227
20
-73.9195
11
71.8216
21
-73.926
0
LINE
8
BLACK
6
CONTINUOUS
10
71.8216
20
-73.926
11
71.8182
21
-73.9318
0
LINE
8
BLACK
6
CONTINUOUS
10
71.8182
20
-73.9318
11
71.816
21
-73.9381
0
LINE
8
BLACK
6
CONTINUOUS
10
71.816
20
-73.9381
11
71.8117
21
-73.9432
0
LINE
8
BLACK
6
CONTINUOUS
10
71.8117
20
-73.9432
11
71.8083
21
-73.949
0
LINE
8
BLACK
6
CONTINUOUS
10
71.8083
20
-73.949
11
71.8032
21
-73.9532
0
LINE
8
BLACK
6
CONTINUOUS
10
71.8032
20
-73.9532
11
71.799
21
-73.9583
0
LINE
8
BLACK
6
CONTINUOUS
10
71.799
20
-73.9583
11
71.7932
21
-73.9617
0
LINE
8
BLACK
6
CONTINUOUS
10
71.7932
20
-73.9617
11
71.7881
21
-73.966
0
LINE
8
BLACK
6
CONTINUOUS
10
71.7881
20
-73.966
11
71.7818
21
-73.9682
0
LINE
8
BLACK
6
CONTINUOUS
10
71.7818
20
-73.9682
11
71.776
21
-73.9716
0
LINE
8
BLACK
6
CONTINUOUS
10
71.776
20
-73.9716
11
71.7695
21
-73.9727
0
LINE
8
BLACK
6
CONTINUOUS
10
71.7695
20
-73.9727
11
71.7632
21
-73.975
0
LINE
8
BLACK
6
CONTINUOUS
10
71.7632
20
-73.975
11
71.7566
21
-73.975
0
LINE
8
BLACK
6
CONTINUOUS
10
71.7566
20
-73.975
11
71.7566
21
-73.975
0
LINE
8
BLACK
6
CONTINUOUS
10
71.7566
20
-73.975
11
68.2434
21
-73.975
0
LINE
8
BLACK
6
CONTINUOUS
10
68.2434
20
-73.975
11
68.2434
21
-73.975
0
LINE
8
BLACK
6
CONTINUOUS
10
68.2434
20
-73.975
11
68.2368
21
-73.975
0
LINE
8
BLACK
6
CONTINUOUS
10
68.2368
20
-73.975
11
68.2305
21
-73.9727
0
LINE
8
BLACK
6
CONTINUOUS
10
68.2305
20
-73.9727
11
68.224
21
-73.9716
0
LINE
8
BLACK
6
CONTINUOUS
10
68.224
20
-73.9716
11
68.2182
21
-73.9682
0
LINE
8
BLACK
6
CONTINUOUS
10
68.2182
20
-73.9682
11
68.2119
21
-73.966
0
LINE
8
BLACK
6
CONTINUOUS
10
68.2119
20
-73.966
11
68.2068
21
-73.9617
0
LINE
8
BLACK
6
CONTINUOUS
10
68.2068
20
-73.9617
11
68.201
21
-73.9583
0
LINE
8
BLACK
6
CONTINUOUS
10
68.201
20
-73.9583
11
68.1968
21
-73.9532
0
LINE
8
BLACK
6
CONTINUOUS
10
68.1968
20
-73.9532
11
68.1917
21
-73.949
0
LINE
8
BLACK
6
CONTINUOUS
10
68.1917
20
-73.949
11
68.1883
21
-73.9432
0
LINE
8
BLACK
6
CONTINUOUS
10
68.1883
20
-73.9432
11
68.184
21
-73.9381
0
LINE
8
BLACK
6
CONTINUOUS
10
68.184
20
-73.9381
11
68.1818
21
-73.9318
0
LINE
8
BLACK
6
CONTINUOUS
10
68.1818
20
-73.9318
11
68.1784
21
-73.926
0
LINE
8
BLACK
6
CONTINUOUS
10
68.1784
20
-73.926
11
68.1773
21
-73.9195
0
LINE
8
BLACK
6
CONTINUOUS
10
68.1773
20
-73.9195
11
68.175
21
-73.9132
0
LINE
8
BLACK
6
CONTINUOUS
10
68.175
20
-73.9132
11
68.175
21
-73.8868
0
LINE
8
BLACK
6
CONTINUOUS
10
68.175
20
-73.8868
11
68.175
21
-69.3934
0
LINE
8
BLACK
6
CONTINUOUS
10
68.175
20
-69.3934
11
68.175
21
-69.3934
0
LINE
8
BLACK
6
CONTINUOUS
10
68.175
20
-69.3934
11
68.175
21
-69.3868
0
LINE
8
BLACK
6
CONTINUOUS
10
68.175
20
-69.3868
11
68.1773
21
-69.3805
0
LINE
8
BLACK
6
CONTINUOUS
10
68.1773
20
-69.3805
11
68.1784
21
-69.374
0
LINE
8
BLACK
6
CONTINUOUS
10
68.1784
20
-69.374
11
68.1818
21
-69.3682
0
LINE
8
BLACK
6
CONTINUOUS
10
68.1818
20
-69.3682
11
68.184
21
-69.3619
0
LINE
8
BLACK
6
CONTINUOUS
10
68.184
20
-69.3619
11
68.1883
21
-69.3568
0
LINE
8
BLACK
6
CONTINUOUS
10
68.1883
20
-69.3568
11
68.1917
21
-69.351
0
LINE
8
BLACK
6
CONTINUOUS
10
68.1917
20
-69.351
11
68.1968
21
-69.3468
0
LINE
8
BLACK
6
CONTINUOUS
10
68.1968
20
-69.3468
11
68.201
21
-69.3417
0
LINE
8
BLACK
6
CONTINUOUS
10
68.201
20
-69.3417
11
68.2068
21
-69.3383
0
LINE
8
BLACK
6
CONTINUOUS
10
68.2068
20
-69.3383
11
68.2119
21
-69.334
0
LINE
8
BLACK
6
CONTINUOUS
10
68.2119
20
-69.334
11
68.2182
21
-69.3318
0
LINE
8
BLACK
6
CONTINUOUS
10
68.2182
20
-69.3318
11
68.224
21
-69.3284
0
LINE
8
BLACK
6
CONTINUOUS
10
68.224
20
-69.3284
11
68.2305
21
-69.3273
0
LINE
8
BLACK
6
CONTINUOUS
10
68.2305
20
-69.3273
11
68.2368
21
-69.325
0
LINE
8
BLACK
6
CONTINUOUS
10
68.2368
20
-69.325
11
68.2434
21
-69.325
0
LINE
8
BLACK
6
CONTINUOUS
10
68.2434
20
-69.325
11
68.2434
21
-69.325
0
LINE
8
BLACK
6
CONTINUOUS
10
68.2434
20
-69.325
11
71.7566
21
-69.325
0
LINE
8
BLACK
6
CONTINUOUS
10
71.7566
20
-69.325
11
71.7566
21
-69.325
0
LINE
8
BLACK
6
CONTINUOUS
10
68.325
20
-69.475
11
68.325
21
-73.825
0
LINE
8
BLACK
6
CONTINUOUS
10
68.325
20
-73.825
11
71.675
21
-73.825
0
LINE
8
BLACK
6
CONTINUOUS
10
71.675
20
-73.825
11
71.675
21
-69.475
0
LINE
8
BLACK
6
CONTINUOUS
10
71.675
20
-69.475
11
68.325
21
-69.475
0
LINE
8
BLACK
6
CONTINUOUS
10
90.7566
20
-69.325
11
90.7632
21
-69.325
0
LINE
8
BLACK
6
CONTINUOUS
10
90.7632
20
-69.325
11
90.7695
21
-69.3273
0
LINE
8
BLACK
6
CONTINUOUS
10
90.7695
20
-69.3273
11
90.776
21
-69.3284
0
LINE
8
BLACK
6
CONTINUOUS
10
90.776
20
-69.3284
11
90.7818
21
-69.3318
0
LINE
8
BLACK
6
CONTINUOUS
10
90.7818
20
-69.3318
11
90.7881
21
-69.334
0
LINE
8
BLACK
6
CONTINUOUS
10
90.7881
20
-69.334
11
90.7932
21
-69.3383
0
LINE
8
BLACK
6
CONTINUOUS
10
90.7932
20
-69.3383
11
90.799
21
-69.3417
0
LINE
8
BLACK
6
CONTINUOUS
10
90.799
20
-69.3417
11
90.8032
21
-69.3468
0
LINE
8
BLACK
6
CONTINUOUS
10
90.8032
20
-69.3468
11
90.8083
21
-69.351
0
LINE
8
BLACK
6
CONTINUOUS
10
90.8083
20
-69.351
11
90.8117
21
-69.3568
0
LINE
8
BLACK
6
CONTINUOUS
10
90.8117
20
-69.3568
11
90.816
21
-69.3619
0
LINE
8
BLACK
6
CONTINUOUS
10
90.816
20
-69.3619
11
90.8182
21
-69.3682
0
LINE
8
BLACK
6
CONTINUOUS
10
90.8182
20
-69.3682
11
90.8216
21
-69.374
0
LINE
8
BLACK
6
CONTINUOUS
10
90.8216
20
-69.374
11
90.8227
21
-69.3805
0
LINE
8
BLACK
6
CONTINUOUS
10
90.8227
20
-69.3805
11
90.825
21
-69.3868
0
LINE
8
BLACK
6
CONTINUOUS
10
90.825
20
-69.3868
11
90.825
21
-69.3934
0
LINE
8
BLACK
6
CONTINUOUS
10
90.825
20
-69.3934
11
90.825
21
-69.3934
0
LINE
8
BLACK
6
CONTINUOUS
10
90.825
20
-69.3934
11
90.825
21
-73.9066
0
LINE
8
BLACK
6
CONTINUOUS
10
90.825
20
-73.9066
11
90.825
21
-73.9066
0
LINE
8
BLACK
6
CONTINUOUS
10
90.825
20
-73.9066
11
90.825
21
-73.9132
0
LINE
8
BLACK
6
CONTINUOUS
10
90.825
20
-73.9132
11
90.8227
21
-73.9195
0
LINE
8
BLACK
6
CONTINUOUS
10
90.8227
20
-73.9195
11
90.8216
21
-73.926
0
LINE
8
BLACK
6
CONTINUOUS
10
90.8216
20
-73.926
11
90.8182
21
-73.9318
0
LINE
8
BLACK
6
CONTINUOUS
10
90.8182
20
-73.9318
11
90.816
21
-73.9381
0
LINE
8
BLACK
6
CONTINUOUS
10
90.816
20
-73.9381
11
90.8117
21
-73.9432
0
LINE
8
BLACK
6
CONTINUOUS
10
90.8117
20
-73.9432
11
90.8083
21
-73.949
0
LINE
8
BLACK
6
CONTINUOUS
10
90.8083
20
-73.949
11
90.8032
21
-73.9532
0
LINE
8
BLACK
6
CONTINUOUS
10
90.8032
20
-73.9532
11
90.799
21
-73.9583
0
LINE
8
BLACK
6
CONTINUOUS
10
90.799
20
-73.9583
11
90.7932
21
-73.9617
0
LINE
8
BLACK
6
CONTINUOUS
10
90.7932
20
-73.9617
11
90.7881
21
-73.966
0
LINE
8
BLACK
6
CONTINUOUS
10
90.7881
20
-73.966
11
90.7818
21
-73.9682
0
LINE
8
BLACK
6
CONTINUOUS
10
90.7818
20
-73.9682
11
90.776
21
-73.9716
0
LINE
8
BLACK
6
CONTINUOUS
10
90.776
20
-73.9716
11
90.7695
21
-73.9727
0
LINE
8
BLACK
6
CONTINUOUS
10
90.7695
20
-73.9727
11
90.7632
21
-73.975
0
LINE
8
BLACK
6
CONTINUOUS
10
90.7632
20
-73.975
11
90.7566
21
-73.975
0
LINE
8
BLACK
6
CONTINUOUS
10
90.7566
20
-73.975
11
90.7566
21
-73.975
0
LINE
8
BLACK
6
CONTINUOUS
10
90.7566
20
-73.975
11
87.2434
21
-73.975
0
LINE
8
BLACK
6
CONTINUOUS
10
87.2434
20
-73.975
11
87.2434
21
-73.975
0
LINE
8
BLACK
6
CONTINUOUS
10
87.2434
20
-73.975
11
87.2368
21
-73.975
0
LINE
8
BLACK
6
CONTINUOUS
10
87.2368
20
-73.975
11
87.2305
21
-73.9727
0
LINE
8
BLACK
6
CONTINUOUS
10
87.2305
20
-73.9727
11
87.224
21
-73.9716
0
LINE
8
BLACK
6
CONTINUOUS
10
87.224
20
-73.9716
11
87.2182
21
-73.9682
0
LINE
8
BLACK
6
CONTINUOUS
10
87.2182
20
-73.9682
11
87.2119
21
-73.966
0
LINE
8
BLACK
6
CONTINUOUS
10
87.2119
20
-73.966
11
87.2068
21
-73.9617
0
LINE
8
BLACK
6
CONTINUOUS
10
87.2068
20
-73.9617
11
87.201
21
-73.9583
0
LINE
8
BLACK
6
CONTINUOUS
10
87.201
20
-73.9583
11
87.1968
21
-73.9532
0
LINE
8
BLACK
6
CONTINUOUS
10
87.1968
20
-73.9532
11
87.1917
21
-73.949
0
LINE
8
BLACK
6
CONTINUOUS
10
87.1917
20
-73.949
11
87.1883
21
-73.9432
0
LINE
8
BLACK
6
CONTINUOUS
10
87.1883
20
-73.9432
11
87.184
21
-73.9381
0
LINE
8
BLACK
6
CONTINUOUS
10
87.184
20
-73.9381
11
87.1818
21
-73.9318
0
LINE
8
BLACK
6
CONTINUOUS
10
87.1818
20
-73.9318
11
87.1784
21
-73.926
0
LINE
8
BLACK
6
CONTINUOUS
10
87.1784
20
-73.926
11
87.1773
21
-73.9195
0
LINE
8
BLACK
6
CONTINUOUS
10
87.1773
20
-73.9195
11
87.175
21
-73.9132
0
LINE
8
BLACK
6
CONTINUOUS
10
87.175
20
-73.9132
11
87.175
21
-73.8868
0
LINE
8
BLACK
6
CONTINUOUS
10
87.175
20
-73.8868
11
87.175
21
-69.3934
0
LINE
8
BLACK
6
CONTINUOUS
10
87.175
20
-69.3934
11
87.175
21
-69.3934
0
LINE
8
BLACK
6
CONTINUOUS
10
87.175
20
-69.3934
11
87.175
21
-69.3868
0
LINE
8
BLACK
6
CONTINUOUS
10
87.175
20
-69.3868
11
87.1773
21
-69.3805
0
LINE
8
BLACK
6
CONTINUOUS
10
87.1773
20
-69.3805
11
87.1784
21
-69.374
0
LINE
8
BLACK
6
CONTINUOUS
10
87.1784
20
-69.374
11
87.1818
21
-69.3682
0
LINE
8
BLACK
6
CONTINUOUS
10
87.1818
20
-69.3682
11
87.184
21
-69.3619
0
LINE
8
BLACK
6
CONTINUOUS
10
87.184
20
-69.3619
11
87.1883
21
-69.3568
0
LINE
8
BLACK
6
CONTINUOUS
10
87.1883
20
-69.3568
11
87.1917
21
-69.351
0
LINE
8
BLACK
6
CONTINUOUS
10
87.1917
20
-69.351
11
87.1968
21
-69.3468
0
LINE
8
BLACK
6
CONTINUOUS
10
87.1968
20
-69.3468
11
87.201
21
-69.3417
0
LINE
8
BLACK
6
CONTINUOUS
10
87.201
20
-69.3417
11
87.2068
21
-69.3383
0
LINE
8
BLACK
6
CONTINUOUS
10
87.2068
20
-69.3383
11
87.2119
21
-69.334
0
LINE
8
BLACK
6
CONTINUOUS
10
87.2119
20
-69.334
11
87.2182
21
-69.3318
0
LINE
8
BLACK
6
CONTINUOUS
10
87.2182
20
-69.3318
11
87.224
21
-69.3284
0
LINE
8
BLACK
6
CONTINUOUS
10
87.224
20
-69.3284
11
87.2305
21
-69.3273
0
LINE
8
BLACK
6
CONTINUOUS
10
87.2305
20
-69.3273
11
87.2368
21
-69.325
0
LINE
8
BLACK
6
CONTINUOUS
10
87.2368
20
-69.325
11
87.2434
21
-69.325
0
LINE
8
BLACK
6
CONTINUOUS
10
87.2434
20
-69.325
11
87.2434
21
-69.325
0
LINE
8
BLACK
6
CONTINUOUS
10
87.2434
20
-69.325
11
90.7566
21
-69.325
0
LINE
8
BLACK
6
CONTINUOUS
10
90.7566
20
-69.325
11
90.7566
21
-69.325
0
LINE
8
BLACK
6
CONTINUOUS
10
87.325
20
-69.475
11
87.325
21
-73.825
0
LINE
8
BLACK
6
CONTINUOUS
10
87.325
20
-73.825
11
90.675
21
-73.825
0
LINE
8
BLACK
6
CONTINUOUS
10
90.675
20
-73.825
11
90.675
21
-69.475
0
LINE
8
BLACK
6
CONTINUOUS
10
90.675
20
-69.475
11
87.325
21
-69.475
0
LINE
8
BLACK
6
CONTINUOUS
10
166.757
20
-66.925
11
166.763
21
-66.925
0
LINE
8
BLACK
6
CONTINUOUS
10
166.763
20
-66.925
11
166.769
21
-66.9273
0
LINE
8
BLACK
6
CONTINUOUS
10
166.769
20
-66.9273
11
166.776
21
-66.9284
0
LINE
8
BLACK
6
CONTINUOUS
10
166.776
20
-66.9284
11
166.782
21
-66.9318
0
LINE
8
BLACK
6
CONTINUOUS
10
166.782
20
-66.9318
11
166.788
21
-66.934
0
LINE
8
BLACK
6
CONTINUOUS
10
166.788
20
-66.934
11
166.793
21
-66.9383
0
LINE
8
BLACK
6
CONTINUOUS
10
166.793
20
-66.9383
11
166.799
21
-66.9417
0
LINE
8
BLACK
6
CONTINUOUS
10
166.799
20
-66.9417
11
166.803
21
-66.9468
0
LINE
8
BLACK
6
CONTINUOUS
10
166.803
20
-66.9468
11
166.808
21
-66.951
0
LINE
8
BLACK
6
CONTINUOUS
10
166.808
20
-66.951
11
166.812
21
-66.9568
0
LINE
8
BLACK
6
CONTINUOUS
10
166.812
20
-66.9568
11
166.816
21
-66.9619
0
LINE
8
BLACK
6
CONTINUOUS
10
166.816
20
-66.9619
11
166.818
21
-66.9682
0
LINE
8
BLACK
6
CONTINUOUS
10
166.818
20
-66.9682
11
166.822
21
-66.974
0
LINE
8
BLACK
6
CONTINUOUS
10
166.822
20
-66.974
11
166.823
21
-66.9805
0
LINE
8
BLACK
6
CONTINUOUS
10
166.823
20
-66.9805
11
166.825
21
-66.9868
0
LINE
8
BLACK
6
CONTINUOUS
10
166.825
20
-66.9868
11
166.825
21
-66.9934
0
LINE
8
BLACK
6
CONTINUOUS
10
166.825
20
-66.9934
11
166.825
21
-66.9934
0
LINE
8
BLACK
6
CONTINUOUS
10
166.825
20
-66.9934
11
166.825
21
-71.5066
0
LINE
8
BLACK
6
CONTINUOUS
10
166.825
20
-71.5066
11
166.825
21
-71.5066
0
LINE
8
BLACK
6
CONTINUOUS
10
166.825
20
-71.5066
11
166.825
21
-71.5132
0
LINE
8
BLACK
6
CONTINUOUS
10
166.825
20
-71.5132
11
166.823
21
-71.5195
0
LINE
8
BLACK
6
CONTINUOUS
10
166.823
20
-71.5195
11
166.822
21
-71.526
0
LINE
8
BLACK
6
CONTINUOUS
10
166.822
20
-71.526
11
166.818
21
-71.5318
0
LINE
8
BLACK
6
CONTINUOUS
10
166.818
20
-71.5318
11
166.816
21
-71.5381
0
LINE
8
BLACK
6
CONTINUOUS
10
166.816
20
-71.5381
11
166.812
21
-71.5432
0
LINE
8
BLACK
6
CONTINUOUS
10
166.812
20
-71.5432
11
166.808
21
-71.549
0
LINE
8
BLACK
6
CONTINUOUS
10
166.808
20
-71.549
11
166.803
21
-71.5532
0
LINE
8
BLACK
6
CONTINUOUS
10
166.803
20
-71.5532
11
166.799
21
-71.5583
0
LINE
8
BLACK
6
CONTINUOUS
10
166.799
20
-71.5583
11
166.793
21
-71.5617
0
LINE
8
BLACK
6
CONTINUOUS
10
166.793
20
-71.5617
11
166.788
21
-71.566
0
LINE
8
BLACK
6
CONTINUOUS
10
166.788
20
-71.566
11
166.782
21
-71.5682
0
LINE
8
BLACK
6
CONTINUOUS
10
166.782
20
-71.5682
11
166.776
21
-71.5716
0
LINE
8
BLACK
6
CONTINUOUS
10
166.776
20
-71.5716
11
166.769
21
-71.5727
0
LINE
8
BLACK
6
CONTINUOUS
10
166.769
20
-71.5727
11
166.763
21
-71.575
0
LINE
8
BLACK
6
CONTINUOUS
10
166.763
20
-71.575
11
166.757
21
-71.575
0
LINE
8
BLACK
6
CONTINUOUS
10
166.757
20
-71.575
11
166.757
21
-71.575
0
LINE
8
BLACK
6
CONTINUOUS
10
166.757
20
-71.575
11
163.243
21
-71.575
0
LINE
8
BLACK
6
CONTINUOUS
10
163.243
20
-71.575
11
163.243
21
-71.575
0
LINE
8
BLACK
6
CONTINUOUS
10
163.243
20
-71.575
11
163.237
21
-71.575
0
LINE
8
BLACK
6
CONTINUOUS
10
163.237
20
-71.575
11
163.231
21
-71.5727
0
LINE
8
BLACK
6
CONTINUOUS
10
163.231
20
-71.5727
11
163.224
21
-71.5716
0
LINE
8
BLACK
6
CONTINUOUS
10
163.224
20
-71.5716
11
163.218
21
-71.5682
0
LINE
8
BLACK
6
CONTINUOUS
10
163.218
20
-71.5682
11
163.212
21
-71.566
0
LINE
8
BLACK
6
CONTINUOUS
10
163.212
20
-71.566
11
163.207
21
-71.5617
0
LINE
8
BLACK
6
CONTINUOUS
10
163.207
20
-71.5617
11
163.201
21
-71.5583
0
LINE
8
BLACK
6
CONTINUOUS
10
163.201
20
-71.5583
11
163.197
21
-71.5532
0
LINE
8
BLACK
6
CONTINUOUS
10
163.197
20
-71.5532
11
163.192
21
-71.549
0
LINE
8
BLACK
6
CONTINUOUS
10
163.192
20
-71.549
11
163.188
21
-71.5432
0
LINE
8
BLACK
6
CONTINUOUS
10
163.188
20
-71.5432
11
163.184
21
-71.5381
0
LINE
8
BLACK
6
CONTINUOUS
10
163.184
20
-71.5381
11
163.182
21
-71.5318
0
LINE
8
BLACK
6
CONTINUOUS
10
163.182
20
-71.5318
11
163.178
21
-71.526
0
LINE
8
BLACK
6
CONTINUOUS
10
163.178
20
-71.526
11
163.177
21
-71.5195
0
LINE
8
BLACK
6
CONTINUOUS
10
163.177
20
-71.5195
11
163.175
21
-71.5132
0
LINE
8
BLACK
6
CONTINUOUS
10
163.175
20
-71.5132
11
163.175
21
-71.4868
0
LINE
8
BLACK
6
CONTINUOUS
10
163.175
20
-71.4868
11
163.175
21
-66.9934
0
LINE
8
BLACK
6
CONTINUOUS
10
163.175
20
-66.9934
11
163.175
21
-66.9934
0
LINE
8
BLACK
6
CONTINUOUS
10
163.175
20
-66.9934
11
163.175
21
-66.9868
0
LINE
8
BLACK
6
CONTINUOUS
10
163.175
20
-66.9868
11
163.177
21
-66.9805
0
LINE
8
BLACK
6
CONTINUOUS
10
163.177
20
-66.9805
11
163.178
21
-66.974
0
LINE
8
BLACK
6
CONTINUOUS
10
163.178
20
-66.974
11
163.182
21
-66.9682
0
LINE
8
BLACK
6
CONTINUOUS
10
163.182
20
-66.9682
11
163.184
21
-66.9619
0
LINE
8
BLACK
6
CONTINUOUS
10
163.184
20
-66.9619
11
163.188
21
-66.9568
0
LINE
8
BLACK
6
CONTINUOUS
10
163.188
20
-66.9568
11
163.192
21
-66.951
0
LINE
8
BLACK
6
CONTINUOUS
10
163.192
20
-66.951
11
163.197
21
-66.9468
0
LINE
8
BLACK
6
CONTINUOUS
10
163.197
20
-66.9468
11
163.201
21
-66.9417
0
LINE
8
BLACK
6
CONTINUOUS
10
163.201
20
-66.9417
11
163.207
21
-66.9383
0
LINE
8
BLACK
6
CONTINUOUS
10
163.207
20
-66.9383
11
163.212
21
-66.934
0
LINE
8
BLACK
6
CONTINUOUS
10
163.212
20
-66.934
11
163.218
21
-66.9318
0
LINE
8
BLACK
6
CONTINUOUS
10
163.218
20
-66.9318
11
163.224
21
-66.9284
0
LINE
8
BLACK
6
CONTINUOUS
10
163.224
20
-66.9284
11
163.231
21
-66.9273
0
LINE
8
BLACK
6
CONTINUOUS
10
163.231
20
-66.9273
11
163.237
21
-66.925
0
LINE
8
BLACK
6
CONTINUOUS
10
163.237
20
-66.925
11
163.243
21
-66.925
0
LINE
8
BLACK
6
CONTINUOUS
10
163.243
20
-66.925
11
163.243
21
-66.925
0
LINE
8
BLACK
6
CONTINUOUS
10
163.243
20
-66.925
11
166.757
21
-66.925
0
LINE
8
BLACK
6
CONTINUOUS
10
166.757
20
-66.925
11
166.757
21
-66.925
0
LINE
8
BLACK
6
CONTINUOUS
10
163.325
20
-67.075
11
163.325
21
-71.425
0
LINE
8
BLACK
6
CONTINUOUS
10
163.325
20
-71.425
11
166.675
21
-71.425
0
LINE
8
BLACK
6
CONTINUOUS
10
166.675
20
-71.425
11
166.675
21
-67.075
0
LINE
8
BLACK
6
CONTINUOUS
10
166.675
20
-67.075
11
163.325
21
-67.075
0
LINE
8
BLACK
6
CONTINUOUS
10
109.757
20
-64.575
11
109.763
21
-64.575
0
LINE
8
BLACK
6
CONTINUOUS
10
109.763
20
-64.575
11
109.769
21
-64.5773
0
LINE
8
BLACK
6
CONTINUOUS
10
109.769
20
-64.5773
11
109.776
21
-64.5784
0
LINE
8
BLACK
6
CONTINUOUS
10
109.776
20
-64.5784
11
109.782
21
-64.5818
0
LINE
8
BLACK
6
CONTINUOUS
10
109.782
20
-64.5818
11
109.788
21
-64.584
0
LINE
8
BLACK
6
CONTINUOUS
10
109.788
20
-64.584
11
109.793
21
-64.5883
0
LINE
8
BLACK
6
CONTINUOUS
10
109.793
20
-64.5883
11
109.799
21
-64.5917
0
LINE
8
BLACK
6
CONTINUOUS
10
109.799
20
-64.5917
11
109.803
21
-64.5968
0
LINE
8
BLACK
6
CONTINUOUS
10
109.803
20
-64.5968
11
109.808
21
-64.601
0
LINE
8
BLACK
6
CONTINUOUS
10
109.808
20
-64.601
11
109.812
21
-64.6068
0
LINE
8
BLACK
6
CONTINUOUS
10
109.812
20
-64.6068
11
109.816
21
-64.6119
0
LINE
8
BLACK
6
CONTINUOUS
10
109.816
20
-64.6119
11
109.818
21
-64.6182
0
LINE
8
BLACK
6
CONTINUOUS
10
109.818
20
-64.6182
11
109.822
21
-64.624
0
LINE
8
BLACK
6
CONTINUOUS
10
109.822
20
-64.624
11
109.823
21
-64.6305
0
LINE
8
BLACK
6
CONTINUOUS
10
109.823
20
-64.6305
11
109.825
21
-64.6368
0
LINE
8
BLACK
6
CONTINUOUS
10
109.825
20
-64.6368
11
109.825
21
-64.6434
0
LINE
8
BLACK
6
CONTINUOUS
10
109.825
20
-64.6434
11
109.825
21
-64.6434
0
LINE
8
BLACK
6
CONTINUOUS
10
109.825
20
-64.6434
11
109.825
21
-69.1566
0
LINE
8
BLACK
6
CONTINUOUS
10
109.825
20
-69.1566
11
109.825
21
-69.1566
0
LINE
8
BLACK
6
CONTINUOUS
10
109.825
20
-69.1566
11
109.825
21
-69.1632
0
LINE
8
BLACK
6
CONTINUOUS
10
109.825
20
-69.1632
11
109.823
21
-69.1695
0
LINE
8
BLACK
6
CONTINUOUS
10
109.823
20
-69.1695
11
109.822
21
-69.176
0
LINE
8
BLACK
6
CONTINUOUS
10
109.822
20
-69.176
11
109.818
21
-69.1818
0
LINE
8
BLACK
6
CONTINUOUS
10
109.818
20
-69.1818
11
109.816
21
-69.1881
0
LINE
8
BLACK
6
CONTINUOUS
10
109.816
20
-69.1881
11
109.812
21
-69.1932
0
LINE
8
BLACK
6
CONTINUOUS
10
109.812
20
-69.1932
11
109.808
21
-69.199
0
LINE
8
BLACK
6
CONTINUOUS
10
109.808
20
-69.199
11
109.803
21
-69.2032
0
LINE
8
BLACK
6
CONTINUOUS
10
109.803
20
-69.2032
11
109.799
21
-69.2083
0
LINE
8
BLACK
6
CONTINUOUS
10
109.799
20
-69.2083
11
109.793
21
-69.2117
0
LINE
8
BLACK
6
CONTINUOUS
10
109.793
20
-69.2117
11
109.788
21
-69.216
0
LINE
8
BLACK
6
CONTINUOUS
10
109.788
20
-69.216
11
109.782
21
-69.2182
0
LINE
8
BLACK
6
CONTINUOUS
10
109.782
20
-69.2182
11
109.776
21
-69.2216
0
LINE
8
BLACK
6
CONTINUOUS
10
109.776
20
-69.2216
11
109.769
21
-69.2227
0
LINE
8
BLACK
6
CONTINUOUS
10
109.769
20
-69.2227
11
109.763
21
-69.225
0
LINE
8
BLACK
6
CONTINUOUS
10
109.763
20
-69.225
11
109.757
21
-69.225
0
LINE
8
BLACK
6
CONTINUOUS
10
109.757
20
-69.225
11
109.757
21
-69.225
0
LINE
8
BLACK
6
CONTINUOUS
10
109.757
20
-69.225
11
106.243
21
-69.225
0
LINE
8
BLACK
6
CONTINUOUS
10
106.243
20
-69.225
11
106.224
21
-69.2216
0
LINE
8
BLACK
6
CONTINUOUS
10
106.224
20
-69.2216
11
106.201
21
-69.2083
0
LINE
8
BLACK
6
CONTINUOUS
10
106.201
20
-69.2083
11
106.184
21
-69.1881
0
LINE
8
BLACK
6
CONTINUOUS
10
106.184
20
-69.1881
11
106.175
21
-69.1632
0
LINE
8
BLACK
6
CONTINUOUS
10
106.175
20
-69.1632
11
106.175
21
-69.1368
0
LINE
8
BLACK
6
CONTINUOUS
10
106.175
20
-69.1368
11
106.179
21
-69.1265
0
LINE
8
BLACK
6
CONTINUOUS
10
106.179
20
-69.1265
11
106.178
21
-69.126
0
LINE
8
BLACK
6
CONTINUOUS
10
106.178
20
-69.126
11
106.175
21
-69.1066
0
LINE
8
BLACK
6
CONTINUOUS
10
106.175
20
-69.1066
11
106.175
21
-64.6434
0
LINE
8
BLACK
6
CONTINUOUS
10
106.175
20
-64.6434
11
106.175
21
-64.6434
0
LINE
8
BLACK
6
CONTINUOUS
10
106.175
20
-64.6434
11
106.175
21
-64.6368
0
LINE
8
BLACK
6
CONTINUOUS
10
106.175
20
-64.6368
11
106.177
21
-64.6305
0
LINE
8
BLACK
6
CONTINUOUS
10
106.177
20
-64.6305
11
106.178
21
-64.624
0
LINE
8
BLACK
6
CONTINUOUS
10
106.178
20
-64.624
11
106.182
21
-64.6182
0
LINE
8
BLACK
6
CONTINUOUS
10
106.182
20
-64.6182
11
106.184
21
-64.6119
0
LINE
8
BLACK
6
CONTINUOUS
10
106.184
20
-64.6119
11
106.188
21
-64.6068
0
LINE
8
BLACK
6
CONTINUOUS
10
106.188
20
-64.6068
11
106.192
21
-64.601
0
LINE
8
BLACK
6
CONTINUOUS
10
106.192
20
-64.601
11
106.197
21
-64.5968
0
LINE
8
BLACK
6
CONTINUOUS
10
106.197
20
-64.5968
11
106.201
21
-64.5917
0
LINE
8
BLACK
6
CONTINUOUS
10
106.201
20
-64.5917
11
106.207
21
-64.5883
0
LINE
8
BLACK
6
CONTINUOUS
10
106.207
20
-64.5883
11
106.212
21
-64.584
0
LINE
8
BLACK
6
CONTINUOUS
10
106.212
20
-64.584
11
106.218
21
-64.5818
0
LINE
8
BLACK
6
CONTINUOUS
10
106.218
20
-64.5818
11
106.224
21
-64.5784
0
LINE
8
BLACK
6
CONTINUOUS
10
106.224
20
-64.5784
11
106.231
21
-64.5773
0
LINE
8
BLACK
6
CONTINUOUS
10
106.231
20
-64.5773
11
106.237
21
-64.575
0
LINE
8
BLACK
6
CONTINUOUS
10
106.237
20
-64.575
11
106.243
21
-64.575
0
LINE
8
BLACK
6
CONTINUOUS
10
106.243
20
-64.575
11
106.243
21
-64.575
0
LINE
8
BLACK
6
CONTINUOUS
10
106.243
20
-64.575
11
109.757
21
-64.575
0
LINE
8
BLACK
6
CONTINUOUS
10
109.757
20
-64.575
11
109.757
21
-64.575
0
LINE
8
BLACK
6
CONTINUOUS
10
106.325
20
-64.725
11
106.325
21
-69.075
0
LINE
8
BLACK
6
CONTINUOUS
10
106.325
20
-69.075
11
109.675
21
-69.075
0
LINE
8
BLACK
6
CONTINUOUS
10
109.675
20
-69.075
11
109.675
21
-64.725
0
LINE
8
BLACK
6
CONTINUOUS
10
109.675
20
-64.725
11
106.325
21
-64.725
0
LINE
8
BLACK
6
CONTINUOUS
10
147.757
20
-64.575
11
147.763
21
-64.575
0
LINE
8
BLACK
6
CONTINUOUS
10
147.763
20
-64.575
11
147.769
21
-64.5773
0
LINE
8
BLACK
6
CONTINUOUS
10
147.769
20
-64.5773
11
147.776
21
-64.5784
0
LINE
8
BLACK
6
CONTINUOUS
10
147.776
20
-64.5784
11
147.782
21
-64.5818
0
LINE
8
BLACK
6
CONTINUOUS
10
147.782
20
-64.5818
11
147.788
21
-64.584
0
LINE
8
BLACK
6
CONTINUOUS
10
147.788
20
-64.584
11
147.793
21
-64.5883
0
LINE
8
BLACK
6
CONTINUOUS
10
147.793
20
-64.5883
11
147.799
21
-64.5917
0
LINE
8
BLACK
6
CONTINUOUS
10
147.799
20
-64.5917
11
147.803
21
-64.5968
0
LINE
8
BLACK
6
CONTINUOUS
10
147.803
20
-64.5968
11
147.808
21
-64.601
0
LINE
8
BLACK
6
CONTINUOUS
10
147.808
20
-64.601
11
147.812
21
-64.6068
0
LINE
8
BLACK
6
CONTINUOUS
10
147.812
20
-64.6068
11
147.816
21
-64.6119
0
LINE
8
BLACK
6
CONTINUOUS
10
147.816
20
-64.6119
11
147.818
21
-64.6182
0
LINE
8
BLACK
6
CONTINUOUS
10
147.818
20
-64.6182
11
147.822
21
-64.624
0
LINE
8
BLACK
6
CONTINUOUS
10
147.822
20
-64.624
11
147.823
21
-64.6305
0
LINE
8
BLACK
6
CONTINUOUS
10
147.823
20
-64.6305
11
147.825
21
-64.6368
0
LINE
8
BLACK
6
CONTINUOUS
10
147.825
20
-64.6368
11
147.825
21
-64.6434
0
LINE
8
BLACK
6
CONTINUOUS
10
147.825
20
-64.6434
11
147.825
21
-64.6434
0
LINE
8
BLACK
6
CONTINUOUS
10
147.825
20
-64.6434
11
147.825
21
-69.1566
0
LINE
8
BLACK
6
CONTINUOUS
10
147.825
20
-69.1566
11
147.825
21
-69.1566
0
LINE
8
BLACK
6
CONTINUOUS
10
147.825
20
-69.1566
11
147.825
21
-69.1632
0
LINE
8
BLACK
6
CONTINUOUS
10
147.825
20
-69.1632
11
147.823
21
-69.1695
0
LINE
8
BLACK
6
CONTINUOUS
10
147.823
20
-69.1695
11
147.822
21
-69.176
0
LINE
8
BLACK
6
CONTINUOUS
10
147.822
20
-69.176
11
147.818
21
-69.1818
0
LINE
8
BLACK
6
CONTINUOUS
10
147.818
20
-69.1818
11
147.816
21
-69.1881
0
LINE
8
BLACK
6
CONTINUOUS
10
147.816
20
-69.1881
11
147.812
21
-69.1932
0
LINE
8
BLACK
6
CONTINUOUS
10
147.812
20
-69.1932
11
147.808
21
-69.199
0
LINE
8
BLACK
6
CONTINUOUS
10
147.808
20
-69.199
11
147.803
21
-69.2032
0
LINE
8
BLACK
6
CONTINUOUS
10
147.803
20
-69.2032
11
147.799
21
-69.2083
0
LINE
8
BLACK
6
CONTINUOUS
10
147.799
20
-69.2083
11
147.793
21
-69.2117
0
LINE
8
BLACK
6
CONTINUOUS
10
147.793
20
-69.2117
11
147.788
21
-69.216
0
LINE
8
BLACK
6
CONTINUOUS
10
147.788
20
-69.216
11
147.782
21
-69.2182
0
LINE
8
BLACK
6
CONTINUOUS
10
147.782
20
-69.2182
11
147.776
21
-69.2216
0
LINE
8
BLACK
6
CONTINUOUS
10
147.776
20
-69.2216
11
147.769
21
-69.2227
0
LINE
8
BLACK
6
CONTINUOUS
10
147.769
20
-69.2227
11
147.763
21
-69.225
0
LINE
8
BLACK
6
CONTINUOUS
10
147.763
20
-69.225
11
147.757
21
-69.225
0
LINE
8
BLACK
6
CONTINUOUS
10
147.757
20
-69.225
11
147.757
21
-69.225
0
LINE
8
BLACK
6
CONTINUOUS
10
147.757
20
-69.225
11
144.243
21
-69.225
0
LINE
8
BLACK
6
CONTINUOUS
10
144.243
20
-69.225
11
144.224
21
-69.2216
0
LINE
8
BLACK
6
CONTINUOUS
10
144.224
20
-69.2216
11
144.201
21
-69.2083
0
LINE
8
BLACK
6
CONTINUOUS
10
144.201
20
-69.2083
11
144.184
21
-69.1881
0
LINE
8
BLACK
6
CONTINUOUS
10
144.184
20
-69.1881
11
144.175
21
-69.1632
0
LINE
8
BLACK
6
CONTINUOUS
10
144.175
20
-69.1632
11
144.175
21
-69.1368
0
LINE
8
BLACK
6
CONTINUOUS
10
144.175
20
-69.1368
11
144.179
21
-69.1265
0
LINE
8
BLACK
6
CONTINUOUS
10
144.179
20
-69.1265
11
144.178
21
-69.126
0
LINE
8
BLACK
6
CONTINUOUS
10
144.178
20
-69.126
11
144.175
21
-69.1066
0
LINE
8
BLACK
6
CONTINUOUS
10
144.175
20
-69.1066
11
144.175
21
-64.6434
0
LINE
8
BLACK
6
CONTINUOUS
10
144.175
20
-64.6434
11
144.175
21
-64.6434
0
LINE
8
BLACK
6
CONTINUOUS
10
144.175
20
-64.6434
11
144.175
21
-64.6368
0
LINE
8
BLACK
6
CONTINUOUS
10
144.175
20
-64.6368
11
144.177
21
-64.6305
0
LINE
8
BLACK
6
CONTINUOUS
10
144.177
20
-64.6305
11
144.178
21
-64.624
0
LINE
8
BLACK
6
CONTINUOUS
10
144.178
20
-64.624
11
144.182
21
-64.6182
0
LINE
8
BLACK
6
CONTINUOUS
10
144.182
20
-64.6182
11
144.184
21
-64.6119
0
LINE
8
BLACK
6
CONTINUOUS
10
144.184
20
-64.6119
11
144.188
21
-64.6068
0
LINE
8
BLACK
6
CONTINUOUS
10
144.188
20
-64.6068
11
144.192
21
-64.601
0
LINE
8
BLACK
6
CONTINUOUS
10
144.192
20
-64.601
11
144.197
21
-64.5968
0
LINE
8
BLACK
6
CONTINUOUS
10
144.197
20
-64.5968
11
144.201
21
-64.5917
0
LINE
8
BLACK
6
CONTINUOUS
10
144.201
20
-64.5917
11
144.207
21
-64.5883
0
LINE
8
BLACK
6
CONTINUOUS
10
144.207
20
-64.5883
11
144.212
21
-64.584
0
LINE
8
BLACK
6
CONTINUOUS
10
144.212
20
-64.584
11
144.218
21
-64.5818
0
LINE
8
BLACK
6
CONTINUOUS
10
144.218
20
-64.5818
11
144.224
21
-64.5784
0
LINE
8
BLACK
6
CONTINUOUS
10
144.224
20
-64.5784
11
144.231
21
-64.5773
0
LINE
8
BLACK
6
CONTINUOUS
10
144.231
20
-64.5773
11
144.237
21
-64.575
0
LINE
8
BLACK
6
CONTINUOUS
10
144.237
20
-64.575
11
144.243
21
-64.575
0
LINE
8
BLACK
6
CONTINUOUS
10
144.243
20
-64.575
11
144.243
21
-64.575
0
LINE
8
BLACK
6
CONTINUOUS
10
144.243
20
-64.575
11
147.757
21
-64.575
0
LINE
8
BLACK
6
CONTINUOUS
10
147.757
20
-64.575
11
147.757
21
-64.575
0
LINE
8
BLACK
6
CONTINUOUS
10
144.325
20
-64.725
11
144.325
21
-69.075
0
LINE
8
BLACK
6
CONTINUOUS
10
144.325
20
-69.075
11
147.675
21
-69.075
0
LINE
8
BLACK
6
CONTINUOUS
10
147.675
20
-69.075
11
147.675
21
-64.725
0
LINE
8
BLACK
6
CONTINUOUS
10
147.675
20
-64.725
11
144.325
21
-64.725
0
LINE
8
BLACK
6
CONTINUOUS
10
128.757
20
-62.175
11
128.763
21
-62.175
0
LINE
8
BLACK
6
CONTINUOUS
10
128.763
20
-62.175
11
128.769
21
-62.1773
0
LINE
8
BLACK
6
CONTINUOUS
10
128.769
20
-62.1773
11
128.776
21
-62.1784
0
LINE
8
BLACK
6
CONTINUOUS
10
128.776
20
-62.1784
11
128.782
21
-62.1818
0
LINE
8
BLACK
6
CONTINUOUS
10
128.782
20
-62.1818
11
128.788
21
-62.184
0
LINE
8
BLACK
6
CONTINUOUS
10
128.788
20
-62.184
11
128.793
21
-62.1883
0
LINE
8
BLACK
6
CONTINUOUS
10
128.793
20
-62.1883
11
128.799
21
-62.1917
0
LINE
8
BLACK
6
CONTINUOUS
10
128.799
20
-62.1917
11
128.803
21
-62.1968
0
LINE
8
BLACK
6
CONTINUOUS
10
128.803
20
-62.1968
11
128.808
21
-62.201
0
LINE
8
BLACK
6
CONTINUOUS
10
128.808
20
-62.201
11
128.812
21
-62.2068
0
LINE
8
BLACK
6
CONTINUOUS
10
128.812
20
-62.2068
11
128.816
21
-62.2119
0
LINE
8
BLACK
6
CONTINUOUS
10
128.816
20
-62.2119
11
128.818
21
-62.2182
0
LINE
8
BLACK
6
CONTINUOUS
10
128.818
20
-62.2182
11
128.822
21
-62.224
0
LINE
8
BLACK
6
CONTINUOUS
10
128.822
20
-62.224
11
128.823
21
-62.2305
0
LINE
8
BLACK
6
CONTINUOUS
10
128.823
20
-62.2305
11
128.825
21
-62.2368
0
LINE
8
BLACK
6
CONTINUOUS
10
128.825
20
-62.2368
11
128.825
21
-62.2434
0
LINE
8
BLACK
6
CONTINUOUS
10
128.825
20
-62.2434
11
128.825
21
-62.2434
0
LINE
8
BLACK
6
CONTINUOUS
10
128.825
20
-62.2434
11
128.825
21
-66.7566
0
LINE
8
BLACK
6
CONTINUOUS
10
128.825
20
-66.7566
11
128.825
21
-66.7566
0
LINE
8
BLACK
6
CONTINUOUS
10
128.825
20
-66.7566
11
128.825
21
-66.7632
0
LINE
8
BLACK
6
CONTINUOUS
10
128.825
20
-66.7632
11
128.823
21
-66.7695
0
LINE
8
BLACK
6
CONTINUOUS
10
128.823
20
-66.7695
11
128.822
21
-66.776
0
LINE
8
BLACK
6
CONTINUOUS
10
128.822
20
-66.776
11
128.818
21
-66.7818
0
LINE
8
BLACK
6
CONTINUOUS
10
128.818
20
-66.7818
11
128.816
21
-66.7881
0
LINE
8
BLACK
6
CONTINUOUS
10
128.816
20
-66.7881
11
128.812
21
-66.7932
0
LINE
8
BLACK
6
CONTINUOUS
10
128.812
20
-66.7932
11
128.808
21
-66.799
0
LINE
8
BLACK
6
CONTINUOUS
10
128.808
20
-66.799
11
128.803
21
-66.8032
0
LINE
8
BLACK
6
CONTINUOUS
10
128.803
20
-66.8032
11
128.799
21
-66.8083
0
LINE
8
BLACK
6
CONTINUOUS
10
128.799
20
-66.8083
11
128.793
21
-66.8117
0
LINE
8
BLACK
6
CONTINUOUS
10
128.793
20
-66.8117
11
128.788
21
-66.816
0
LINE
8
BLACK
6
CONTINUOUS
10
128.788
20
-66.816
11
128.782
21
-66.8182
0
LINE
8
BLACK
6
CONTINUOUS
10
128.782
20
-66.8182
11
128.776
21
-66.8216
0
LINE
8
BLACK
6
CONTINUOUS
10
128.776
20
-66.8216
11
128.769
21
-66.8227
0
LINE
8
BLACK
6
CONTINUOUS
10
128.769
20
-66.8227
11
128.763
21
-66.825
0
LINE
8
BLACK
6
CONTINUOUS
10
128.763
20
-66.825
11
128.757
21
-66.825
0
LINE
8
BLACK
6
CONTINUOUS
10
128.757
20
-66.825
11
128.757
21
-66.825
0
LINE
8
BLACK
6
CONTINUOUS
10
128.757
20
-66.825
11
125.243
21
-66.825
0
LINE
8
BLACK
6
CONTINUOUS
10
125.243
20
-66.825
11
125.224
21
-66.8216
0
LINE
8
BLACK
6
CONTINUOUS
10
125.224
20
-66.8216
11
125.201
21
-66.8083
0
LINE
8
BLACK
6
CONTINUOUS
10
125.201
20
-66.8083
11
125.184
21
-66.7881
0
LINE
8
BLACK
6
CONTINUOUS
10
125.184
20
-66.7881
11
125.175
21
-66.7632
0
LINE
8
BLACK
6
CONTINUOUS
10
125.175
20
-66.7632
11
125.175
21
-66.7368
0
LINE
8
BLACK
6
CONTINUOUS
10
125.175
20
-66.7368
11
125.179
21
-66.7265
0
LINE
8
BLACK
6
CONTINUOUS
10
125.179
20
-66.7265
11
125.178
21
-66.726
0
LINE
8
BLACK
6
CONTINUOUS
10
125.178
20
-66.726
11
125.175
21
-66.7066
0
LINE
8
BLACK
6
CONTINUOUS
10
125.175
20
-66.7066
11
125.175
21
-62.2434
0
LINE
8
BLACK
6
CONTINUOUS
10
125.175
20
-62.2434
11
125.175
21
-62.2434
0
LINE
8
BLACK
6
CONTINUOUS
10
125.175
20
-62.2434
11
125.175
21
-62.2368
0
LINE
8
BLACK
6
CONTINUOUS
10
125.175
20
-62.2368
11
125.177
21
-62.2305
0
LINE
8
BLACK
6
CONTINUOUS
10
125.177
20
-62.2305
11
125.178
21
-62.224
0
LINE
8
BLACK
6
CONTINUOUS
10
125.178
20
-62.224
11
125.182
21
-62.2182
0
LINE
8
BLACK
6
CONTINUOUS
10
125.182
20
-62.2182
11
125.184
21
-62.2119
0
LINE
8
BLACK
6
CONTINUOUS
10
125.184
20
-62.2119
11
125.188
21
-62.2068
0
LINE
8
BLACK
6
CONTINUOUS
10
125.188
20
-62.2068
11
125.192
21
-62.201
0
LINE
8
BLACK
6
CONTINUOUS
10
125.192
20
-62.201
11
125.197
21
-62.1968
0
LINE
8
BLACK
6
CONTINUOUS
10
125.197
20
-62.1968
11
125.201
21
-62.1917
0
LINE
8
BLACK
6
CONTINUOUS
10
125.201
20
-62.1917
11
125.207
21
-62.1883
0
LINE
8
BLACK
6
CONTINUOUS
10
125.207
20
-62.1883
11
125.212
21
-62.184
0
LINE
8
BLACK
6
CONTINUOUS
10
125.212
20
-62.184
11
125.218
21
-62.1818
0
LINE
8
BLACK
6
CONTINUOUS
10
125.218
20
-62.1818
11
125.224
21
-62.1784
0
LINE
8
BLACK
6
CONTINUOUS
10
125.224
20
-62.1784
11
125.231
21
-62.1773
0
LINE
8
BLACK
6
CONTINUOUS
10
125.231
20
-62.1773
11
125.237
21
-62.175
0
LINE
8
BLACK
6
CONTINUOUS
10
125.237
20
-62.175
11
125.243
21
-62.175
0
LINE
8
BLACK
6
CONTINUOUS
10
125.243
20
-62.175
11
125.243
21
-62.175
0
LINE
8
BLACK
6
CONTINUOUS
10
125.243
20
-62.175
11
128.757
21
-62.175
0
LINE
8
BLACK
6
CONTINUOUS
10
128.757
20
-62.175
11
128.757
21
-62.175
0
LINE
8
BLACK
6
CONTINUOUS
10
125.325
20
-62.325
11
125.325
21
-66.675
0
LINE
8
BLACK
6
CONTINUOUS
10
125.325
20
-66.675
11
128.675
21
-66.675
0
LINE
8
BLACK
6
CONTINUOUS
10
128.675
20
-66.675
11
128.675
21
-62.325
0
LINE
8
BLACK
6
CONTINUOUS
10
128.675
20
-62.325
11
125.325
21
-62.325
  0
ENDSEC
  0
EOF
