  0
SECTION
  2
HEADER
  9
$ACADVER
  1
AC1024
  9
$ACADMAINTVER
 70
     6
  9
$DWGCODEPAGE
  3
UNDEFINED
  9
$INSBASE
 10
0.0
 20
0.0
 30
0.0
  9
$EXTMIN
 10
1.000000000000000E+20
 20
1.000000000000000E+20
 30
1.000000000000000E+20
  9
$EXTMAX
 10
-1.000000000000000E+20
 20
-1.000000000000000E+20
 30
-1.000000000000000E+20
  9
$LIMMIN
 10
0.0
 20
0.0
  9
$LIMMAX
 10
12.0
 20
9.0
  9
$ORTHOMODE
 70
     0
  9
$REGENMODE
 70
     1
  9
$FILLMODE
 70
     1
  9
$QTEXTMODE
 70
     0
  9
$MIRRTEXT
 70
     1
  9
$LTSCALE
 40
1.0
  9
$ATTMODE
 70
     1
  9
$TEXTSIZE
 40
0.2
  9
$TRACEWID
 40
0.05
  9
$TEXTSTYLE
  7
Standard
  9
$CLAYER
  8
0
  9
$CELTYPE
  6
ByLayer
  9
$CECOLOR
 62
   256
  9
$CELTSCALE
 40
1.0
  9
$DISPSILH
 70
     0
  9
$DIMSCALE
 40
1.0
  9
$DIMASZ
 40
0.18
  9
$DIMEXO
 40
0.0625
  9
$DIMDLI
 40
0.38
  9
$DIMRND
 40
0.0
  9
$DIMDLE
 40
0.0
  9
$DIMEXE
 40
0.18
  9
$DIMTP
 40
0.0
  9
$DIMTM
 40
0.0
  9
$DIMTXT
 40
0.18
  9
$DIMCEN
 40
0.09
  9
$DIMTSZ
 40
0.0
  9
$DIMTOL
 70
     0
  9
$DIMLIM
 70
     0
  9
$DIMTIH
 70
     1
  9
$DIMTOH
 70
     1
  9
$DIMSE1
 70
     0
  9
$DIMSE2
 70
     0
  9
$DIMTAD
 70
     0
  9
$DIMZIN
 70
     0
  9
$DIMBLK
  1

  9
$DIMASO
 70
     1
  9
$DIMSHO
 70
     1
  9
$DIMPOST
  1

  9
$DIMAPOST
  1

  9
$DIMALT
 70
     0
  9
$DIMALTD
 70
     2
  9
$DIMALTF
 40
25.4
  9
$DIMLFAC
 40
1.0
  9
$DIMTOFL
 70
     0
  9
$DIMTVP
 40
0.0
  9
$DIMTIX
 70
     0
  9
$DIMSOXD
 70
     0
  9
$DIMSAH
 70
     0
  9
$DIMBLK1
  1

  9
$DIMBLK2
  1

  9
$DIMSTYLE
  2
Standard
  9
$DIMCLRD
 70
     0
  9
$DIMCLRE
 70
     0
  9
$DIMCLRT
 70
     0
  9
$DIMTFAC
 40
1.0
  9
$DIMGAP
 40
0.09
  9
$DIMJUST
 70
     0
  9
$DIMSD1
 70
     0
  9
$DIMSD2
 70
     0
  9
$DIMTOLJ
 70
     1
  9
$DIMTZIN
 70
     0
  9
$DIMALTZ
 70
     0
  9
$DIMALTTZ
 70
     0
  9
$DIMUPT
 70
     0
  9
$DIMDEC
 70
     4
  9
$DIMTDEC
 70
     4
  9
$DIMALTU
 70
     2
  9
$DIMALTTD
 70
     2
  9
$DIMTXSTY
  7
Standard
  9
$DIMAUNIT
 70
     0
  9
$DIMADEC
 70
     0
  9
$DIMALTRND
 40
0.0
  9
$DIMAZIN
 70
     0
  9
$DIMDSEP
 70
    46
  9
$DIMATFIT
 70
     3
  9
$DIMFRAC
 70
     0
  9
$DIMLDRBLK
  1

  9
$DIMLUNIT
 70
     2
  9
$DIMLWD
 70
    -2
  9
$DIMLWE
 70
    -2
  9
$DIMTMOVE
 70
     0
  9
$DIMFXL
 40
1.0
  9
$DIMFXLON
 70
     0
  9
$DIMJOGANG
 40
0.7853981633974483
  9
$DIMTFILL
 70
     0
  9
$DIMTFILLCLR
 70
     0
  9
$DIMARCSYM
 70
     0
  9
$DIMLTYPE
  6

  9
$DIMLTEX1
  6

  9
$DIMLTEX2
  6

  9
$DIMTXTDIRECTION
 70
     0
  9
$LUNITS
 70
     2
  9
$LUPREC
 70
     4
  9
$SKETCHINC
 40
0.1
  9
$FILLETRAD
 40
0.5
  9
$AUNITS
 70
     0
  9
$AUPREC
 70
     0
  9
$MENU
  1
.
  9
$ELEVATION
 40
0.0
  9
$PELEVATION
 40
0.0
  9
$THICKNESS
 40
0.0
  9
$LIMCHECK
 70
     0
  9
$CHAMFERA
 40
0.5
  9
$CHAMFERB
 40
0.5
  9
$CHAMFERC
 40
1.0
  9
$CHAMFERD
 40
0.0
  9
$SKPOLY
 70
     0
  9
$TDCREATE
 40
2458759.52148147
  9
$TDUCREATE
 40
2458759.146481481
  9
$TDUPDATE
 40
2458759.52148147
  9
$TDUUPDATE
 40
2458759.146481481
  9
$TDINDWG
 40
0.0000000116
  9
$TDUSRTIMER
 40
0.0000000116
  9
$USRTIMER
 70
     1
  9
$ANGBASE
 50
0.0
  9
$ANGDIR
 70
     0
  9
$PDMODE
 70
     0
  9
$PDSIZE
 40
0.0
  9
$PLINEWID
 40
0.0
  9
$SPLFRAME
 70
     0
  9
$SPLINETYPE
 70
     6
  9
$SPLINESEGS
 70
     8
  9
$HANDSEED
  5
F0
  9
$SURFTAB1
 70
     6
  9
$SURFTAB2
 70
     6
  9
$SURFTYPE
 70
     6
  9
$SURFU
 70
     6
  9
$SURFV
 70
     6
  9
$UCSBASE
  2

  9
$UCSNAME
  2

  9
$UCSORG
 10
0.0
 20
0.0
 30
0.0
  9
$UCSXDIR
 10
1.0
 20
0.0
 30
0.0
  9
$UCSYDIR
 10
0.0
 20
1.0
 30
0.0
  9
$UCSORTHOREF
  2

  9
$UCSORTHOVIEW
 70
     0
  9
$UCSORGTOP
 10
0.0
 20
0.0
 30
0.0
  9
$UCSORGBOTTOM
 10
0.0
 20
0.0
 30
0.0
  9
$UCSORGLEFT
 10
0.0
 20
0.0
 30
0.0
  9
$UCSORGRIGHT
 10
0.0
 20
0.0
 30
0.0
  9
$UCSORGFRONT
 10
0.0
 20
0.0
 30
0.0
  9
$UCSORGBACK
 10
0.0
 20
0.0
 30
0.0
  9
$PUCSBASE
  2

  9
$PUCSNAME
  2

  9
$PUCSORG
 10
0.0
 20
0.0
 30
0.0
  9
$PUCSXDIR
 10
1.0
 20
0.0
 30
0.0
  9
$PUCSYDIR
 10
0.0
 20
1.0
 30
0.0
  9
$PUCSORTHOREF
  2

  9
$PUCSORTHOVIEW
 70
     0
  9
$PUCSORGTOP
 10
0.0
 20
0.0
 30
0.0
  9
$PUCSORGBOTTOM
 10
0.0
 20
0.0
 30
0.0
  9
$PUCSORGLEFT
 10
0.0
 20
0.0
 30
0.0
  9
$PUCSORGRIGHT
 10
0.0
 20
0.0
 30
0.0
  9
$PUCSORGFRONT
 10
0.0
 20
0.0
 30
0.0
  9
$PUCSORGBACK
 10
0.0
 20
0.0
 30
0.0
  9
$USERI1
 70
     0
  9
$USERI2
 70
     0
  9
$USERI3
 70
     0
  9
$USERI4
 70
     0
  9
$USERI5
 70
     0
  9
$USERR1
 40
0.0
  9
$USERR2
 40
0.0
  9
$USERR3
 40
0.0
  9
$USERR4
 40
0.0
  9
$USERR5
 40
0.0
  9
$WORLDVIEW
 70
     1
  9
$SHADEDGE
 70
     3
  9
$SHADEDIF
 70
    70
  9
$TILEMODE
 70
     1
  9
$MAXACTVP
 70
    64
  9
$PINSBASE
 10
0.0
 20
0.0
 30
0.0
  9
$PLIMCHECK
 70
     0
  9
$PEXTMIN
 10
1.000000000000000E+20
 20
1.000000000000000E+20
 30
1.000000000000000E+20
  9
$PEXTMAX
 10
-1.000000000000000E+20
 20
-1.000000000000000E+20
 30
-1.000000000000000E+20
  9
$PLIMMIN
 10
0.0
 20
0.0
  9
$PLIMMAX
 10
12.0
 20
9.0
  9
$UNITMODE
 70
     0
  9
$VISRETAIN
 70
     1
  9
$PLINEGEN
 70
     0
  9
$PSLTSCALE
 70
     1
  9
$TREEDEPTH
 70
  3020
  9
$CMLSTYLE
  2
Standard
  9
$CMLJUST
 70
     0
  9
$CMLSCALE
 40
1.0
  9
$PROXYGRAPHICS
 70
     1
  9
$MEASUREMENT
 70
     0
  9
$CELWEIGHT
370
    -1
  9
$ENDCAPS
280
     0
  9
$JOINSTYLE
280
     0
  9
$LWDISPLAY
290
     1
  9
$INSUNITS
 70
     1
  9
$HYPERLINKBASE
  1

  9
$STYLESHEET
  1

  9
$XEDIT
290
     1
  9
$CEPSNTYPE
380
     0
  9
$PSTYLEMODE
290
     1
  9
$FINGERPRINTGUID
  2
{A0978E64-4612-7A7B-EA2D-0F375C2625EE}
  9
$VERSIONGUID
  2
{FAEB1C32-E019-11D5-929B-00C0DF256EC4}
  9
$EXTNAMES
290
     1
  9
$PSVPSCALE
 40
0.0
  9
$OLESTARTUP
290
     0
  9
$SORTENTS
280
   127
  9
$INDEXCTL
280
     0
  9
$HIDETEXT
280
     1
  9
$XCLIPFRAME
280
     2
  9
$HALOGAP
280
     0
  9
$OBSCOLOR
 70
   257
  9
$OBSLTYPE
280
     0
  9
$INTERSECTIONDISPLAY
280
     0
  9
$INTERSECTIONCOLOR
 70
   257
  9
$DIMASSOC
280
     2
  9
$PROJECTNAME
  1

  9
$CAMERADISPLAY
290
     0
  9
$LENSLENGTH
 40
50.0
  9
$CAMERAHEIGHT
 40
0.0
  9
$STEPSPERSEC
 40
2.0
  9
$STEPSIZE
 40
6.0
  9
$3DDWFPREC
 40
2.0
  9
$PSOLWIDTH
 40
0.25
  9
$PSOLHEIGHT
 40
4.0
  9
$LOFTANG1
 40
1.570796326794897
  9
$LOFTANG2
 40
1.570796326794897
  9
$LOFTMAG1
 40
0.0
  9
$LOFTMAG2
 40
0.0
  9
$LOFTPARAM
 70
     7
  9
$LOFTNORMALS
280
     1
  9
$LATITUDE
 40
37.795
  9
$LONGITUDE
 40
-122.394
  9
$NORTHDIRECTION
 40
0.0
  9
$TIMEZONE
 70
 -8000
  9
$LIGHTGLYPHDISPLAY
280
     1
  9
$TILEMODELIGHTSYNCH
280
     1
  9
$CMATERIAL
347
3C
  9
$SOLIDHIST
280
     1
  9
$SHOWHIST
280
     1
  9
$DWFFRAME
280
     2
  9
$DGNFRAME
280
     2
  9
$REALWORLDSCALE
290
     1
  9
$INTERFERECOLOR
 62
   256
  9
$CSHADOW
280
     0
  9
$SHADOWPLANELOCATION
 40
0.0
  0
ENDSEC
  0
SECTION
  2
CLASSES
  0
CLASS
  1
ACDBDICTIONARYWDFLT
  2
AcDbDictionaryWithDefault
  3
ObjectDBX Classes
 90
        0
 91
        4
280
     0
281
     0
  0
CLASS
  1
VISUALSTYLE
  2
AcDbVisualStyle
  3
ObjectDBX Classes
 90
     4095
 91
        4
280
     0
281
     0
  0
CLASS
  1
MATERIAL
  2
AcDbMaterial
  3
ObjectDBX Classes
 90
     1153
 91
        4
280
     0
281
     0
  0
CLASS
  1
SUN
  2
AcDbSun
  3
SCENEOE
 90
     1024
 91
        4
280
     0
281
     0
  0
ENDSEC
  0
SECTION
  2
TABLES
  0
TABLE
  2
VPORT
  5
8
330
0
100
AcDbSymbolTable
 70
     1
  0
VPORT
  5
29
330
8
100
AcDbSymbolTableRecord
100
AcDbViewportTableRecord
  2
*Active
 70
     0
 10
0.0
 20
0.0
 11
1.0
 21
1.0
 12
0.0
 22
0.0
 13
0.0
 23
0.0
 14
0.5
 24
0.5
 15
0.5
 25
0.5
 16
0.0
 26
0.0
 36
1.0
 17
0.0
 27
0.0
 37
0.0
 40
8.26771653543306
 41
0.7047619047619044
 42
50.0
 43
0.0
 44
0.0
 50
0.0
 51
0.0
 71
     0
 72
   100
 73
     1
 74
     3
 75
     0
 76
     0
 77
     0
 78
     0
281
     0
 65
     1
110
0.0
120
0.0
130
0.0
111
1.0
121
0.0
131
0.0
112
0.0
122
1.0
132
0.0
 79
     0
146
0.0
 60
     3
 61
     5
292
     1
282
     1
141
0.0
142
0.0
 63
   250
361
3F
  0
ENDTAB
  0
TABLE
  2
LTYPE
  5
5
330
0
100
AcDbSymbolTable
 70
     1
  0
LTYPE
  5
14
330
5
100
AcDbSymbolTableRecord
100
AcDbLinetypeTableRecord
  2
ByBlock
 70
     0
  3

 72
    65
 73
     0
 40
0.0
  0
LTYPE
  5
15
330
5
100
AcDbSymbolTableRecord
100
AcDbLinetypeTableRecord
  2
ByLayer
 70
     0
  3

 72
    65
 73
     0
 40
0.0
  0
LTYPE
  5
16
330
5
100
AcDbSymbolTableRecord
100
AcDbLinetypeTableRecord
  2
Continuous
 70
     0
  3
Solid line
 72
    65
 73
     0
 40
0.0
  0
ENDTAB
  0
TABLE
  2
LAYER
  5
2
330
0
100
AcDbSymbolTable
 70
     3
  0
LAYER
  5
10
330
2
100
AcDbSymbolTableRecord
100
AcDbLayerTableRecord
  2
0
 70
     0
 62
     7
  6
Continuous
370
    -3
390
F
347
3E
  0
LAYER
  5
40
330
2
100
AcDbSymbolTableRecord
100
AcDbLayerTableRecord
  2
_U+5F6B_U+523B_U+30D1_U+30B9
 70
     0
 62
     7
  6
Continuous
370
    -3
390
F
347
3E
  0
LAYER
  5
97
330
2
100
AcDbSymbolTableRecord
100
AcDbLayerTableRecord
  2
_U+5207_U+65AD_U+30D1_U+30B9
 70
     0
 62
     7
  6
Continuous
370
    -3
390
F
347
3E
  0
ENDTAB
  0
TABLE
  2
STYLE
  5
3
330
0
100
AcDbSymbolTable
 70
     1
  0
STYLE
  5
11
330
3
100
AcDbSymbolTableRecord
100
AcDbTextStyleTableRecord
  2
Standard
 70
     0
 40
0.0
 41
1.0
 50
0.0
 71
     0
 42
0.2
  3
txt
  4

  0
ENDTAB
  0
TABLE
  2
VIEW
  5
6
330
0
100
AcDbSymbolTable
 70
     0
  0
ENDTAB
  0
TABLE
  2
UCS
  5
7
330
0
100
AcDbSymbolTable
 70
     0
  0
ENDTAB
  0
TABLE
  2
APPID
  5
9
330
0
100
AcDbSymbolTable
 70
     1
  0
APPID
  5
12
330
9
100
AcDbSymbolTableRecord
100
AcDbRegAppTableRecord
  2
ACAD
 70
     0
  0
ENDTAB
  0
TABLE
  2
DIMSTYLE
  5
A
330
0
100
AcDbSymbolTable
 70
     1
100
AcDbDimStyleTable
  0
DIMSTYLE
105
27
330
A
100
AcDbSymbolTableRecord
100
AcDbDimStyleTableRecord
  2
Standard
 70
     0
178
     0
340
11
  0
ENDTAB
  0
TABLE
  2
BLOCK_RECORD
  5
1
330
0
100
AcDbSymbolTable
 70
    26
  0
BLOCK_RECORD
  5
1F
330
1
100
AcDbSymbolTableRecord
100
AcDbBlockTableRecord
  2
*Model_Space
340
22
 70
     0
280
     1
281
     0
  0
BLOCK_RECORD
  5
1B
330
1
100
AcDbSymbolTableRecord
100
AcDbBlockTableRecord
  2
*Paper_Space
340
1E
 70
     0
280
     1
281
     0
  0
BLOCK_RECORD
  5
23
330
1
100
AcDbSymbolTableRecord
100
AcDbBlockTableRecord
  2
*Paper_Space0
340
26
 70
     0
280
     1
281
     0
  0
BLOCK_RECORD
  5
41
330
1
100
AcDbSymbolTableRecord
100
AcDbBlockTableRecord
  2
block 2
340
0
102
{BLKREFS
331
42
102
}
 70
     0
280
     1
281
     0
  0
BLOCK_RECORD
  5
47
330
1
100
AcDbSymbolTableRecord
100
AcDbBlockTableRecord
  2
block 3
340
0
102
{BLKREFS
331
48
102
}
 70
     0
280
     1
281
     0
  0
BLOCK_RECORD
  5
58
330
1
100
AcDbSymbolTableRecord
100
AcDbBlockTableRecord
  2
block 4
340
0
102
{BLKREFS
331
59
102
}
 70
     0
280
     1
281
     0
  0
BLOCK_RECORD
  5
5C
330
1
100
AcDbSymbolTableRecord
100
AcDbBlockTableRecord
  2
block 5
340
0
102
{BLKREFS
331
5D
102
}
 70
     0
280
     1
281
     0
  0
BLOCK_RECORD
  5
6C
330
1
100
AcDbSymbolTableRecord
100
AcDbBlockTableRecord
  2
block 6
340
0
102
{BLKREFS
331
6D
102
}
 70
     0
280
     1
281
     0
  0
BLOCK_RECORD
  5
72
330
1
100
AcDbSymbolTableRecord
100
AcDbBlockTableRecord
  2
block 7
340
0
102
{BLKREFS
331
73
102
}
 70
     0
280
     1
281
     0
  0
BLOCK_RECORD
  5
83
330
1
100
AcDbSymbolTableRecord
100
AcDbBlockTableRecord
  2
block 8
340
0
102
{BLKREFS
331
84
102
}
 70
     0
280
     1
281
     0
  0
BLOCK_RECORD
  5
87
330
1
100
AcDbSymbolTableRecord
100
AcDbBlockTableRecord
  2
block 9
340
0
102
{BLKREFS
331
88
102
}
 70
     0
280
     1
281
     0
  0
BLOCK_RECORD
  5
98
330
1
100
AcDbSymbolTableRecord
100
AcDbBlockTableRecord
  2
block 10
340
0
102
{BLKREFS
331
99
102
}
 70
     0
280
     1
281
     0
  0
BLOCK_RECORD
  5
9C
330
1
100
AcDbSymbolTableRecord
100
AcDbBlockTableRecord
  2
block 11
340
0
102
{BLKREFS
331
9D
102
}
 70
     0
280
     1
281
     0
  0
BLOCK_RECORD
  5
A1
330
1
100
AcDbSymbolTableRecord
100
AcDbBlockTableRecord
  2
block 12
340
0
102
{BLKREFS
331
A2
102
}
 70
     0
280
     1
281
     0
  0
BLOCK_RECORD
  5
A6
330
1
100
AcDbSymbolTableRecord
100
AcDbBlockTableRecord
  2
block 13
340
0
102
{BLKREFS
331
A7
102
}
 70
     0
280
     1
281
     0
  0
BLOCK_RECORD
  5
AB
330
1
100
AcDbSymbolTableRecord
100
AcDbBlockTableRecord
  2
block 14
340
0
102
{BLKREFS
331
AC
102
}
 70
     0
280
     1
281
     0
  0
BLOCK_RECORD
  5
B0
330
1
100
AcDbSymbolTableRecord
100
AcDbBlockTableRecord
  2
block 15
340
0
102
{BLKREFS
331
B1
102
}
 70
     0
280
     1
281
     0
  0
BLOCK_RECORD
  5
B6
330
1
100
AcDbSymbolTableRecord
100
AcDbBlockTableRecord
  2
block 16
340
0
102
{BLKREFS
331
B7
102
}
 70
     0
280
     1
281
     0
  0
BLOCK_RECORD
  5
BA
330
1
100
AcDbSymbolTableRecord
100
AcDbBlockTableRecord
  2
block 17
340
0
102
{BLKREFS
331
BB
102
}
 70
     0
280
     1
281
     0
  0
BLOCK_RECORD
  5
BF
330
1
100
AcDbSymbolTableRecord
100
AcDbBlockTableRecord
  2
block 18
340
0
102
{BLKREFS
331
C0
102
}
 70
     0
280
     1
281
     0
  0
BLOCK_RECORD
  5
C4
330
1
100
AcDbSymbolTableRecord
100
AcDbBlockTableRecord
  2
block 19
340
0
102
{BLKREFS
331
C5
102
}
 70
     0
280
     1
281
     0
  0
BLOCK_RECORD
  5
C9
330
1
100
AcDbSymbolTableRecord
100
AcDbBlockTableRecord
  2
block 20
340
0
102
{BLKREFS
331
CA
102
}
 70
     0
280
     1
281
     0
  0
BLOCK_RECORD
  5
CE
330
1
100
AcDbSymbolTableRecord
100
AcDbBlockTableRecord
  2
block 21
340
0
102
{BLKREFS
331
CF
102
}
 70
     0
280
     1
281
     0
  0
BLOCK_RECORD
  5
D4
330
1
100
AcDbSymbolTableRecord
100
AcDbBlockTableRecord
  2
block 22
340
0
102
{BLKREFS
331
D5
102
}
 70
     0
280
     1
281
     0
  0
BLOCK_RECORD
  5
DB
330
1
100
AcDbSymbolTableRecord
100
AcDbBlockTableRecord
  2
block 23
340
0
102
{BLKREFS
331
DC
102
}
 70
     0
280
     1
281
     0
  0
BLOCK_RECORD
  5
DF
330
1
100
AcDbSymbolTableRecord
100
AcDbBlockTableRecord
  2
block 24
340
0
102
{BLKREFS
331
E0
102
}
 70
     0
280
     1
281
     0
  0
BLOCK_RECORD
  5
E4
330
1
100
AcDbSymbolTableRecord
100
AcDbBlockTableRecord
  2
block 25
340
0
102
{BLKREFS
331
E5
102
}
 70
     0
280
     1
281
     0
  0
BLOCK_RECORD
  5
E9
330
1
100
AcDbSymbolTableRecord
100
AcDbBlockTableRecord
  2
block 26
340
0
102
{BLKREFS
331
EA
102
}
 70
     0
280
     1
281
     0
  0
ENDTAB
  0
ENDSEC
  0
SECTION
  2
BLOCKS
  0
BLOCK
  5
20
330
1F
100
AcDbEntity
  8
0
100
AcDbBlockBegin
  2
*Model_Space
 70
     0
 10
0.0
 20
0.0
 30
0.0
  3
*Model_Space
  1

  0
ENDBLK
  5
21
330
1F
100
AcDbEntity
  8
0
100
AcDbBlockEnd
  0
BLOCK
  5
1C
330
1B
100
AcDbEntity
 67
     1
  8
0
100
AcDbBlockBegin
  2
*Paper_Space
 70
     0
 10
0.0
 20
0.0
 30
0.0
  3
*Paper_Space
  1

  0
ENDBLK
  5
1D
330
1B
100
AcDbEntity
 67
     1
  8
0
100
AcDbBlockEnd
  0
BLOCK
  5
24
330
23
100
AcDbEntity
  8
0
100
AcDbBlockBegin
  2
*Paper_Space0
 70
     0
 10
0.0
 20
0.0
 30
0.0
  3
*Paper_Space0
  1

  0
ENDBLK
  5
25
330
23
100
AcDbEntity
  8
0
100
AcDbBlockEnd
  0
BLOCK
  5
43
330
41
100
AcDbEntity
  8
0
100
AcDbBlockBegin
  2
block 2
 70
     0
 10
0.0
 20
0.0
 30
0.0
  3
block 2
  1

  0
SPLINE
  5
45
330
41
100
AcDbEntity
  8
_U+5F6B_U+523B_U+30D1_U+30B9
370
     0
100
AcDbSpline
210
0.0
220
0.0
230
1.0
 70
    11
 71
     3
 72
   107
 73
   103
 74
     0
 42
0.0000000001
 43
0.0000000001
 12
1.0
 22
0.0
 32
0.0
 13
1.0
 23
0.0
 33
0.0
 40
0.0
 40
0.0
 40
0.0
 40
0.0
 40
1.0
 40
1.0
 40
1.0
 40
2.0
 40
2.0
 40
2.0
 40
3.0
 40
3.0
 40
3.0
 40
4.0
 40
4.0
 40
4.0
 40
5.0
 40
5.0
 40
5.0
 40
6.0
 40
6.0
 40
6.0
 40
7.0
 40
7.0
 40
7.0
 40
8.0
 40
8.0
 40
8.0
 40
9.0
 40
9.0
 40
9.0
 40
10.0
 40
10.0
 40
10.0
 40
11.0
 40
11.0
 40
11.0
 40
12.0
 40
12.0
 40
12.0
 40
13.0
 40
13.0
 40
13.0
 40
14.0
 40
14.0
 40
14.0
 40
15.0
 40
15.0
 40
15.0
 40
16.0
 40
16.0
 40
16.0
 40
17.0
 40
17.0
 40
17.0
 40
18.0
 40
18.0
 40
18.0
 40
19.0
 40
19.0
 40
19.0
 40
20.0
 40
20.0
 40
20.0
 40
21.0
 40
21.0
 40
21.0
 40
22.0
 40
22.0
 40
22.0
 40
23.0
 40
23.0
 40
23.0
 40
24.0
 40
24.0
 40
24.0
 40
25.0
 40
25.0
 40
25.0
 40
26.0
 40
26.0
 40
26.0
 40
27.0
 40
27.0
 40
27.0
 40
28.0
 40
28.0
 40
28.0
 40
29.0
 40
29.0
 40
29.0
 40
30.0
 40
30.0
 40
30.0
 40
31.0
 40
31.0
 40
31.0
 40
32.0
 40
32.0
 40
32.0
 40
33.0
 40
33.0
 40
33.0
 40
34.0
 40
34.0
 40
34.0
 40
34.0
 10
1.337013283086511
 20
1.667791040611013
 30
0.0
 10
1.337671735680462
 20
1.639406650056015
 30
0.0
 10
1.311143980525811
 20
1.551862896689272
 30
0.0
 10
1.244676189661909
 20
1.551862896689272
 30
0.0
 10
1.225693394073738
 20
1.551862896689272
 30
0.0
 10
1.207551700897587
 20
1.560992647843654
 30
0.0
 10
1.197326659667775
 20
1.576382721511133
 30
0.0
 10
1.187269686044475
 20
1.591550300932694
 30
0.0
 10
1.183388652053736
 20
1.610195803661302
 30
0.0
 10
1.183388652053736
 20
1.631356054909904
 30
0.0
 10
1.183540251402696
 20
1.677425818512297
 30
0.0
 10
1.202034154311226
 20
1.737869209544695
 30
0.0
 10
1.240642064014259
 20
1.80638359161973
 30
0.0
 10
1.278255749874436
 20
1.872600238983927
 30
0.0
 10
1.299062303895653
 20
1.930344065705817
 30
0.0
 10
1.298725010565022
 20
1.973566014228658
 30
0.0
 10
1.298725010565022
 20
1.99631383139917
 30
0.0
 10
1.293510662676529
 20
2.014798906233257
 30
0.0
 10
1.282778768201676
 20
2.030730232194855
 30
0.0
 10
1.271861179745151
 20
2.046590020310961
 30
0.0
 10
1.254733193059085
 20
2.060538682497736
 30
0.0
 10
1.228560722617481
 20
2.07186205796668
 30
0.0
 10
1.209409553963395
 20
2.080078864447185
 30
0.0
 10
1.190948528022065
 20
2.083774174682427
 30
0.0
 10
1.173499686489044
 20
2.083774174682427
 30
0.0
 10
1.135717962796232
 20
2.083774174682427
 30
0.0
 10
1.099641275154858
 20
2.066823053903489
 30
0.0
 10
1.067563400862809
 20
2.036702576828146
 30
0.0
 10
1.035315662240035
 20
2.006558355276411
 30
0.0
 10
1.00762381891175
 20
1.963484961938775
 30
0.0
 10
0.9883034255765829
 20
1.914388995267978
 30
0.0
 10
0.9730485127744638
 20
1.875947601315703
 30
0.0
 10
0.9502008470367652
 20
1.795532974763116
 30
0.0
 10
0.9502008470367652
 20
1.712757903728895
 30
0.0
 10
0.9502008470367652
 20
1.679280931830716
 30
0.0
 10
0.9542514111680399
 20
1.645634704434592
 30
0.0
 10
0.9629735488117855
 20
1.61389381905686
 30
0.0
 10
0.8785351467680205
 20
1.732672822221755
 30
0.0
 10
0.9214968193001974
 20
1.892720029689321
 30
0.0
 10
0.9569342325785328
 20
1.96676717916878
 30
0.0
 10
0.9435015561276839
 20
1.972150782555369
 30
0.0
 10
0.9297151711301315
 20
1.974918536131251
 30
0.0
 10
0.915642002295221
 20
1.974918536131251
 30
0.0
 10
0.9147975283911415
 20
1.974918536131251
 30
0.0
 10
0.913936943331843
 20
1.974918536131251
 30
0.0
 10
0.9132800128196928
 20
1.974832386300426
 30
0.0
 10
0.870991709283266
 20
1.973896001566674
 30
0.0
 10
0.8313551974711118
 20
1.948053183229604
 30
0.0
 10
0.8011321112984053
 20
1.90247687855218
 30
0.0
 10
0.7710783014066085
 20
1.856980939794792
 30
0.0
 10
0.751943906469478
 20
1.792842582144456
 30
0.0
 10
0.7521119443021133
 20
1.721670301599816
 30
0.0
 10
0.7521119443021133
 20
1.718649882442302
 30
0.0
 10
0.7521119443021133
 20
1.715712873368274
 30
0.0
 10
0.7521119443021133
 20
1.712692454210759
 30
0.0
 10
0.7531076902267462
 20
1.661226910567317
 30
0.0
 10
0.764211277081333
 20
1.613721519395161
 30
0.0
 10
0.7818442905142243
 20
1.574102642949331
 30
0.0
 10
0.7400302861476322
 20
1.622363326013278
 30
0.0
 10
0.6950427042414099
 20
1.706818131646489
 30
0.0
 10
0.7166937271408389
 20
1.828438861563578
 30
0.0
 10
0.7111582021028273
 20
1.829788643718883
 30
0.0
 10
0.705790732783574
 20
1.83046353479641
 30
0.0
 10
0.7004086514788873
 20
1.83046353479641
 30
0.0
 10
0.7004086514788873
 20
1.83046353479641
 30
0.0
 10
0.7000549196646312
 20
1.83046353479641
 30
0.0
 10
0.7000549196646312
 20
1.83046353479641
 30
0.0
 10
0.6967133412437204
 20
1.83046353479641
 30
0.0
 10
0.6935248842535202
 20
1.830285146807505
 30
0.0
 10
0.6901656496835736
 20
1.829705538051611
 30
0.0
 10
0.6660010787578206
 20
1.826244932832651
 30
0.0
 10
0.6446712330079865
 20
1.810491994860058
 30
0.0
 10
0.628033965499728
 20
1.78345133709662
 30
0.0
 10
0.6117845244384372
 20
1.756597817469558
 30
0.0
 10
0.6016931219921591
 20
1.719238623689054
 30
0.0
 10
0.6016931219921591
 20
1.677678484093879
 30
0.0
 10
0.6016931219921591
 20
1.665156925818691
 30
0.0
 10
0.6025375879865401
 20
1.652332473261847
 30
0.0
 10
0.6043926863026677
 20
1.639237125462184
 30
0.0
 10
0.611091688013807
 20
1.592242814043655
 30
0.0
 10
0.6295694416366788
 20
1.551271415695232
 30
0.0
 10
0.6530767939129115
 20
1.523074241203732
 30
0.0
 10
0.6765488013328548
 20
1.494692894812336
 30
0.0
 10
0.7042732172120243
 20
1.479926905985798
 30
0.0
 10
0.730294423538074
 20
1.479926905985798
 30
0.0
 10
0.7670636584062372
 20
1.479926905985798
 30
0.0
 10
0.7982973861226128
 20
1.501239096125017
 30
0.0
 10
0.8165727384915347
 20
1.516427005492763
 30
0.0
 10
0.8467945658066279
 20
1.478764308598076
 30
0.0
 10
0.884052715468417
 20
1.457922137862372
 30
0.0
 10
0.9225090037084556
 20
1.457922137862372
 30
0.0
 10
0.9621309243179388
 20
1.457922137862372
 30
0.0
 10
1.002932762751925
 20
1.481175286196099
 30
0.0
 10
1.0311314851548
 20
1.502404370129726
 30
0.0
 10
1.050603452009379
 20
1.485459337678094
 30
0.0
 10
1.07427882583915
 20
1.470865617217239
 30
0.0
 10
1.10348821239634
 20
1.459441175515723
 30
0.0
 10
1.128174525311528
 20
1.449788437048988
 30
0.0
 10
1.151310473345322
 20
1.44558779565063
 30
0.0
 10
1.172976394760376
 20
1.44558779565063
 30
0.0
 10
1.380819406610726
 20
1.44558779565063
 30
0.0
 10
1.362527636167442
 20
1.640250831977836
 30
0.0
 10
1.337013283086511
 20
1.667791040611013
 30
0.0
  0
HATCH
  5
46
330
41
100
AcDbEntity
  8
_U+5F6B_U+523B_U+30D1_U+30B9
 62
     7
420
 16777215
100
AcDbHatch
 10
0.0
 20
0.0
 30
0.0
210
0.0
220
0.0
230
1.0
  2
SOLID
 70
     1
 71
     0
 91
        1
 92
        1
 93
        1
 72
     4
 94
        3
 73
     0
 74
     1
 95
      107
 96
      103
 40
0.0
 40
0.0
 40
0.0
 40
0.0
 40
1.0
 40
1.0
 40
1.0
 40
2.0
 40
2.0
 40
2.0
 40
3.0
 40
3.0
 40
3.0
 40
4.0
 40
4.0
 40
4.0
 40
5.0
 40
5.0
 40
5.0
 40
6.0
 40
6.0
 40
6.0
 40
7.0
 40
7.0
 40
7.0
 40
8.0
 40
8.0
 40
8.0
 40
9.0
 40
9.0
 40
9.0
 40
10.0
 40
10.0
 40
10.0
 40
11.0
 40
11.0
 40
11.0
 40
12.0
 40
12.0
 40
12.0
 40
13.0
 40
13.0
 40
13.0
 40
14.0
 40
14.0
 40
14.0
 40
15.0
 40
15.0
 40
15.0
 40
16.0
 40
16.0
 40
16.0
 40
17.0
 40
17.0
 40
17.0
 40
18.0
 40
18.0
 40
18.0
 40
19.0
 40
19.0
 40
19.0
 40
20.0
 40
20.0
 40
20.0
 40
21.0
 40
21.0
 40
21.0
 40
22.0
 40
22.0
 40
22.0
 40
23.0
 40
23.0
 40
23.0
 40
24.0
 40
24.0
 40
24.0
 40
25.0
 40
25.0
 40
25.0
 40
26.0
 40
26.0
 40
26.0
 40
27.0
 40
27.0
 40
27.0
 40
28.0
 40
28.0
 40
28.0
 40
29.0
 40
29.0
 40
29.0
 40
30.0
 40
30.0
 40
30.0
 40
31.0
 40
31.0
 40
31.0
 40
32.0
 40
32.0
 40
32.0
 40
33.0
 40
33.0
 40
33.0
 40
34.0
 40
34.0
 40
34.0
 40
34.0
 10
1.337013283086511
 20
1.667791040611013
 10
1.337671735680462
 20
1.639406650056015
 10
1.311143980525811
 20
1.551862896689272
 10
1.244676189661909
 20
1.551862896689272
 10
1.225693394073738
 20
1.551862896689272
 10
1.207551700897587
 20
1.560992647843654
 10
1.197326659667775
 20
1.576382721511133
 10
1.187269686044475
 20
1.591550300932694
 10
1.183388652053736
 20
1.610195803661302
 10
1.183388652053736
 20
1.631356054909904
 10
1.183540251402696
 20
1.677425818512297
 10
1.202034154311226
 20
1.737869209544695
 10
1.240642064014259
 20
1.80638359161973
 10
1.278255749874436
 20
1.872600238983927
 10
1.299062303895653
 20
1.930344065705817
 10
1.298725010565022
 20
1.973566014228658
 10
1.298725010565022
 20
1.99631383139917
 10
1.293510662676529
 20
2.014798906233257
 10
1.282778768201676
 20
2.030730232194855
 10
1.271861179745151
 20
2.046590020310961
 10
1.254733193059085
 20
2.060538682497736
 10
1.228560722617481
 20
2.07186205796668
 10
1.209409553963395
 20
2.080078864447185
 10
1.190948528022065
 20
2.083774174682427
 10
1.173499686489044
 20
2.083774174682427
 10
1.135717962796232
 20
2.083774174682427
 10
1.099641275154858
 20
2.066823053903489
 10
1.067563400862809
 20
2.036702576828146
 10
1.035315662240035
 20
2.006558355276411
 10
1.00762381891175
 20
1.963484961938775
 10
0.9883034255765829
 20
1.914388995267978
 10
0.9730485127744638
 20
1.875947601315703
 10
0.9502008470367652
 20
1.795532974763116
 10
0.9502008470367652
 20
1.712757903728895
 10
0.9502008470367652
 20
1.679280931830716
 10
0.9542514111680399
 20
1.645634704434592
 10
0.9629735488117855
 20
1.61389381905686
 10
0.8785351467680205
 20
1.732672822221755
 10
0.9214968193001974
 20
1.892720029689321
 10
0.9569342325785328
 20
1.96676717916878
 10
0.9435015561276839
 20
1.972150782555369
 10
0.9297151711301315
 20
1.974918536131251
 10
0.915642002295221
 20
1.974918536131251
 10
0.9147975283911415
 20
1.974918536131251
 10
0.913936943331843
 20
1.974918536131251
 10
0.9132800128196928
 20
1.974832386300426
 10
0.870991709283266
 20
1.973896001566674
 10
0.8313551974711118
 20
1.948053183229604
 10
0.8011321112984053
 20
1.90247687855218
 10
0.7710783014066085
 20
1.856980939794792
 10
0.751943906469478
 20
1.792842582144456
 10
0.7521119443021133
 20
1.721670301599816
 10
0.7521119443021133
 20
1.718649882442302
 10
0.7521119443021133
 20
1.715712873368274
 10
0.7521119443021133
 20
1.712692454210759
 10
0.7531076902267462
 20
1.661226910567317
 10
0.764211277081333
 20
1.613721519395161
 10
0.7818442905142243
 20
1.574102642949331
 10
0.7400302861476322
 20
1.622363326013278
 10
0.6950427042414099
 20
1.706818131646489
 10
0.7166937271408389
 20
1.828438861563578
 10
0.7111582021028273
 20
1.829788643718883
 10
0.705790732783574
 20
1.83046353479641
 10
0.7004086514788873
 20
1.83046353479641
 10
0.7004086514788873
 20
1.83046353479641
 10
0.7000549196646312
 20
1.83046353479641
 10
0.7000549196646312
 20
1.83046353479641
 10
0.6967133412437204
 20
1.83046353479641
 10
0.6935248842535202
 20
1.830285146807505
 10
0.6901656496835736
 20
1.829705538051611
 10
0.6660010787578206
 20
1.826244932832651
 10
0.6446712330079865
 20
1.810491994860058
 10
0.628033965499728
 20
1.78345133709662
 10
0.6117845244384372
 20
1.756597817469558
 10
0.6016931219921591
 20
1.719238623689054
 10
0.6016931219921591
 20
1.677678484093879
 10
0.6016931219921591
 20
1.665156925818691
 10
0.6025375879865401
 20
1.652332473261847
 10
0.6043926863026677
 20
1.639237125462184
 10
0.611091688013807
 20
1.592242814043655
 10
0.6295694416366788
 20
1.551271415695232
 10
0.6530767939129115
 20
1.523074241203732
 10
0.6765488013328548
 20
1.494692894812336
 10
0.7042732172120243
 20
1.479926905985798
 10
0.730294423538074
 20
1.479926905985798
 10
0.7670636584062372
 20
1.479926905985798
 10
0.7982973861226128
 20
1.501239096125017
 10
0.8165727384915347
 20
1.516427005492763
 10
0.8467945658066279
 20
1.478764308598076
 10
0.884052715468417
 20
1.457922137862372
 10
0.9225090037084556
 20
1.457922137862372
 10
0.9621309243179388
 20
1.457922137862372
 10
1.002932762751925
 20
1.481175286196099
 10
1.0311314851548
 20
1.502404370129726
 10
1.050603452009379
 20
1.485459337678094
 10
1.07427882583915
 20
1.470865617217239
 10
1.10348821239634
 20
1.459441175515723
 10
1.128174525311528
 20
1.449788437048988
 10
1.151310473345322
 20
1.44558779565063
 10
1.172976394760376
 20
1.44558779565063
 10
1.380819406610726
 20
1.44558779565063
 10
1.362527636167442
 20
1.640250831977836
 10
1.337013283086511
 20
1.667791040611013
 97
        0
 97
        0
 75
     2
 76
     1
 98
        0
  0
INSERT
  5
48
330
41
100
AcDbEntity
  8
_U+5F6B_U+523B_U+30D1_U+30B9
100
AcDbBlockReference
  2
block 3
 10
0.0
 20
0.0
 30
0.0
  0
INSERT
  5
59
330
41
100
AcDbEntity
  8
_U+5F6B_U+523B_U+30D1_U+30B9
100
AcDbBlockReference
  2
block 4
 10
0.0
 20
0.0
 30
0.0
  0
ENDBLK
  5
44
330
41
100
AcDbEntity
  8
0
100
AcDbBlockEnd
  0
BLOCK
  5
49
330
47
100
AcDbEntity
  8
0
100
AcDbBlockBegin
  2
block 3
 70
     0
 10
0.0
 20
0.0
 30
0.0
  3
block 3
  1

  0
SPLINE
  5
4B
330
47
100
AcDbEntity
  8
_U+5F6B_U+523B_U+30D1_U+30B9
370
     0
100
AcDbSpline
210
0.0
220
0.0
230
1.0
 70
    11
 71
     3
 72
   107
 73
   103
 74
     0
 42
0.0000000001
 43
0.0000000001
 12
1.0
 22
0.0
 32
0.0
 13
1.0
 23
0.0
 33
0.0
 40
0.0
 40
0.0
 40
0.0
 40
0.0
 40
1.0
 40
1.0
 40
1.0
 40
2.0
 40
2.0
 40
2.0
 40
3.0
 40
3.0
 40
3.0
 40
4.0
 40
4.0
 40
4.0
 40
5.0
 40
5.0
 40
5.0
 40
6.0
 40
6.0
 40
6.0
 40
7.0
 40
7.0
 40
7.0
 40
8.0
 40
8.0
 40
8.0
 40
9.0
 40
9.0
 40
9.0
 40
10.0
 40
10.0
 40
10.0
 40
11.0
 40
11.0
 40
11.0
 40
12.0
 40
12.0
 40
12.0
 40
13.0
 40
13.0
 40
13.0
 40
14.0
 40
14.0
 40
14.0
 40
15.0
 40
15.0
 40
15.0
 40
16.0
 40
16.0
 40
16.0
 40
17.0
 40
17.0
 40
17.0
 40
18.0
 40
18.0
 40
18.0
 40
19.0
 40
19.0
 40
19.0
 40
20.0
 40
20.0
 40
20.0
 40
21.0
 40
21.0
 40
21.0
 40
22.0
 40
22.0
 40
22.0
 40
23.0
 40
23.0
 40
23.0
 40
24.0
 40
24.0
 40
24.0
 40
25.0
 40
25.0
 40
25.0
 40
26.0
 40
26.0
 40
26.0
 40
27.0
 40
27.0
 40
27.0
 40
28.0
 40
28.0
 40
28.0
 40
29.0
 40
29.0
 40
29.0
 40
30.0
 40
30.0
 40
30.0
 40
31.0
 40
31.0
 40
31.0
 40
32.0
 40
32.0
 40
32.0
 40
33.0
 40
33.0
 40
33.0
 40
34.0
 40
34.0
 40
34.0
 40
34.0
 10
1.555377163776913
 20
1.704344000999198
 30
0.0
 10
1.540938497063128
 20
1.704344000999198
 30
0.0
 10
1.528834369090949
 20
1.699559874378843
 30
0.0
 10
1.519064779860325
 20
1.690020383422557
 30
0.0
 10
1.509290396915655
 20
1.68047130503813
 30
0.0
 10
1.504405602300292
 20
1.668697943335246
 30
0.0
 10
1.504405602300292
 20
1.654709885742047
 30
0.0
 10
1.504405602300292
 20
1.637164892324916
 30
0.0
 10
1.510786035698718
 20
1.622726225611132
 30
0.0
 10
1.523561283637693
 20
1.611403473028834
 30
0.0
 10
1.536331737862611
 20
1.600071133018446
 30
0.0
 10
1.552711858766012
 20
1.594414550441343
 30
0.0
 10
1.572696852633751
 20
1.594414550441343
 30
0.0
 10
1.584465420622589
 20
1.594414550441343
 30
0.0
 10
1.595514931504138
 20
1.596629246331708
 30
0.0
 10
1.605845385278447
 20
1.601077812968621
 30
0.0
 10
1.61617104533866
 20
1.605516792177392
 30
0.0
 10
1.624665506632406
 20
1.611614396446991
 30
0.0
 10
1.631328769159684
 20
1.619399388061538
 30
0.0
 10
1.63266142166516
 20
1.62094296398517
 30
0.0
 10
1.633658514187232
 20
1.622007168503892
 30
0.0
 10
1.634324840439932
 20
1.622563239333532
 30
0.0
 10
1.63499116669267
 20
1.62310972273503
 30
0.0
 10
1.635767748368506
 20
1.623397345577915
 30
0.0
 10
1.636659379181538
 20
1.623397345577915
 30
0.0
 10
1.636659379181538
 20
1.623397345577915
 30
0.0
 10
1.641654429219948
 20
1.623397345577915
 30
0.0
 10
1.641654429219948
 20
1.623397345577915
 30
0.0
 10
1.643207592571621
 20
1.623397345577915
 30
0.0
 10
1.644372465085401
 20
1.622774162751638
 30
0.0
 10
1.645153840475283
 20
1.621556559383357
 30
0.0
 10
1.645930422151132
 20
1.620338956015075
 30
0.0
 10
1.646654272972405
 20
1.617951686418918
 30
0.0
 10
1.647315805511097
 20
1.614394750595036
 30
0.0
 10
1.648202642610082
 20
1.609955771386265
 30
0.0
 10
1.64864845801651
 20
1.604960721347803
 30
0.0
 10
1.64864845801651
 20
1.599409600479753
 30
0.0
 10
1.64864845801651
 20
1.578758280359276
 30
0.0
 10
1.64431973423085
 20
1.56004362071432
 30
0.0
 10
1.635657492945408
 20
1.543275208973025
 30
0.0
 10
1.626995251659966
 20
1.526506797231731
 30
0.0
 10
1.614780868264638
 20
1.513132335036719
 30
0.0
 10
1.599014342759473
 20
1.503132647531755
 30
0.0
 10
1.583243023540263
 20
1.493142547454883
 30
0.0
 10
1.565146753007538
 20
1.488147497416473
 30
0.0
 10
1.544715943733258
 20
1.488147497416473
 30
0.0
 10
1.524059829898735
 20
1.488147497416473
 30
0.0
 10
1.505239708544726
 20
1.493027498317739
 30
0.0
 10
1.488250785957234
 20
1.502797087548364
 30
0.0
 10
1.471261863369692
 20
1.512566676778988
 30
0.0
 10
1.457710033754893
 20
1.526564321800328
 30
0.0
 10
1.447609678254922
 20
1.544770847756151
 30
0.0
 10
1.43749973532686
 20
1.562986961140016
 30
0.0
 10
1.43245195443391
 20
1.583753330397687
 30
0.0
 10
1.43245195443391
 20
1.607069955529065
 30
0.0
 10
1.43245195443391
 20
1.628833417308821
 30
0.0
 10
1.437001189065818
 20
1.648324658629614
 30
0.0
 10
1.44610924575775
 20
1.665534092063353
 30
0.0
 10
1.455212508735687
 20
1.682743525497093
 30
0.0
 10
1.468203473806852
 20
1.696290561397847
 30
0.0
 10
1.485086934685291
 20
1.706175199765665
 30
0.0
 10
1.501960808135638
 20
1.716050250705343
 30
0.0
 10
1.521504780310933
 20
1.720997363603298
 30
0.0
 10
1.543714057497179
 20
1.720997363603298
 30
0.0
 10
1.560372213815324
 20
1.720997363603298
 30
0.0
 10
1.575362157644652
 20
1.718274534023799
 30
0.0
 10
1.588688682699209
 20
1.712838462292944
 30
0.0
 10
1.602015207753766
 20
1.707392803133947
 30
0.0
 10
1.612614109514778
 20
1.699674923516037
 30
0.0
 10
1.620499769124396
 20
1.689684823439165
 30
0.0
 10
1.628380635019943
 20
1.679694723362293
 30
0.0
 10
1.632325861681769
 20
1.66824733421471
 30
0.0
 10
1.632325861681769
 20
1.65537141828074
 30
0.0
 10
1.632325861681769
 20
1.64049172987451
 30
0.0
 10
1.626995251659966
 20
1.628555381894027
 30
0.0
 10
1.616338825330369
 20
1.619562374339239
 30
0.0
 10
1.605677605286751
 20
1.6105693667844
 30
0.0
 10
1.591569704842312
 20
1.606072863007032
 30
0.0
 10
1.574029505139227
 20
1.606072863007032
 30
0.0
 10
1.563368285095571
 20
1.606072863007032
 30
0.0
 10
1.553651426719499
 20
1.608124572619747
 30
0.0
 10
1.544883723724966
 20
1.612237579273268
 30
0.0
 10
1.536106433302368
 20
1.616340998498698
 30
0.0
 10
1.529112404505743
 20
1.622112630212945
 30
0.0
 10
1.523896843621085
 20
1.62955247441606
 30
0.0
 10
1.518671695308335
 20
1.636992318619175
 30
0.0
 10
1.516063914866032
 20
1.645486779912972
 30
0.0
 10
1.516063914866032
 20
1.655035858297348
 30
0.0
 10
1.516063914866032
 20
1.667029730846429
 30
0.0
 10
1.520172127805507
 20
1.676578809230856
 30
0.0
 10
1.528393347398466
 20
1.683692680878671
 30
0.0
 10
1.53660497956341
 20
1.690796965098394
 30
0.0
 10
1.547712015013505
 20
1.694344313494184
 30
0.0
 10
1.561704866320787
 20
1.694344313494184
 30
0.0
 10
1.563037518826225
 20
1.69567696599966
 30
0.0
 10
1.563703845078963
 20
1.69712466764228
 30
0.0
 10
1.563703845078963
 20
1.698677830993953
 30
0.0
 10
1.563703845078963
 20
1.700451505191874
 30
0.0
 10
1.562922469689081
 20
1.701841682265897
 30
0.0
 10
1.561369306337408
 20
1.702848362216072
 30
0.0
 10
1.559816142985735
 20
1.703845454738156
 30
0.0
 10
1.557817164227521
 20
1.704344000999198
 30
0.0
 10
1.555377163776913
 20
1.704344000999198
 30
0.0
  0
HATCH
  5
4C
330
47
100
AcDbEntity
  8
_U+5F6B_U+523B_U+30D1_U+30B9
 62
     7
420
 16777215
100
AcDbHatch
 10
0.0
 20
0.0
 30
0.0
210
0.0
220
0.0
230
1.0
  2
SOLID
 70
     1
 71
     0
 91
        1
 92
        1
 93
        1
 72
     4
 94
        3
 73
     0
 74
     1
 95
      107
 96
      103
 40
0.0
 40
0.0
 40
0.0
 40
0.0
 40
1.0
 40
1.0
 40
1.0
 40
2.0
 40
2.0
 40
2.0
 40
3.0
 40
3.0
 40
3.0
 40
4.0
 40
4.0
 40
4.0
 40
5.0
 40
5.0
 40
5.0
 40
6.0
 40
6.0
 40
6.0
 40
7.0
 40
7.0
 40
7.0
 40
8.0
 40
8.0
 40
8.0
 40
9.0
 40
9.0
 40
9.0
 40
10.0
 40
10.0
 40
10.0
 40
11.0
 40
11.0
 40
11.0
 40
12.0
 40
12.0
 40
12.0
 40
13.0
 40
13.0
 40
13.0
 40
14.0
 40
14.0
 40
14.0
 40
15.0
 40
15.0
 40
15.0
 40
16.0
 40
16.0
 40
16.0
 40
17.0
 40
17.0
 40
17.0
 40
18.0
 40
18.0
 40
18.0
 40
19.0
 40
19.0
 40
19.0
 40
20.0
 40
20.0
 40
20.0
 40
21.0
 40
21.0
 40
21.0
 40
22.0
 40
22.0
 40
22.0
 40
23.0
 40
23.0
 40
23.0
 40
24.0
 40
24.0
 40
24.0
 40
25.0
 40
25.0
 40
25.0
 40
26.0
 40
26.0
 40
26.0
 40
27.0
 40
27.0
 40
27.0
 40
28.0
 40
28.0
 40
28.0
 40
29.0
 40
29.0
 40
29.0
 40
30.0
 40
30.0
 40
30.0
 40
31.0
 40
31.0
 40
31.0
 40
32.0
 40
32.0
 40
32.0
 40
33.0
 40
33.0
 40
33.0
 40
34.0
 40
34.0
 40
34.0
 40
34.0
 10
1.555377163776913
 20
1.704344000999198
 10
1.540938497063128
 20
1.704344000999198
 10
1.528834369090949
 20
1.699559874378843
 10
1.519064779860325
 20
1.690020383422557
 10
1.509290396915655
 20
1.68047130503813
 10
1.504405602300292
 20
1.668697943335246
 10
1.504405602300292
 20
1.654709885742047
 10
1.504405602300292
 20
1.637164892324916
 10
1.510786035698718
 20
1.622726225611132
 10
1.523561283637693
 20
1.611403473028834
 10
1.536331737862611
 20
1.600071133018446
 10
1.552711858766012
 20
1.594414550441343
 10
1.572696852633751
 20
1.594414550441343
 10
1.584465420622589
 20
1.594414550441343
 10
1.595514931504138
 20
1.596629246331708
 10
1.605845385278447
 20
1.601077812968621
 10
1.61617104533866
 20
1.605516792177392
 10
1.624665506632406
 20
1.611614396446991
 10
1.631328769159684
 20
1.619399388061538
 10
1.63266142166516
 20
1.62094296398517
 10
1.633658514187232
 20
1.622007168503892
 10
1.634324840439932
 20
1.622563239333532
 10
1.63499116669267
 20
1.62310972273503
 10
1.635767748368506
 20
1.623397345577915
 10
1.636659379181538
 20
1.623397345577915
 10
1.636659379181538
 20
1.623397345577915
 10
1.641654429219948
 20
1.623397345577915
 10
1.641654429219948
 20
1.623397345577915
 10
1.643207592571621
 20
1.623397345577915
 10
1.644372465085401
 20
1.622774162751638
 10
1.645153840475283
 20
1.621556559383357
 10
1.645930422151132
 20
1.620338956015075
 10
1.646654272972405
 20
1.617951686418918
 10
1.647315805511097
 20
1.614394750595036
 10
1.648202642610082
 20
1.609955771386265
 10
1.64864845801651
 20
1.604960721347803
 10
1.64864845801651
 20
1.599409600479753
 10
1.64864845801651
 20
1.578758280359276
 10
1.64431973423085
 20
1.56004362071432
 10
1.635657492945408
 20
1.543275208973025
 10
1.626995251659966
 20
1.526506797231731
 10
1.614780868264638
 20
1.513132335036719
 10
1.599014342759473
 20
1.503132647531755
 10
1.583243023540263
 20
1.493142547454883
 10
1.565146753007538
 20
1.488147497416473
 10
1.544715943733258
 20
1.488147497416473
 10
1.524059829898735
 20
1.488147497416473
 10
1.505239708544726
 20
1.493027498317739
 10
1.488250785957234
 20
1.502797087548364
 10
1.471261863369692
 20
1.512566676778988
 10
1.457710033754893
 20
1.526564321800328
 10
1.447609678254922
 20
1.544770847756151
 10
1.43749973532686
 20
1.562986961140016
 10
1.43245195443391
 20
1.583753330397687
 10
1.43245195443391
 20
1.607069955529065
 10
1.43245195443391
 20
1.628833417308821
 10
1.437001189065818
 20
1.648324658629614
 10
1.44610924575775
 20
1.665534092063353
 10
1.455212508735687
 20
1.682743525497093
 10
1.468203473806852
 20
1.696290561397847
 10
1.485086934685291
 20
1.706175199765665
 10
1.501960808135638
 20
1.716050250705343
 10
1.521504780310933
 20
1.720997363603298
 10
1.543714057497179
 20
1.720997363603298
 10
1.560372213815324
 20
1.720997363603298
 10
1.575362157644652
 20
1.718274534023799
 10
1.588688682699209
 20
1.712838462292944
 10
1.602015207753766
 20
1.707392803133947
 10
1.612614109514778
 20
1.699674923516037
 10
1.620499769124396
 20
1.689684823439165
 10
1.628380635019943
 20
1.679694723362293
 10
1.632325861681769
 20
1.66824733421471
 10
1.632325861681769
 20
1.65537141828074
 10
1.632325861681769
 20
1.64049172987451
 10
1.626995251659966
 20
1.628555381894027
 10
1.616338825330369
 20
1.619562374339239
 10
1.605677605286751
 20
1.6105693667844
 10
1.591569704842312
 20
1.606072863007032
 10
1.574029505139227
 20
1.606072863007032
 10
1.563368285095571
 20
1.606072863007032
 10
1.553651426719499
 20
1.608124572619747
 10
1.544883723724966
 20
1.612237579273268
 10
1.536106433302368
 20
1.616340998498698
 10
1.529112404505743
 20
1.622112630212945
 10
1.523896843621085
 20
1.62955247441606
 10
1.518671695308335
 20
1.636992318619175
 10
1.516063914866032
 20
1.645486779912972
 10
1.516063914866032
 20
1.655035858297348
 10
1.516063914866032
 20
1.667029730846429
 10
1.520172127805507
 20
1.676578809230856
 10
1.528393347398466
 20
1.683692680878671
 10
1.53660497956341
 20
1.690796965098394
 10
1.547712015013505
 20
1.694344313494184
 10
1.561704866320787
 20
1.694344313494184
 10
1.563037518826225
 20
1.69567696599966
 10
1.563703845078963
 20
1.69712466764228
 10
1.563703845078963
 20
1.698677830993953
 10
1.563703845078963
 20
1.700451505191874
 10
1.562922469689081
 20
1.701841682265897
 10
1.561369306337408
 20
1.702848362216072
 10
1.559816142985735
 20
1.703845454738156
 10
1.557817164227521
 20
1.704344000999198
 10
1.555377163776913
 20
1.704344000999198
 97
        0
 97
        0
 75
     2
 76
     1
 98
        0
  0
SPLINE
  5
4D
330
47
100
AcDbEntity
  8
_U+5F6B_U+523B_U+30D1_U+30B9
370
     0
100
AcDbSpline
210
0.0
220
0.0
230
1.0
 70
    11
 71
     3
 72
    95
 73
    91
 74
     0
 42
0.0000000001
 43
0.0000000001
 12
1.0
 22
0.0
 32
0.0
 13
1.0
 23
0.0
 33
0.0
 40
0.0
 40
0.0
 40
0.0
 40
0.0
 40
1.0
 40
1.0
 40
1.0
 40
2.0
 40
2.0
 40
2.0
 40
3.0
 40
3.0
 40
3.0
 40
4.0
 40
4.0
 40
4.0
 40
5.0
 40
5.0
 40
5.0
 40
6.0
 40
6.0
 40
6.0
 40
7.0
 40
7.0
 40
7.0
 40
8.0
 40
8.0
 40
8.0
 40
9.0
 40
9.0
 40
9.0
 40
10.0
 40
10.0
 40
10.0
 40
11.0
 40
11.0
 40
11.0
 40
12.0
 40
12.0
 40
12.0
 40
13.0
 40
13.0
 40
13.0
 40
14.0
 40
14.0
 40
14.0
 40
15.0
 40
15.0
 40
15.0
 40
16.0
 40
16.0
 40
16.0
 40
17.0
 40
17.0
 40
17.0
 40
18.0
 40
18.0
 40
18.0
 40
19.0
 40
19.0
 40
19.0
 40
20.0
 40
20.0
 40
20.0
 40
21.0
 40
21.0
 40
21.0
 40
22.0
 40
22.0
 40
22.0
 40
23.0
 40
23.0
 40
23.0
 40
24.0
 40
24.0
 40
24.0
 40
25.0
 40
25.0
 40
25.0
 40
26.0
 40
26.0
 40
26.0
 40
27.0
 40
27.0
 40
27.0
 40
28.0
 40
28.0
 40
28.0
 40
29.0
 40
29.0
 40
29.0
 40
30.0
 40
30.0
 40
30.0
 40
30.0
 10
1.665306614334769
 20
1.692350128450067
 30
0.0
 10
1.665306614334769
 20
1.700125532636573
 30
0.0
 10
1.66419447267554
 20
1.706060150628471
 30
0.0
 10
1.661974983071129
 20
1.710173157281992
 30
0.0
 10
1.659755493466719
 20
1.714276576507422
 30
0.0
 10
1.655647280527243
 20
1.718111547746149
 30
0.0
 10
1.64965034425269
 20
1.721668483570081
 30
0.0
 10
1.648097180900979
 20
1.722550526954971
 30
0.0
 10
1.647152819233447
 20
1.72326958406221
 30
0.0
 10
1.646817259250055
 20
1.723835242319941
 30
0.0
 10
1.646486492980772
 20
1.724381725721438
 30
0.0
 10
1.646318712989063
 20
1.725110370256819
 30
0.0
 10
1.646318712989063
 20
1.725992413641709
 30
0.0
 10
1.646318712989063
 20
1.725992413641709
 30
0.0
 10
1.646318712989063
 20
1.729990371158086
 30
0.0
 10
1.646318712989063
 20
1.729990371158086
 30
0.0
 10
1.646318712989063
 20
1.732214654476542
 30
0.0
 10
1.647651365494489
 20
1.733326796135771
 30
0.0
 10
1.65031667050539
 20
1.733326796135771
 30
0.0
 10
1.65031667050539
 20
1.733326796135771
 30
0.0
 10
1.736598729662521
 20
1.733326796135771
 30
0.0
 10
1.736598729662521
 20
1.733326796135771
 30
0.0
 10
1.740817198025095
 20
1.733326796135771
 30
0.0
 10
1.743760538450791
 20
1.732492689891337
 30
0.0
 10
1.745428750939658
 20
1.730824477402519
 30
0.0
 10
1.747087376000384
 20
1.729156264913652
 30
0.0
 10
1.747921482244818
 20
1.726443022762295
 30
0.0
 10
1.747921482244818
 20
1.722665576092115
 30
0.0
 10
1.747921482244818
 20
1.722665576092115
 30
0.0
 10
1.747921482244818
 20
1.646713970709344
 30
0.0
 10
1.747921482244818
 20
1.646713970709344
 30
0.0
 10
1.758803213134671
 20
1.660251419182007
 30
0.0
 10
1.773903412387148
 20
1.667029730846429
 30
0.0
 10
1.79323166743024
 20
1.667029730846429
 30
0.0
 10
1.809213910067607
 20
1.667029730846429
 30
0.0
 10
1.821428293462936
 20
1.662255191654266
 30
0.0
 10
1.829874817616188
 20
1.652706113269839
 30
0.0
 10
1.838311754341374
 20
1.643157034885411
 30
0.0
 10
1.842530222703999
 20
1.629609998984658
 30
0.0
 10
1.842530222703999
 20
1.612065005567527
 30
0.0
 10
1.842530222703999
 20
1.612065005567527
 30
0.0
 10
1.842530222703999
 20
1.504465300037181
 30
0.0
 10
1.842530222703999
 20
1.504465300037181
 30
0.0
 10
1.842530222703999
 20
1.500687853367051
 30
0.0
 10
1.841696116459565
 20
1.497974611215694
 30
0.0
 10
1.840027903970698
 20
1.496306398726827
 30
0.0
 10
1.838369278909972
 20
1.49463818623801
 30
0.0
 10
1.835416351056147
 20
1.493804079993576
 30
0.0
 10
1.831207470121651
 20
1.493804079993576
 30
0.0
 10
1.831207470121651
 20
1.493804079993576
 30
0.0
 10
1.771238107376247
 20
1.493804079993576
 30
0.0
 10
1.771238107376247
 20
1.493804079993576
 30
0.0
 10
1.767019639013622
 20
1.493804079993576
 30
0.0
 10
1.764076298587927
 20
1.49463818623801
 30
0.0
 10
1.762417673527201
 20
1.496306398726827
 30
0.0
 10
1.760749461038333
 20
1.497974611215694
 30
0.0
 10
1.759915354793899
 20
1.500687853367051
 30
0.0
 10
1.759915354793899
 20
1.504465300037181
 30
0.0
 10
1.759915354793899
 20
1.504465300037181
 30
0.0
 10
1.759915354793899
 20
1.619063828078197
 30
0.0
 10
1.759915354793899
 20
1.619063828078197
 30
0.0
 10
1.759915354793899
 20
1.621499034814759
 30
0.0
 10
1.75935928396431
 20
1.623502807286968
 30
0.0
 10
1.758247142305082
 20
1.625055970638692
 30
0.0
 10
1.757135000645854
 20
1.626609133990365
 30
0.0
 10
1.755581837294181
 20
1.627385715666201
 30
0.0
 10
1.753587652250012
 20
1.627385715666201
 30
0.0
 10
1.750922347239111
 20
1.627385715666201
 30
0.0
 10
1.749033623904046
 20
1.626503672281312
 30
0.0
 10
1.747921482244818
 20
1.624729998083391
 30
0.0
 10
1.747921482244818
 20
1.624729998083391
 30
0.0
 10
1.747921482244818
 20
1.504465300037181
 30
0.0
 10
1.747921482244818
 20
1.504465300037181
 30
0.0
 10
1.747921482244818
 20
1.500687853367051
 30
0.0
 10
1.747087376000384
 20
1.497974611215694
 30
0.0
 10
1.745428750939658
 20
1.496306398726827
 30
0.0
 10
1.743760538450791
 20
1.49463818623801
 30
0.0
 10
1.740817198025095
 20
1.493804079993576
 30
0.0
 10
1.736598729662521
 20
1.493804079993576
 30
0.0
 10
1.736598729662521
 20
1.493804079993576
 30
0.0
 10
1.676634160631112
 20
1.493804079993576
 30
0.0
 10
1.676634160631112
 20
1.493804079993576
 30
0.0
 10
1.672410898554441
 20
1.493804079993576
 30
0.0
 10
1.669472351842791
 20
1.49463818623801
 30
0.0
 10
1.667804139353974
 20
1.496306398726827
 30
0.0
 10
1.666140720579152
 20
1.497974611215694
 30
0.0
 10
1.665306614334769
 20
1.500687853367051
 30
0.0
 10
1.665306614334769
 20
1.504465300037181
 30
0.0
 10
1.665306614334769
 20
1.504465300037181
 30
0.0
 10
1.665306614334769
 20
1.692350128450067
 30
0.0
 10
1.665306614334769
 20
1.692350128450067
 30
0.0
  0
HATCH
  5
4E
330
47
100
AcDbEntity
  8
_U+5F6B_U+523B_U+30D1_U+30B9
 62
     7
420
 16777215
100
AcDbHatch
 10
0.0
 20
0.0
 30
0.0
210
0.0
220
0.0
230
1.0
  2
SOLID
 70
     1
 71
     0
 91
        1
 92
        1
 93
        1
 72
     4
 94
        3
 73
     0
 74
     1
 95
       95
 96
       91
 40
0.0
 40
0.0
 40
0.0
 40
0.0
 40
1.0
 40
1.0
 40
1.0
 40
2.0
 40
2.0
 40
2.0
 40
3.0
 40
3.0
 40
3.0
 40
4.0
 40
4.0
 40
4.0
 40
5.0
 40
5.0
 40
5.0
 40
6.0
 40
6.0
 40
6.0
 40
7.0
 40
7.0
 40
7.0
 40
8.0
 40
8.0
 40
8.0
 40
9.0
 40
9.0
 40
9.0
 40
10.0
 40
10.0
 40
10.0
 40
11.0
 40
11.0
 40
11.0
 40
12.0
 40
12.0
 40
12.0
 40
13.0
 40
13.0
 40
13.0
 40
14.0
 40
14.0
 40
14.0
 40
15.0
 40
15.0
 40
15.0
 40
16.0
 40
16.0
 40
16.0
 40
17.0
 40
17.0
 40
17.0
 40
18.0
 40
18.0
 40
18.0
 40
19.0
 40
19.0
 40
19.0
 40
20.0
 40
20.0
 40
20.0
 40
21.0
 40
21.0
 40
21.0
 40
22.0
 40
22.0
 40
22.0
 40
23.0
 40
23.0
 40
23.0
 40
24.0
 40
24.0
 40
24.0
 40
25.0
 40
25.0
 40
25.0
 40
26.0
 40
26.0
 40
26.0
 40
27.0
 40
27.0
 40
27.0
 40
28.0
 40
28.0
 40
28.0
 40
29.0
 40
29.0
 40
29.0
 40
30.0
 40
30.0
 40
30.0
 40
30.0
 10
1.665306614334769
 20
1.692350128450067
 10
1.665306614334769
 20
1.700125532636573
 10
1.66419447267554
 20
1.706060150628471
 10
1.661974983071129
 20
1.710173157281992
 10
1.659755493466719
 20
1.714276576507422
 10
1.655647280527243
 20
1.718111547746149
 10
1.64965034425269
 20
1.721668483570081
 10
1.648097180900979
 20
1.722550526954971
 10
1.647152819233447
 20
1.72326958406221
 10
1.646817259250055
 20
1.723835242319941
 10
1.646486492980772
 20
1.724381725721438
 10
1.646318712989063
 20
1.725110370256819
 10
1.646318712989063
 20
1.725992413641709
 10
1.646318712989063
 20
1.725992413641709
 10
1.646318712989063
 20
1.729990371158086
 10
1.646318712989063
 20
1.729990371158086
 10
1.646318712989063
 20
1.732214654476542
 10
1.647651365494489
 20
1.733326796135771
 10
1.65031667050539
 20
1.733326796135771
 10
1.65031667050539
 20
1.733326796135771
 10
1.736598729662521
 20
1.733326796135771
 10
1.736598729662521
 20
1.733326796135771
 10
1.740817198025095
 20
1.733326796135771
 10
1.743760538450791
 20
1.732492689891337
 10
1.745428750939658
 20
1.730824477402519
 10
1.747087376000384
 20
1.729156264913652
 10
1.747921482244818
 20
1.726443022762295
 10
1.747921482244818
 20
1.722665576092115
 10
1.747921482244818
 20
1.722665576092115
 10
1.747921482244818
 20
1.646713970709344
 10
1.747921482244818
 20
1.646713970709344
 10
1.758803213134671
 20
1.660251419182007
 10
1.773903412387148
 20
1.667029730846429
 10
1.79323166743024
 20
1.667029730846429
 10
1.809213910067607
 20
1.667029730846429
 10
1.821428293462936
 20
1.662255191654266
 10
1.829874817616188
 20
1.652706113269839
 10
1.838311754341374
 20
1.643157034885411
 10
1.842530222703999
 20
1.629609998984658
 10
1.842530222703999
 20
1.612065005567527
 10
1.842530222703999
 20
1.612065005567527
 10
1.842530222703999
 20
1.504465300037181
 10
1.842530222703999
 20
1.504465300037181
 10
1.842530222703999
 20
1.500687853367051
 10
1.841696116459565
 20
1.497974611215694
 10
1.840027903970698
 20
1.496306398726827
 10
1.838369278909972
 20
1.49463818623801
 10
1.835416351056147
 20
1.493804079993576
 10
1.831207470121651
 20
1.493804079993576
 10
1.831207470121651
 20
1.493804079993576
 10
1.771238107376247
 20
1.493804079993576
 10
1.771238107376247
 20
1.493804079993576
 10
1.767019639013622
 20
1.493804079993576
 10
1.764076298587927
 20
1.49463818623801
 10
1.762417673527201
 20
1.496306398726827
 10
1.760749461038333
 20
1.497974611215694
 10
1.759915354793899
 20
1.500687853367051
 10
1.759915354793899
 20
1.504465300037181
 10
1.759915354793899
 20
1.504465300037181
 10
1.759915354793899
 20
1.619063828078197
 10
1.759915354793899
 20
1.619063828078197
 10
1.759915354793899
 20
1.621499034814759
 10
1.75935928396431
 20
1.623502807286968
 10
1.758247142305082
 20
1.625055970638692
 10
1.757135000645854
 20
1.626609133990365
 10
1.755581837294181
 20
1.627385715666201
 10
1.753587652250012
 20
1.627385715666201
 10
1.750922347239111
 20
1.627385715666201
 10
1.749033623904046
 20
1.626503672281312
 10
1.747921482244818
 20
1.624729998083391
 10
1.747921482244818
 20
1.624729998083391
 10
1.747921482244818
 20
1.504465300037181
 10
1.747921482244818
 20
1.504465300037181
 10
1.747921482244818
 20
1.500687853367051
 10
1.747087376000384
 20
1.497974611215694
 10
1.745428750939658
 20
1.496306398726827
 10
1.743760538450791
 20
1.49463818623801
 10
1.740817198025095
 20
1.493804079993576
 10
1.736598729662521
 20
1.493804079993576
 10
1.736598729662521
 20
1.493804079993576
 10
1.676634160631112
 20
1.493804079993576
 10
1.676634160631112
 20
1.493804079993576
 10
1.672410898554441
 20
1.493804079993576
 10
1.669472351842791
 20
1.49463818623801
 10
1.667804139353974
 20
1.496306398726827
 10
1.666140720579152
 20
1.497974611215694
 10
1.665306614334769
 20
1.500687853367051
 10
1.665306614334769
 20
1.504465300037181
 10
1.665306614334769
 20
1.504465300037181
 10
1.665306614334769
 20
1.692350128450067
 10
1.665306614334769
 20
1.692350128450067
 97
        0
 97
        0
 75
     2
 76
     1
 98
        0
  0
SPLINE
  5
4F
330
47
100
AcDbEntity
  8
_U+5F6B_U+523B_U+30D1_U+30B9
370
     0
100
AcDbSpline
210
0.0
220
0.0
230
1.0
 70
    11
 71
     3
 72
    80
 73
    76
 74
     0
 42
0.0000000001
 43
0.0000000001
 12
1.0
 22
0.0
 32
0.0
 13
1.0
 23
0.0
 33
0.0
 40
0.0
 40
0.0
 40
0.0
 40
0.0
 40
1.0
 40
1.0
 40
1.0
 40
2.0
 40
2.0
 40
2.0
 40
3.0
 40
3.0
 40
3.0
 40
4.0
 40
4.0
 40
4.0
 40
5.0
 40
5.0
 40
5.0
 40
6.0
 40
6.0
 40
6.0
 40
7.0
 40
7.0
 40
7.0
 40
8.0
 40
8.0
 40
8.0
 40
9.0
 40
9.0
 40
9.0
 40
10.0
 40
10.0
 40
10.0
 40
11.0
 40
11.0
 40
11.0
 40
12.0
 40
12.0
 40
12.0
 40
13.0
 40
13.0
 40
13.0
 40
14.0
 40
14.0
 40
14.0
 40
15.0
 40
15.0
 40
15.0
 40
16.0
 40
16.0
 40
16.0
 40
17.0
 40
17.0
 40
17.0
 40
18.0
 40
18.0
 40
18.0
 40
19.0
 40
19.0
 40
19.0
 40
20.0
 40
20.0
 40
20.0
 40
21.0
 40
21.0
 40
21.0
 40
22.0
 40
22.0
 40
22.0
 40
23.0
 40
23.0
 40
23.0
 40
24.0
 40
24.0
 40
24.0
 40
25.0
 40
25.0
 40
25.0
 40
25.0
 10
1.939133148207247
 20
1.570762365326522
 30
0.0
 10
1.939133148207247
 20
1.565642678722826
 30
0.0
 10
1.943466665707016
 20
1.560935251527301
 30
0.0
 10
1.952124113278412
 20
1.556601734027582
 30
0.0
 10
1.960791148277899
 20
1.552268216527813
 30
0.0
 10
1.97044568837138
 20
1.550101457777954
 30
0.0
 10
1.981106908415035
 20
1.550101457777954
 30
0.0
 10
2.002208837656048
 20
1.550101457777954
 30
0.0
 10
2.019533320226957
 20
1.557205741997677
 30
0.0
 10
2.03308035612771
 20
1.571423897865214
 30
0.0
 10
2.034413008633136
 20
1.57275655037064
 30
0.0
 10
2.035352576586673
 20
1.573590656615074
 30
0.0
 10
2.035908647416262
 20
1.573926216598516
 30
0.0
 10
2.036464718245901
 20
1.574252189153766
 30
0.0
 10
2.037298824490335
 20
1.574424762859508
 30
0.0
 10
2.038410966149513
 20
1.574424762859508
 30
0.0
 10
2.038410966149513
 20
1.574424762859508
 30
0.0
 10
2.04240892366589
 20
1.574424762859508
 30
0.0
 10
2.04240892366589
 20
1.574424762859508
 30
0.0
 10
2.043952499589472
 20
1.574424762859508
 30
0.0
 10
2.045016704108245
 20
1.573868692029919
 30
0.0
 10
2.045572774937833
 20
1.57275655037064
 30
0.0
 10
2.046119258339331
 20
1.571644408711462
 30
0.0
 10
2.046406881182267
 20
1.569640636239203
 30
0.0
 10
2.046406881182267
 20
1.566764407810145
 30
0.0
 10
2.046406881182267
 20
1.552987273635053
 30
0.0
 10
2.042677371652644
 20
1.540274343978732
 30
0.0
 10
2.03524711487762
 20
1.528616031413043
 30
0.0
 10
2.027797683246364
 20
1.516957718847304
 30
0.0
 10
2.017251512339903
 20
1.507571626740577
 30
0.0
 10
2.003599014730096
 20
1.500467342520854
 30
0.0
 10
1.989936929692173
 20
1.49336305830108
 30
0.0
 10
1.974664156734004
 20
1.489806122477199
 30
0.0
 10
1.957790283283619
 20
1.489806122477199
 30
0.0
 10
1.939804268174031
 20
1.489806122477199
 30
0.0
 10
1.923591927262376
 20
1.493478107438275
 30
0.0
 10
1.909153260548591
 20
1.500802902504246
 30
0.0
 10
1.894714593834806
 20
1.508127697570166
 30
0.0
 10
1.883219267546767
 20
1.518568406767574
 30
0.0
 10
1.874676869112515
 20
1.532115442668378
 30
0.0
 10
1.866124883250172
 20
1.545662478569132
 30
0.0
 10
1.861848890319
 20
1.561098237804951
 30
0.0
 10
1.861848890319
 20
1.578422720375834
 30
0.0
 10
1.861848890319
 20
1.59551710467248
 30
0.0
 10
1.865846847835377
 20
1.610732353062051
 30
0.0
 10
1.873842762868132
 20
1.624058878116607
 30
0.0
 10
1.881838677900835
 20
1.637385403171164
 30
0.0
 10
1.893218955051717
 20
1.647874049509078
 30
0.0
 10
1.907993181748869
 20
1.655543991986481
 30
0.0
 10
1.922757821017942
 20
1.663204347035793
 30
0.0
 10
1.940024779020278
 20
1.667029730846429
 30
0.0
 10
1.959794055755866
 20
1.667029730846429
 30
0.0
 10
1.974664156734004
 20
1.667029730846429
 30
0.0
 10
1.988048206357108
 20
1.66469998581892
 30
0.0
 10
1.999927029769045
 20
1.660040495763901
 30
0.0
 10
2.011805853180906
 20
1.65537141828074
 30
0.0
 10
2.021191945287683
 20
1.648708155753462
 30
0.0
 10
2.0280853060893
 20
1.640050708182065
 30
0.0
 10
2.034959492034684
 20
1.631383673182578
 30
0.0
 10
2.038410966149513
 20
1.621393573105706
 30
0.0
 10
2.038410966149513
 20
1.610070820523409
 30
0.0
 10
2.038410966149513
 20
1.595632153809624
 30
0.0
 10
2.033185817836764
 20
1.58369580582909
 30
0.0
 10
2.022754696067447
 20
1.574252189153766
 30
0.0
 10
2.012313986870039
 20
1.564818159906533
 30
0.0
 10
1.999102510952702
 20
1.560101145282917
 30
0.0
 10
1.983110680887231
 20
1.560101145282917
 30
0.0
 10
1.967118850821773
 20
1.560101145282917
 30
0.0
 10
1.954127885750672
 20
1.56543175530472
 30
0.0
 10
1.944128198245709
 20
1.576092975348375
 30
0.0
 10
1.942805133168324
 20
1.576092975348375
 30
0.0
 10
1.941635466940549
 20
1.575584841659242
 30
0.0
 10
1.940638374418465
 20
1.574587749137158
 30
0.0
 10
1.939631694468289
 20
1.573590656615074
 30
0.0
 10
1.939133148207247
 20
1.572305941250104
 30
0.0
 10
1.939133148207247
 20
1.570762365326522
 30
0.0
  0
SPLINE
  5
50
330
47
100
AcDbEntity
  8
_U+5F6B_U+523B_U+30D1_U+30B9
370
     0
100
AcDbSpline
210
0.0
220
0.0
230
1.0
 70
    11
 71
     3
 72
    23
 73
    19
 74
     0
 42
0.0000000001
 43
0.0000000001
 12
1.0
 22
0.0
 32
0.0
 13
1.0
 23
0.0
 33
0.0
 40
0.0
 40
0.0
 40
0.0
 40
0.0
 40
1.0
 40
1.0
 40
1.0
 40
2.0
 40
2.0
 40
2.0
 40
3.0
 40
3.0
 40
3.0
 40
4.0
 40
4.0
 40
4.0
 40
5.0
 40
5.0
 40
5.0
 40
6.0
 40
6.0
 40
6.0
 40
6.0
 10
1.94913283571221
 20
1.593743430474559
 30
0.0
 10
1.950465488217686
 20
1.591960168848547
 30
0.0
 10
1.952239162415607
 20
1.591078125463658
 30
0.0
 10
1.954463445734013
 20
1.591078125463658
 30
0.0
 10
1.95846140325039
 20
1.591078125463658
 30
0.0
 10
1.960455588294508
 20
1.593292821353973
 30
0.0
 10
1.960455588294508
 20
1.597741387990936
 30
0.0
 10
1.960455588294508
 20
1.597741387990936
 30
0.0
 10
1.960455588294508
 20
1.645045758220476
 30
0.0
 10
1.960455588294508
 20
1.645045758220476
 30
0.0
 10
1.960455588294508
 20
1.649484737429298
 30
0.0
 10
1.95846140325039
 20
1.651709020747754
 30
0.0
 10
1.954463445734013
 20
1.651709020747754
 30
0.0
 10
1.952239162415607
 20
1.651709020747754
 30
0.0
 10
1.950465488217686
 20
1.650817389934774
 30
0.0
 10
1.94913283571221
 20
1.649043715736853
 30
0.0
 10
1.94913283571221
 20
1.649043715736853
 30
0.0
 10
1.94913283571221
 20
1.593743430474559
 30
0.0
 10
1.94913283571221
 20
1.593743430474559
 30
0.0
  0
HATCH
  5
51
330
47
100
AcDbEntity
  8
_U+5F6B_U+523B_U+30D1_U+30B9
 62
     7
420
 16777215
100
AcDbHatch
 10
0.0
 20
0.0
 30
0.0
210
0.0
220
0.0
230
1.0
  2
SOLID
 70
     1
 71
     0
 91
        2
 92
        1
 93
        1
 72
     4
 94
        3
 73
     0
 74
     1
 95
       80
 96
       76
 40
0.0
 40
0.0
 40
0.0
 40
0.0
 40
1.0
 40
1.0
 40
1.0
 40
2.0
 40
2.0
 40
2.0
 40
3.0
 40
3.0
 40
3.0
 40
4.0
 40
4.0
 40
4.0
 40
5.0
 40
5.0
 40
5.0
 40
6.0
 40
6.0
 40
6.0
 40
7.0
 40
7.0
 40
7.0
 40
8.0
 40
8.0
 40
8.0
 40
9.0
 40
9.0
 40
9.0
 40
10.0
 40
10.0
 40
10.0
 40
11.0
 40
11.0
 40
11.0
 40
12.0
 40
12.0
 40
12.0
 40
13.0
 40
13.0
 40
13.0
 40
14.0
 40
14.0
 40
14.0
 40
15.0
 40
15.0
 40
15.0
 40
16.0
 40
16.0
 40
16.0
 40
17.0
 40
17.0
 40
17.0
 40
18.0
 40
18.0
 40
18.0
 40
19.0
 40
19.0
 40
19.0
 40
20.0
 40
20.0
 40
20.0
 40
21.0
 40
21.0
 40
21.0
 40
22.0
 40
22.0
 40
22.0
 40
23.0
 40
23.0
 40
23.0
 40
24.0
 40
24.0
 40
24.0
 40
25.0
 40
25.0
 40
25.0
 40
25.0
 10
1.939133148207247
 20
1.570762365326522
 10
1.939133148207247
 20
1.565642678722826
 10
1.943466665707016
 20
1.560935251527301
 10
1.952124113278412
 20
1.556601734027582
 10
1.960791148277899
 20
1.552268216527813
 10
1.97044568837138
 20
1.550101457777954
 10
1.981106908415035
 20
1.550101457777954
 10
2.002208837656048
 20
1.550101457777954
 10
2.019533320226957
 20
1.557205741997677
 10
2.03308035612771
 20
1.571423897865214
 10
2.034413008633136
 20
1.57275655037064
 10
2.035352576586673
 20
1.573590656615074
 10
2.035908647416262
 20
1.573926216598516
 10
2.036464718245901
 20
1.574252189153766
 10
2.037298824490335
 20
1.574424762859508
 10
2.038410966149513
 20
1.574424762859508
 10
2.038410966149513
 20
1.574424762859508
 10
2.04240892366589
 20
1.574424762859508
 10
2.04240892366589
 20
1.574424762859508
 10
2.043952499589472
 20
1.574424762859508
 10
2.045016704108245
 20
1.573868692029919
 10
2.045572774937833
 20
1.57275655037064
 10
2.046119258339331
 20
1.571644408711462
 10
2.046406881182267
 20
1.569640636239203
 10
2.046406881182267
 20
1.566764407810145
 10
2.046406881182267
 20
1.552987273635053
 10
2.042677371652644
 20
1.540274343978732
 10
2.03524711487762
 20
1.528616031413043
 10
2.027797683246364
 20
1.516957718847304
 10
2.017251512339903
 20
1.507571626740577
 10
2.003599014730096
 20
1.500467342520854
 10
1.989936929692173
 20
1.49336305830108
 10
1.974664156734004
 20
1.489806122477199
 10
1.957790283283619
 20
1.489806122477199
 10
1.939804268174031
 20
1.489806122477199
 10
1.923591927262376
 20
1.493478107438275
 10
1.909153260548591
 20
1.500802902504246
 10
1.894714593834806
 20
1.508127697570166
 10
1.883219267546767
 20
1.518568406767574
 10
1.874676869112515
 20
1.532115442668378
 10
1.866124883250172
 20
1.545662478569132
 10
1.861848890319
 20
1.561098237804951
 10
1.861848890319
 20
1.578422720375834
 10
1.861848890319
 20
1.59551710467248
 10
1.865846847835377
 20
1.610732353062051
 10
1.873842762868132
 20
1.624058878116607
 10
1.881838677900835
 20
1.637385403171164
 10
1.893218955051717
 20
1.647874049509078
 10
1.907993181748869
 20
1.655543991986481
 10
1.922757821017942
 20
1.663204347035793
 10
1.940024779020278
 20
1.667029730846429
 10
1.959794055755866
 20
1.667029730846429
 10
1.974664156734004
 20
1.667029730846429
 10
1.988048206357108
 20
1.66469998581892
 10
1.999927029769045
 20
1.660040495763901
 10
2.011805853180906
 20
1.65537141828074
 10
2.021191945287683
 20
1.648708155753462
 10
2.0280853060893
 20
1.640050708182065
 10
2.034959492034684
 20
1.631383673182578
 10
2.038410966149513
 20
1.621393573105706
 10
2.038410966149513
 20
1.610070820523409
 10
2.038410966149513
 20
1.595632153809624
 10
2.033185817836764
 20
1.58369580582909
 10
2.022754696067447
 20
1.574252189153766
 10
2.012313986870039
 20
1.564818159906533
 10
1.999102510952702
 20
1.560101145282917
 10
1.983110680887231
 20
1.560101145282917
 10
1.967118850821773
 20
1.560101145282917
 10
1.954127885750672
 20
1.56543175530472
 10
1.944128198245709
 20
1.576092975348375
 10
1.942805133168324
 20
1.576092975348375
 10
1.941635466940549
 20
1.575584841659242
 10
1.940638374418465
 20
1.574587749137158
 10
1.939631694468289
 20
1.573590656615074
 10
1.939133148207247
 20
1.572305941250104
 10
1.939133148207247
 20
1.570762365326522
 97
        0
 97
        0
 92
        1
 93
        1
 72
     4
 94
        3
 73
     0
 74
     1
 95
       23
 96
       19
 40
0.0
 40
0.0
 40
0.0
 40
0.0
 40
1.0
 40
1.0
 40
1.0
 40
2.0
 40
2.0
 40
2.0
 40
3.0
 40
3.0
 40
3.0
 40
4.0
 40
4.0
 40
4.0
 40
5.0
 40
5.0
 40
5.0
 40
6.0
 40
6.0
 40
6.0
 40
6.0
 10
1.94913283571221
 20
1.593743430474559
 10
1.950465488217686
 20
1.591960168848547
 10
1.952239162415607
 20
1.591078125463658
 10
1.954463445734013
 20
1.591078125463658
 10
1.95846140325039
 20
1.591078125463658
 10
1.960455588294508
 20
1.593292821353973
 10
1.960455588294508
 20
1.597741387990936
 10
1.960455588294508
 20
1.597741387990936
 10
1.960455588294508
 20
1.645045758220476
 10
1.960455588294508
 20
1.645045758220476
 10
1.960455588294508
 20
1.649484737429298
 10
1.95846140325039
 20
1.651709020747754
 10
1.954463445734013
 20
1.651709020747754
 10
1.952239162415607
 20
1.651709020747754
 10
1.950465488217686
 20
1.650817389934774
 10
1.94913283571221
 20
1.649043715736853
 10
1.94913283571221
 20
1.649043715736853
 10
1.94913283571221
 20
1.593743430474559
 10
1.94913283571221
 20
1.593743430474559
 97
        0
 97
        0
 75
     2
 76
     1
 98
        0
  0
SPLINE
  5
52
330
47
100
AcDbEntity
  8
_U+5F6B_U+523B_U+30D1_U+30B9
370
     0
100
AcDbSpline
210
0.0
220
0.0
230
1.0
 70
    11
 71
     3
 72
    98
 73
    94
 74
     0
 42
0.0000000001
 43
0.0000000001
 12
1.0
 22
0.0
 32
0.0
 13
1.0
 23
0.0
 33
0.0
 40
0.0
 40
0.0
 40
0.0
 40
0.0
 40
1.0
 40
1.0
 40
1.0
 40
2.0
 40
2.0
 40
2.0
 40
3.0
 40
3.0
 40
3.0
 40
4.0
 40
4.0
 40
4.0
 40
5.0
 40
5.0
 40
5.0
 40
6.0
 40
6.0
 40
6.0
 40
7.0
 40
7.0
 40
7.0
 40
8.0
 40
8.0
 40
8.0
 40
9.0
 40
9.0
 40
9.0
 40
10.0
 40
10.0
 40
10.0
 40
11.0
 40
11.0
 40
11.0
 40
12.0
 40
12.0
 40
12.0
 40
13.0
 40
13.0
 40
13.0
 40
14.0
 40
14.0
 40
14.0
 40
15.0
 40
15.0
 40
15.0
 40
16.0
 40
16.0
 40
16.0
 40
17.0
 40
17.0
 40
17.0
 40
18.0
 40
18.0
 40
18.0
 40
19.0
 40
19.0
 40
19.0
 40
20.0
 40
20.0
 40
20.0
 40
21.0
 40
21.0
 40
21.0
 40
22.0
 40
22.0
 40
22.0
 40
23.0
 40
23.0
 40
23.0
 40
24.0
 40
24.0
 40
24.0
 40
25.0
 40
25.0
 40
25.0
 40
26.0
 40
26.0
 40
26.0
 40
27.0
 40
27.0
 40
27.0
 40
28.0
 40
28.0
 40
28.0
 40
29.0
 40
29.0
 40
29.0
 40
30.0
 40
30.0
 40
30.0
 40
31.0
 40
31.0
 40
31.0
 40
31.0
 10
2.072043663913115
 20
1.663031773330052
 30
0.0
 10
2.091141820681918
 20
1.663031773330052
 30
0.0
 10
2.104142373181174
 20
1.657375190752949
 30
0.0
 10
2.11102614655465
 20
1.64604285074256
 30
0.0
 10
2.11745931080759
 20
1.653147134962283
 30
0.0
 10
2.124678644164507
 20
1.658420220415539
 30
0.0
 10
2.132674559197211
 20
1.661871694530368
 30
0.0
 10
2.140670474229965
 20
1.665313581217106
 30
0.0
 10
2.14988399263095
 20
1.667029730846429
 30
0.0
 10
2.160324701828358
 20
1.667029730846429
 30
0.0
 10
2.176537042740013
 20
1.667029730846429
 30
0.0
 10
2.18986356779457
 20
1.662590751637607
 30
0.0
 10
2.200304276991978
 20
1.653703205791923
 30
0.0
 10
2.210735398761295
 20
1.644825247374279
 30
0.0
 10
2.215960547074044
 20
1.63349290736384
 30
0.0
 10
2.215960547074044
 20
1.619725360616838
 30
0.0
 10
2.215960547074044
 20
1.608182097188344
 30
0.0
 10
2.21174207871147
 20
1.598796005081567
 30
0.0
 10
2.203305141986271
 20
1.5915766717247
 30
0.0
 10
2.194858617832981
 20
1.584357338367782
 30
0.0
 10
2.183976886943128
 20
1.580752465403394
 30
0.0
 10
2.170650361888622
 20
1.580752465403394
 30
0.0
 10
2.157544347680313
 20
1.580752465403394
 30
0.0
 10
2.146835190496202
 20
1.584079302952988
 30
0.0
 10
2.138503715480056
 20
1.590742565480266
 30
0.0
 10
2.130181827892051
 20
1.597405828007494
 30
0.0
 10
2.126011296669933
 20
1.605842764732693
 30
0.0
 10
2.126011296669933
 20
1.616062963083853
 30
0.0
 10
2.126011296669933
 20
1.624729998083391
 30
0.0
 10
2.129012161664225
 20
1.631834282303114
 30
0.0
 10
2.135013891652812
 20
1.637385403171164
 30
0.0
 10
2.141006034213306
 20
1.642936524039214
 30
0.0
 10
2.148666389262619
 20
1.64571687818726
 30
0.0
 10
2.157994956800849
 20
1.64571687818726
 30
0.0
 10
2.158666076767632
 20
1.646819432418397
 30
0.0
 10
2.158992049322882
 20
1.647931574077625
 30
0.0
 10
2.158992049322882
 20
1.649043715736853
 30
0.0
 10
2.158992049322882
 20
1.652150042440199
 30
0.0
 10
2.156662304295373
 20
1.653703205791923
 30
0.0
 10
2.152002814240354
 20
1.653703205791923
 30
0.0
 10
2.142223637581588
 20
1.653703205791923
 30
0.0
 10
2.133786700856439
 20
1.64998328369034
 30
0.0
 10
2.126682416636716
 20
1.642543439487225
 30
0.0
 10
2.119568544988902
 20
1.63510359528411
 30
0.0
 10
2.116021196593061
 20
1.62616811229792
 30
0.0
 10
2.116021196593061
 20
1.615727403100512
 30
0.0
 10
2.116021196593061
 20
1.606849444682868
 30
0.0
 10
2.118523515326362
 20
1.599016515927764
 30
0.0
 10
2.123518565364773
 20
1.592247791691433
 30
0.0
 10
2.128513615403234
 20
1.58546948002701
 30
0.0
 10
2.135675424191504
 20
1.580090932864702
 30
0.0
 10
2.145003991729684
 20
1.576092975348375
 30
0.0
 10
2.14811031843303
 20
1.574760322842899
 30
0.0
 10
2.150162028045745
 20
1.573255096631682
 30
0.0
 10
2.15116870799592
 20
1.571586884142865
 30
0.0
 10
2.152165800518004
 20
1.569928259082139
 30
0.0
 10
2.152664346778995
 20
1.567090380365446
 30
0.0
 10
2.152664346778995
 20
1.563092422849069
 30
0.0
 10
2.152664346778995
 20
1.563092422849069
 30
0.0
 10
2.152664346778995
 20
1.504465300037181
 30
0.0
 10
2.152664346778995
 20
1.504465300037181
 30
0.0
 10
2.152664346778995
 20
1.497361015817458
 30
0.0
 10
2.148886900108866
 20
1.493804079993576
 30
0.0
 10
2.141341594196698
 20
1.493804079993576
 30
0.0
 10
2.141341594196698
 20
1.493804079993576
 30
0.0
 10
2.073711876401931
 20
1.493804079993576
 30
0.0
 10
2.073711876401931
 20
1.493804079993576
 30
0.0
 10
2.066828103028456
 20
1.493804079993576
 30
0.0
 10
2.063386216341668
 20
1.497361015817458
 30
0.0
 10
2.063386216341668
 20
1.504465300037181
 30
0.0
 10
2.063386216341668
 20
1.504465300037181
 30
0.0
 10
2.063386216341668
 20
1.62206469307249
 30
0.0
 10
2.063386216341668
 20
1.62206469307249
 30
0.0
 10
2.063386216341668
 20
1.629830509830905
 30
0.0
 10
2.062274074682439
 20
1.635774715250894
 30
0.0
 10
2.060059378792074
 20
1.639878134476324
 30
0.0
 10
2.057835095473618
 20
1.643991141129845
 30
0.0
 10
2.053722088820096
 20
1.647816524940481
 30
0.0
 10
2.047729946259602
 20
1.651373460764363
 30
0.0
 10
2.046176782907929
 20
1.652265091577343
 30
0.0
 10
2.045227627526351
 20
1.652984148684633
 30
0.0
 10
2.0449016549711
 20
1.653540219514222
 30
0.0
 10
2.044566094987658
 20
1.654096290343861
 30
0.0
 10
2.044403108710008
 20
1.6548153474511
 30
0.0
 10
2.044403108710008
 20
1.655706978264132
 30
0.0
 10
2.044403108710008
 20
1.655706978264132
 30
0.0
 10
2.044403108710008
 20
1.659704935780509
 30
0.0
 10
2.044403108710008
 20
1.659704935780509
 30
0.0
 10
2.044403108710008
 20
1.661919631670874
 30
0.0
 10
2.045735761215484
 20
1.663031773330052
 30
0.0
 10
2.048401066226385
 20
1.663031773330052
 30
0.0
 10
2.048401066226385
 20
1.663031773330052
 30
0.0
 10
2.072043663913115
 20
1.663031773330052
 30
0.0
 10
2.072043663913115
 20
1.663031773330052
 30
0.0
  0
HATCH
  5
53
330
47
100
AcDbEntity
  8
_U+5F6B_U+523B_U+30D1_U+30B9
 62
     7
420
 16777215
100
AcDbHatch
 10
0.0
 20
0.0
 30
0.0
210
0.0
220
0.0
230
1.0
  2
SOLID
 70
     1
 71
     0
 91
        1
 92
        1
 93
        1
 72
     4
 94
        3
 73
     0
 74
     1
 95
       98
 96
       94
 40
0.0
 40
0.0
 40
0.0
 40
0.0
 40
1.0
 40
1.0
 40
1.0
 40
2.0
 40
2.0
 40
2.0
 40
3.0
 40
3.0
 40
3.0
 40
4.0
 40
4.0
 40
4.0
 40
5.0
 40
5.0
 40
5.0
 40
6.0
 40
6.0
 40
6.0
 40
7.0
 40
7.0
 40
7.0
 40
8.0
 40
8.0
 40
8.0
 40
9.0
 40
9.0
 40
9.0
 40
10.0
 40
10.0
 40
10.0
 40
11.0
 40
11.0
 40
11.0
 40
12.0
 40
12.0
 40
12.0
 40
13.0
 40
13.0
 40
13.0
 40
14.0
 40
14.0
 40
14.0
 40
15.0
 40
15.0
 40
15.0
 40
16.0
 40
16.0
 40
16.0
 40
17.0
 40
17.0
 40
17.0
 40
18.0
 40
18.0
 40
18.0
 40
19.0
 40
19.0
 40
19.0
 40
20.0
 40
20.0
 40
20.0
 40
21.0
 40
21.0
 40
21.0
 40
22.0
 40
22.0
 40
22.0
 40
23.0
 40
23.0
 40
23.0
 40
24.0
 40
24.0
 40
24.0
 40
25.0
 40
25.0
 40
25.0
 40
26.0
 40
26.0
 40
26.0
 40
27.0
 40
27.0
 40
27.0
 40
28.0
 40
28.0
 40
28.0
 40
29.0
 40
29.0
 40
29.0
 40
30.0
 40
30.0
 40
30.0
 40
31.0
 40
31.0
 40
31.0
 40
31.0
 10
2.072043663913115
 20
1.663031773330052
 10
2.091141820681918
 20
1.663031773330052
 10
2.104142373181174
 20
1.657375190752949
 10
2.11102614655465
 20
1.64604285074256
 10
2.11745931080759
 20
1.653147134962283
 10
2.124678644164507
 20
1.658420220415539
 10
2.132674559197211
 20
1.661871694530368
 10
2.140670474229965
 20
1.665313581217106
 10
2.14988399263095
 20
1.667029730846429
 10
2.160324701828358
 20
1.667029730846429
 10
2.176537042740013
 20
1.667029730846429
 10
2.18986356779457
 20
1.662590751637607
 10
2.200304276991978
 20
1.653703205791923
 10
2.210735398761295
 20
1.644825247374279
 10
2.215960547074044
 20
1.63349290736384
 10
2.215960547074044
 20
1.619725360616838
 10
2.215960547074044
 20
1.608182097188344
 10
2.21174207871147
 20
1.598796005081567
 10
2.203305141986271
 20
1.5915766717247
 10
2.194858617832981
 20
1.584357338367782
 10
2.183976886943128
 20
1.580752465403394
 10
2.170650361888622
 20
1.580752465403394
 10
2.157544347680313
 20
1.580752465403394
 10
2.146835190496202
 20
1.584079302952988
 10
2.138503715480056
 20
1.590742565480266
 10
2.130181827892051
 20
1.597405828007494
 10
2.126011296669933
 20
1.605842764732693
 10
2.126011296669933
 20
1.616062963083853
 10
2.126011296669933
 20
1.624729998083391
 10
2.129012161664225
 20
1.631834282303114
 10
2.135013891652812
 20
1.637385403171164
 10
2.141006034213306
 20
1.642936524039214
 10
2.148666389262619
 20
1.64571687818726
 10
2.157994956800849
 20
1.64571687818726
 10
2.158666076767632
 20
1.646819432418397
 10
2.158992049322882
 20
1.647931574077625
 10
2.158992049322882
 20
1.649043715736853
 10
2.158992049322882
 20
1.652150042440199
 10
2.156662304295373
 20
1.653703205791923
 10
2.152002814240354
 20
1.653703205791923
 10
2.142223637581588
 20
1.653703205791923
 10
2.133786700856439
 20
1.64998328369034
 10
2.126682416636716
 20
1.642543439487225
 10
2.119568544988902
 20
1.63510359528411
 10
2.116021196593061
 20
1.62616811229792
 10
2.116021196593061
 20
1.615727403100512
 10
2.116021196593061
 20
1.606849444682868
 10
2.118523515326362
 20
1.599016515927764
 10
2.123518565364773
 20
1.592247791691433
 10
2.128513615403234
 20
1.58546948002701
 10
2.135675424191504
 20
1.580090932864702
 10
2.145003991729684
 20
1.576092975348375
 10
2.14811031843303
 20
1.574760322842899
 10
2.150162028045745
 20
1.573255096631682
 10
2.15116870799592
 20
1.571586884142865
 10
2.152165800518004
 20
1.569928259082139
 10
2.152664346778995
 20
1.567090380365446
 10
2.152664346778995
 20
1.563092422849069
 10
2.152664346778995
 20
1.563092422849069
 10
2.152664346778995
 20
1.504465300037181
 10
2.152664346778995
 20
1.504465300037181
 10
2.152664346778995
 20
1.497361015817458
 10
2.148886900108866
 20
1.493804079993576
 10
2.141341594196698
 20
1.493804079993576
 10
2.141341594196698
 20
1.493804079993576
 10
2.073711876401931
 20
1.493804079993576
 10
2.073711876401931
 20
1.493804079993576
 10
2.066828103028456
 20
1.493804079993576
 10
2.063386216341668
 20
1.497361015817458
 10
2.063386216341668
 20
1.504465300037181
 10
2.063386216341668
 20
1.504465300037181
 10
2.063386216341668
 20
1.62206469307249
 10
2.063386216341668
 20
1.62206469307249
 10
2.063386216341668
 20
1.629830509830905
 10
2.062274074682439
 20
1.635774715250894
 10
2.060059378792074
 20
1.639878134476324
 10
2.057835095473618
 20
1.643991141129845
 10
2.053722088820096
 20
1.647816524940481
 10
2.047729946259602
 20
1.651373460764363
 10
2.046176782907929
 20
1.652265091577343
 10
2.045227627526351
 20
1.652984148684633
 10
2.0449016549711
 20
1.653540219514222
 10
2.044566094987658
 20
1.654096290343861
 10
2.044403108710008
 20
1.6548153474511
 10
2.044403108710008
 20
1.655706978264132
 10
2.044403108710008
 20
1.655706978264132
 10
2.044403108710008
 20
1.659704935780509
 10
2.044403108710008
 20
1.659704935780509
 10
2.044403108710008
 20
1.661919631670874
 10
2.045735761215484
 20
1.663031773330052
 10
2.048401066226385
 20
1.663031773330052
 10
2.048401066226385
 20
1.663031773330052
 10
2.072043663913115
 20
1.663031773330052
 10
2.072043663913115
 20
1.663031773330052
 97
        0
 97
        0
 75
     2
 76
     1
 98
        0
  0
SPLINE
  5
54
330
47
100
AcDbEntity
  8
_U+5F6B_U+523B_U+30D1_U+30B9
370
     0
100
AcDbSpline
210
0.0
220
0.0
230
1.0
 70
    11
 71
     3
 72
    98
 73
    94
 74
     0
 42
0.0000000001
 43
0.0000000001
 12
1.0
 22
0.0
 32
0.0
 13
1.0
 23
0.0
 33
0.0
 40
0.0
 40
0.0
 40
0.0
 40
0.0
 40
1.0
 40
1.0
 40
1.0
 40
2.0
 40
2.0
 40
2.0
 40
3.0
 40
3.0
 40
3.0
 40
4.0
 40
4.0
 40
4.0
 40
5.0
 40
5.0
 40
5.0
 40
6.0
 40
6.0
 40
6.0
 40
7.0
 40
7.0
 40
7.0
 40
8.0
 40
8.0
 40
8.0
 40
9.0
 40
9.0
 40
9.0
 40
10.0
 40
10.0
 40
10.0
 40
11.0
 40
11.0
 40
11.0
 40
12.0
 40
12.0
 40
12.0
 40
13.0
 40
13.0
 40
13.0
 40
14.0
 40
14.0
 40
14.0
 40
15.0
 40
15.0
 40
15.0
 40
16.0
 40
16.0
 40
16.0
 40
17.0
 40
17.0
 40
17.0
 40
18.0
 40
18.0
 40
18.0
 40
19.0
 40
19.0
 40
19.0
 40
20.0
 40
20.0
 40
20.0
 40
21.0
 40
21.0
 40
21.0
 40
22.0
 40
22.0
 40
22.0
 40
23.0
 40
23.0
 40
23.0
 40
24.0
 40
24.0
 40
24.0
 40
25.0
 40
25.0
 40
25.0
 40
26.0
 40
26.0
 40
26.0
 40
27.0
 40
27.0
 40
27.0
 40
28.0
 40
28.0
 40
28.0
 40
29.0
 40
29.0
 40
29.0
 40
30.0
 40
30.0
 40
30.0
 40
31.0
 40
31.0
 40
31.0
 40
31.0
 10
2.238941612222081
 20
1.663031773330052
 30
0.0
 10
2.258039768990885
 20
1.663031773330052
 30
0.0
 10
2.271040321490141
 20
1.657375190752949
 30
0.0
 10
2.277924094863617
 20
1.64604285074256
 30
0.0
 10
2.284357259116556
 20
1.653147134962283
 30
0.0
 10
2.291576592473474
 20
1.658420220415539
 30
0.0
 10
2.299572507506177
 20
1.661871694530368
 30
0.0
 10
2.307568422538882
 20
1.665313581217106
 30
0.0
 10
2.316781940939917
 20
1.667029730846429
 30
0.0
 10
2.327222650137325
 20
1.667029730846429
 30
0.0
 10
2.34343499104903
 20
1.667029730846429
 30
0.0
 10
2.356761516103536
 20
1.662590751637607
 30
0.0
 10
2.367202225300944
 20
1.653703205791923
 30
0.0
 10
2.377633347070261
 20
1.644825247374279
 30
0.0
 10
2.382858495383011
 20
1.63349290736384
 30
0.0
 10
2.382858495383011
 20
1.619725360616838
 30
0.0
 10
2.382858495383011
 20
1.608182097188344
 30
0.0
 10
2.378640027020436
 20
1.598796005081567
 30
0.0
 10
2.370203090295288
 20
1.5915766717247
 30
0.0
 10
2.361756566141998
 20
1.584357338367782
 30
0.0
 10
2.350874835252145
 20
1.580752465403394
 30
0.0
 10
2.337548310197588
 20
1.580752465403394
 30
0.0
 10
2.324442295989279
 20
1.580752465403394
 30
0.0
 10
2.313733138805168
 20
1.584079302952988
 30
0.0
 10
2.305401663789022
 20
1.590742565480266
 30
0.0
 10
2.297079776201018
 20
1.597405828007494
 30
0.0
 10
2.292909244978899
 20
1.605842764732693
 30
0.0
 10
2.292909244978899
 20
1.616062963083853
 30
0.0
 10
2.292909244978899
 20
1.624729998083391
 30
0.0
 10
2.295910109973243
 20
1.631834282303114
 30
0.0
 10
2.301911839961778
 20
1.637385403171164
 30
0.0
 10
2.307903982522273
 20
1.642936524039214
 30
0.0
 10
2.315564337571636
 20
1.64571687818726
 30
0.0
 10
2.324892905109815
 20
1.64571687818726
 30
0.0
 10
2.325564025076599
 20
1.646819432418397
 30
0.0
 10
2.325889997631899
 20
1.647931574077625
 30
0.0
 10
2.325889997631899
 20
1.649043715736853
 30
0.0
 10
2.325889997631899
 20
1.652150042440199
 30
0.0
 10
2.323560252604339
 20
1.653703205791923
 30
0.0
 10
2.31890076254932
 20
1.653703205791923
 30
0.0
 10
2.309121585890554
 20
1.653703205791923
 30
0.0
 10
2.300684649165406
 20
1.64998328369034
 30
0.0
 10
2.293580364945683
 20
1.642543439487225
 30
0.0
 10
2.286466493297869
 20
1.63510359528411
 30
0.0
 10
2.282919144902027
 20
1.62616811229792
 30
0.0
 10
2.282919144902027
 20
1.615727403100512
 30
0.0
 10
2.282919144902027
 20
1.606849444682868
 30
0.0
 10
2.285421463635329
 20
1.599016515927764
 30
0.0
 10
2.29041651367374
 20
1.592247791691433
 30
0.0
 10
2.295411563712201
 20
1.58546948002701
 30
0.0
 10
2.302573372500471
 20
1.580090932864702
 30
0.0
 10
2.31190194003865
 20
1.576092975348375
 30
0.0
 10
2.315008266742047
 20
1.574760322842899
 30
0.0
 10
2.317059976354762
 20
1.573255096631682
 30
0.0
 10
2.318066656304886
 20
1.571586884142865
 30
0.0
 10
2.319063748826971
 20
1.569928259082139
 30
0.0
 10
2.319562295088013
 20
1.567090380365446
 30
0.0
 10
2.319562295088013
 20
1.563092422849069
 30
0.0
 10
2.319562295088013
 20
1.563092422849069
 30
0.0
 10
2.319562295088013
 20
1.504465300037181
 30
0.0
 10
2.319562295088013
 20
1.504465300037181
 30
0.0
 10
2.319562295088013
 20
1.497361015817458
 30
0.0
 10
2.315784848417883
 20
1.493804079993576
 30
0.0
 10
2.308239542505715
 20
1.493804079993576
 30
0.0
 10
2.308239542505715
 20
1.493804079993576
 30
0.0
 10
2.240609824710898
 20
1.493804079993576
 30
0.0
 10
2.240609824710898
 20
1.493804079993576
 30
0.0
 10
2.233726051337423
 20
1.493804079993576
 30
0.0
 10
2.230284164650634
 20
1.497361015817458
 30
0.0
 10
2.230284164650634
 20
1.504465300037181
 30
0.0
 10
2.230284164650634
 20
1.504465300037181
 30
0.0
 10
2.230284164650634
 20
1.62206469307249
 30
0.0
 10
2.230284164650634
 20
1.62206469307249
 30
0.0
 10
2.230284164650634
 20
1.629830509830905
 30
0.0
 10
2.229172022991406
 20
1.635774715250894
 30
0.0
 10
2.226957327101041
 20
1.639878134476324
 30
0.0
 10
2.224733043782635
 20
1.643991141129845
 30
0.0
 10
2.220620037129063
 20
1.647816524940481
 30
0.0
 10
2.214627894568568
 20
1.651373460764363
 30
0.0
 10
2.213074731216895
 20
1.652265091577343
 30
0.0
 10
2.212125575835317
 20
1.652984148684633
 30
0.0
 10
2.211799603280067
 20
1.653540219514222
 30
0.0
 10
2.211464043296625
 20
1.654096290343861
 30
0.0
 10
2.211301057019025
 20
1.6548153474511
 30
0.0
 10
2.211301057019025
 20
1.655706978264132
 30
0.0
 10
2.211301057019025
 20
1.655706978264132
 30
0.0
 10
2.211301057019025
 20
1.659704935780509
 30
0.0
 10
2.211301057019025
 20
1.659704935780509
 30
0.0
 10
2.211301057019025
 20
1.661919631670874
 30
0.0
 10
2.212633709524451
 20
1.663031773330052
 30
0.0
 10
2.215299014535351
 20
1.663031773330052
 30
0.0
 10
2.215299014535351
 20
1.663031773330052
 30
0.0
 10
2.238941612222081
 20
1.663031773330052
 30
0.0
 10
2.238941612222081
 20
1.663031773330052
 30
0.0
  0
HATCH
  5
55
330
47
100
AcDbEntity
  8
_U+5F6B_U+523B_U+30D1_U+30B9
 62
     7
420
 16777215
100
AcDbHatch
 10
0.0
 20
0.0
 30
0.0
210
0.0
220
0.0
230
1.0
  2
SOLID
 70
     1
 71
     0
 91
        1
 92
        1
 93
        1
 72
     4
 94
        3
 73
     0
 74
     1
 95
       98
 96
       94
 40
0.0
 40
0.0
 40
0.0
 40
0.0
 40
1.0
 40
1.0
 40
1.0
 40
2.0
 40
2.0
 40
2.0
 40
3.0
 40
3.0
 40
3.0
 40
4.0
 40
4.0
 40
4.0
 40
5.0
 40
5.0
 40
5.0
 40
6.0
 40
6.0
 40
6.0
 40
7.0
 40
7.0
 40
7.0
 40
8.0
 40
8.0
 40
8.0
 40
9.0
 40
9.0
 40
9.0
 40
10.0
 40
10.0
 40
10.0
 40
11.0
 40
11.0
 40
11.0
 40
12.0
 40
12.0
 40
12.0
 40
13.0
 40
13.0
 40
13.0
 40
14.0
 40
14.0
 40
14.0
 40
15.0
 40
15.0
 40
15.0
 40
16.0
 40
16.0
 40
16.0
 40
17.0
 40
17.0
 40
17.0
 40
18.0
 40
18.0
 40
18.0
 40
19.0
 40
19.0
 40
19.0
 40
20.0
 40
20.0
 40
20.0
 40
21.0
 40
21.0
 40
21.0
 40
22.0
 40
22.0
 40
22.0
 40
23.0
 40
23.0
 40
23.0
 40
24.0
 40
24.0
 40
24.0
 40
25.0
 40
25.0
 40
25.0
 40
26.0
 40
26.0
 40
26.0
 40
27.0
 40
27.0
 40
27.0
 40
28.0
 40
28.0
 40
28.0
 40
29.0
 40
29.0
 40
29.0
 40
30.0
 40
30.0
 40
30.0
 40
31.0
 40
31.0
 40
31.0
 40
31.0
 10
2.238941612222081
 20
1.663031773330052
 10
2.258039768990885
 20
1.663031773330052
 10
2.271040321490141
 20
1.657375190752949
 10
2.277924094863617
 20
1.64604285074256
 10
2.284357259116556
 20
1.653147134962283
 10
2.291576592473474
 20
1.658420220415539
 10
2.299572507506177
 20
1.661871694530368
 10
2.307568422538882
 20
1.665313581217106
 10
2.316781940939917
 20
1.667029730846429
 10
2.327222650137325
 20
1.667029730846429
 10
2.34343499104903
 20
1.667029730846429
 10
2.356761516103536
 20
1.662590751637607
 10
2.367202225300944
 20
1.653703205791923
 10
2.377633347070261
 20
1.644825247374279
 10
2.382858495383011
 20
1.63349290736384
 10
2.382858495383011
 20
1.619725360616838
 10
2.382858495383011
 20
1.608182097188344
 10
2.378640027020436
 20
1.598796005081567
 10
2.370203090295288
 20
1.5915766717247
 10
2.361756566141998
 20
1.584357338367782
 10
2.350874835252145
 20
1.580752465403394
 10
2.337548310197588
 20
1.580752465403394
 10
2.324442295989279
 20
1.580752465403394
 10
2.313733138805168
 20
1.584079302952988
 10
2.305401663789022
 20
1.590742565480266
 10
2.297079776201018
 20
1.597405828007494
 10
2.292909244978899
 20
1.605842764732693
 10
2.292909244978899
 20
1.616062963083853
 10
2.292909244978899
 20
1.624729998083391
 10
2.295910109973243
 20
1.631834282303114
 10
2.301911839961778
 20
1.637385403171164
 10
2.307903982522273
 20
1.642936524039214
 10
2.315564337571636
 20
1.64571687818726
 10
2.324892905109815
 20
1.64571687818726
 10
2.325564025076599
 20
1.646819432418397
 10
2.325889997631899
 20
1.647931574077625
 10
2.325889997631899
 20
1.649043715736853
 10
2.325889997631899
 20
1.652150042440199
 10
2.323560252604339
 20
1.653703205791923
 10
2.31890076254932
 20
1.653703205791923
 10
2.309121585890554
 20
1.653703205791923
 10
2.300684649165406
 20
1.64998328369034
 10
2.293580364945683
 20
1.642543439487225
 10
2.286466493297869
 20
1.63510359528411
 10
2.282919144902027
 20
1.62616811229792
 10
2.282919144902027
 20
1.615727403100512
 10
2.282919144902027
 20
1.606849444682868
 10
2.285421463635329
 20
1.599016515927764
 10
2.29041651367374
 20
1.592247791691433
 10
2.295411563712201
 20
1.58546948002701
 10
2.302573372500471
 20
1.580090932864702
 10
2.31190194003865
 20
1.576092975348375
 10
2.315008266742047
 20
1.574760322842899
 10
2.317059976354762
 20
1.573255096631682
 10
2.318066656304886
 20
1.571586884142865
 10
2.319063748826971
 20
1.569928259082139
 10
2.319562295088013
 20
1.567090380365446
 10
2.319562295088013
 20
1.563092422849069
 10
2.319562295088013
 20
1.563092422849069
 10
2.319562295088013
 20
1.504465300037181
 10
2.319562295088013
 20
1.504465300037181
 10
2.319562295088013
 20
1.497361015817458
 10
2.315784848417883
 20
1.493804079993576
 10
2.308239542505715
 20
1.493804079993576
 10
2.308239542505715
 20
1.493804079993576
 10
2.240609824710898
 20
1.493804079993576
 10
2.240609824710898
 20
1.493804079993576
 10
2.233726051337423
 20
1.493804079993576
 10
2.230284164650634
 20
1.497361015817458
 10
2.230284164650634
 20
1.504465300037181
 10
2.230284164650634
 20
1.504465300037181
 10
2.230284164650634
 20
1.62206469307249
 10
2.230284164650634
 20
1.62206469307249
 10
2.230284164650634
 20
1.629830509830905
 10
2.229172022991406
 20
1.635774715250894
 10
2.226957327101041
 20
1.639878134476324
 10
2.224733043782635
 20
1.643991141129845
 10
2.220620037129063
 20
1.647816524940481
 10
2.214627894568568
 20
1.651373460764363
 10
2.213074731216895
 20
1.652265091577343
 10
2.212125575835317
 20
1.652984148684633
 10
2.211799603280067
 20
1.653540219514222
 10
2.211464043296625
 20
1.654096290343861
 10
2.211301057019025
 20
1.6548153474511
 10
2.211301057019025
 20
1.655706978264132
 10
2.211301057019025
 20
1.655706978264132
 10
2.211301057019025
 20
1.659704935780509
 10
2.211301057019025
 20
1.659704935780509
 10
2.211301057019025
 20
1.661919631670874
 10
2.212633709524451
 20
1.663031773330052
 10
2.215299014535351
 20
1.663031773330052
 10
2.215299014535351
 20
1.663031773330052
 10
2.238941612222081
 20
1.663031773330052
 10
2.238941612222081
 20
1.663031773330052
 97
        0
 97
        0
 75
     2
 76
     1
 98
        0
  0
SPLINE
  5
56
330
47
100
AcDbEntity
  8
_U+5F6B_U+523B_U+30D1_U+30B9
370
     0
100
AcDbSpline
210
0.0
220
0.0
230
1.0
 70
    11
 71
     3
 72
   134
 73
   130
 74
     0
 42
0.0000000001
 43
0.0000000001
 12
1.0
 22
0.0
 32
0.0
 13
1.0
 23
0.0
 33
0.0
 40
0.0
 40
0.0
 40
0.0
 40
0.0
 40
1.0
 40
1.0
 40
1.0
 40
2.0
 40
2.0
 40
2.0
 40
3.0
 40
3.0
 40
3.0
 40
4.0
 40
4.0
 40
4.0
 40
5.0
 40
5.0
 40
5.0
 40
6.0
 40
6.0
 40
6.0
 40
7.0
 40
7.0
 40
7.0
 40
8.0
 40
8.0
 40
8.0
 40
9.0
 40
9.0
 40
9.0
 40
10.0
 40
10.0
 40
10.0
 40
11.0
 40
11.0
 40
11.0
 40
12.0
 40
12.0
 40
12.0
 40
13.0
 40
13.0
 40
13.0
 40
14.0
 40
14.0
 40
14.0
 40
15.0
 40
15.0
 40
15.0
 40
16.0
 40
16.0
 40
16.0
 40
17.0
 40
17.0
 40
17.0
 40
18.0
 40
18.0
 40
18.0
 40
19.0
 40
19.0
 40
19.0
 40
20.0
 40
20.0
 40
20.0
 40
21.0
 40
21.0
 40
21.0
 40
22.0
 40
22.0
 40
22.0
 40
23.0
 40
23.0
 40
23.0
 40
24.0
 40
24.0
 40
24.0
 40
25.0
 40
25.0
 40
25.0
 40
26.0
 40
26.0
 40
26.0
 40
27.0
 40
27.0
 40
27.0
 40
28.0
 40
28.0
 40
28.0
 40
29.0
 40
29.0
 40
29.0
 40
30.0
 40
30.0
 40
30.0
 40
31.0
 40
31.0
 40
31.0
 40
32.0
 40
32.0
 40
32.0
 40
33.0
 40
33.0
 40
33.0
 40
34.0
 40
34.0
 40
34.0
 40
35.0
 40
35.0
 40
35.0
 40
36.0
 40
36.0
 40
36.0
 40
37.0
 40
37.0
 40
37.0
 40
38.0
 40
38.0
 40
38.0
 40
39.0
 40
39.0
 40
39.0
 40
40.0
 40
40.0
 40
40.0
 40
41.0
 40
41.0
 40
41.0
 40
42.0
 40
42.0
 40
42.0
 40
43.0
 40
43.0
 40
43.0
 40
43.0
 10
2.390518850432373
 20
1.634048978193479
 30
0.0
 10
2.389186197926897
 20
1.637826424863609
 30
0.0
 10
2.38735499916043
 20
1.640932751566955
 30
0.0
 10
2.38502525413292
 20
1.643377545731659
 30
0.0
 10
2.382695509105361
 20
1.645822339896313
 30
0.0
 10
2.379196097850076
 20
1.648487644907265
 30
0.0
 10
2.374527020366915
 20
1.651373460764363
 30
0.0
 10
2.37231232447655
 20
1.652706113269839
 30
0.0
 10
2.371200182817322
 20
1.654153814912459
 30
0.0
 10
2.371200182817322
 20
1.655706978264132
 30
0.0
 10
2.371200182817322
 20
1.655706978264132
 30
0.0
 10
2.371200182817322
 20
1.659704935780509
 30
0.0
 10
2.371200182817322
 20
1.659704935780509
 30
0.0
 10
2.371200182817322
 20
1.661919631670874
 30
0.0
 10
2.372532835322798
 20
1.663031773330052
 30
0.0
 10
2.375198140333699
 20
1.663031773330052
 30
0.0
 10
2.375198140333699
 20
1.663031773330052
 30
0.0
 10
2.427162000618308
 20
1.663031773330052
 30
0.0
 10
2.427162000618308
 20
1.663031773330052
 30
0.0
 10
2.442262199870735
 20
1.663031773330052
 30
0.0
 10
2.453421966175433
 20
1.661871694530368
 30
0.0
 10
2.4606412995323
 20
1.659541949502808
 30
0.0
 10
2.467860632889217
 20
1.657202617047207
 30
0.0
 10
2.473517215466321
 20
1.653147134962283
 30
0.0
 10
2.477630222119842
 20
1.647375503247986
 30
0.0
 10
2.481743228773363
 20
1.641603871533738
 30
0.0
 10
2.485683661721143
 20
1.633051885671395
 30
0.0
 10
2.489461108391272
 20
1.621729133089098
 30
0.0
 10
2.489461108391272
 20
1.621729133089098
 30
0.0
 10
2.521435181094097
 20
1.525116620157708
 30
0.0
 10
2.521435181094097
 20
1.525116620157708
 30
0.0
 10
2.522547322753326
 20
1.52400447849848
 30
0.0
 10
2.523879975258751
 20
1.523457995096932
 30
0.0
 10
2.525433138610424
 20
1.523457995096932
 30
0.0
 10
2.528769563588159
 20
1.523457995096932
 30
0.0
 10
2.530437776076977
 20
1.525337131003905
 30
0.0
 10
2.530437776076977
 20
1.529114577674035
 30
0.0
 10
2.530437776076977
 20
1.531338860992491
 30
0.0
 10
2.529546145263945
 20
1.535001258525477
 30
0.0
 10
2.527772471066075
 20
1.540111357701082
 30
0.0
 10
2.527772471066075
 20
1.540111357701082
 30
0.0
 10
2.497782995979277
 20
1.631719233165919
 30
0.0
 10
2.497782995979277
 20
1.631719233165919
 30
0.0
 10
2.494897180122178
 20
1.640597191583563
 30
0.0
 10
2.492346924248421
 20
1.646378410725952
 30
0.0
 10
2.490122640929965
 20
1.649043715736853
 30
0.0
 10
2.488128455885847
 20
1.651488509901557
 30
0.0
 10
2.486843740520877
 20
1.653089610393737
 30
0.0
 10
2.486297257119329
 20
1.653875779497664
 30
0.0
 10
2.485741186289741
 20
1.65465236117345
 30
0.0
 10
2.485463150874895
 20
1.655591929126988
 30
0.0
 10
2.485463150874895
 20
1.656704070786216
 30
0.0
 10
2.485463150874895
 20
1.656704070786216
 30
0.0
 10
2.485463150874895
 20
1.659704935780509
 30
0.0
 10
2.485463150874895
 20
1.659704935780509
 30
0.0
 10
2.485463150874895
 20
1.661919631670874
 30
0.0
 10
2.486795803380371
 20
1.663031773330052
 30
0.0
 10
2.489461108391272
 20
1.663031773330052
 30
0.0
 10
2.489461108391272
 20
1.663031773330052
 30
0.0
 10
2.583734288867062
 20
1.663031773330052
 30
0.0
 10
2.583734288867062
 20
1.663031773330052
 30
0.0
 10
2.591730203899765
 20
1.663031773330052
 30
0.0
 10
2.595728161416142
 20
1.660145957472954
 30
0.0
 10
2.595728161416142
 20
1.654374325758656
 30
0.0
 10
2.595728161416142
 20
1.649043715736853
 30
0.0
 10
2.590061991410948
 20
1.630827602352939
 30
0.0
 10
2.578739238828601
 20
1.599745160463145
 30
0.0
 10
2.567406898818212
 20
1.568643543717119
 30
0.0
 10
2.551971139582343
 20
1.529114577674035
 30
0.0
 10
2.532431961121094
 20
1.481148674905802
 30
0.0
 10
2.52531808947328
 20
1.463603681488671
 30
0.0
 10
2.518328854390701
 20
1.44999912101932
 30
0.0
 10
2.511445081017226
 20
1.440334993497749
 30
0.0
 10
2.50456130764375
 20
1.430680453404269
 30
0.0
 10
2.496958477162984
 20
1.423796680030793
 30
0.0
 10
2.488627002146839
 20
1.419683673377272
 30
0.0
 10
2.480295527130743
 20
1.415580254151842
 30
0.0
 10
2.470468413331521
 20
1.413518957111036
 30
0.0
 10
2.459145660749224
 20
1.413518957111036
 30
0.0
 10
2.44270322156323
 20
1.413518957111036
 30
0.0
 10
2.429443808505362
 20
1.417190942072112
 30
0.0
 10
2.419338659291346
 20
1.424515737138032
 30
0.0
 10
2.409223922649188
 20
1.431840532204003
 30
0.0
 10
2.404180935470322
 20
1.441504659725575
 30
0.0
 10
2.404180935470322
 20
1.453498532274655
 30
0.0
 10
2.404180935470322
 20
1.463939241472063
 30
0.0
 10
2.408284354695752
 20
1.472376178197212
 30
0.0
 10
2.416500780574653
 20
1.478818929878293
 30
0.0
 10
2.424717206453604
 20
1.485261681559324
 30
0.0
 10
2.435378426497259
 20
1.488473469971773
 30
0.0
 10
2.448484440705569
 20
1.488473469971773
 30
0.0
 10
2.460698824100897
 20
1.488473469971773
 30
0.0
 10
2.470688924177769
 20
1.485539716974118
 30
0.0
 10
2.478464328364276
 20
1.479653036122727
 30
0.0
 10
2.486239732550732
 20
1.473766355271285
 30
0.0
 10
2.490122640929965
 20
1.466153937362429
 30
0.0
 10
2.490122640929965
 20
1.456825369824249
 30
0.0
 10
2.490122640929965
 20
1.449721085604526
 30
0.0
 10
2.487735371333858
 20
1.444227489305073
 30
0.0
 10
2.482960832141644
 20
1.440334993497749
 30
0.0
 10
2.478186292949431
 20
1.436452085118566
 30
0.0
 10
2.471465505853605
 20
1.434505837214904
 30
0.0
 10
2.46280805828221
 20
1.434505837214904
 30
0.0
 10
2.462357449161674
 20
1.433623793830015
 30
0.0
 10
2.462146525743517
 20
1.432626701307931
 30
0.0
 10
2.462146525743517
 20
1.431514559648703
 30
0.0
 10
2.462146525743517
 20
1.428408232945357
 30
0.0
 10
2.464696781617224
 20
1.426845482165592
 30
0.0
 10
2.469806880792829
 20
1.426845482165592
 30
0.0
 10
2.478464328364276
 20
1.426845482165592
 30
0.0
 10
2.485683661721143
 20
1.429798410019379
 30
0.0
 10
2.49145529343539
 20
1.43567550344273
 30
0.0
 10
2.497226925149688
 20
1.441562184294172
 30
0.0
 10
2.500122328434928
 20
1.448944503928689
 30
0.0
 10
2.500122328434928
 20
1.457832049774424
 30
0.0
 10
2.500122328434928
 20
1.468272758971832
 30
0.0
 10
2.496450343473851
 20
1.476872681974631
 30
0.0
 10
2.489125548407881
 20
1.483641406210962
 30
0.0
 10
2.481800753341961
 20
1.490419717875385
 30
0.0
 10
2.471139533298305
 20
1.495021683361907
 30
0.0
 10
2.457141888276965
 20
1.497466477526561
 30
0.0
 10
2.449155560672352
 20
1.498799130031987
 30
0.0
 10
2.443930412359603
 20
1.500582391657998
 30
0.0
 10
2.441485618194899
 20
1.502797087548364
 30
0.0
 10
2.439040824030245
 20
1.50502137086682
 30
0.0
 10
2.436490568156488
 20
1.509901371768087
 30
0.0
 10
2.433825263145586
 20
1.517456265108346
 30
0.0
 10
2.433825263145586
 20
1.517456265108346
 30
0.0
 10
2.390518850432373
 20
1.634048978193479
 30
0.0
 10
2.390518850432373
 20
1.634048978193479
 30
0.0
  0
HATCH
  5
57
330
47
100
AcDbEntity
  8
_U+5F6B_U+523B_U+30D1_U+30B9
 62
     7
420
 16777215
100
AcDbHatch
 10
0.0
 20
0.0
 30
0.0
210
0.0
220
0.0
230
1.0
  2
SOLID
 70
     1
 71
     0
 91
        1
 92
        1
 93
        1
 72
     4
 94
        3
 73
     0
 74
     1
 95
      134
 96
      130
 40
0.0
 40
0.0
 40
0.0
 40
0.0
 40
1.0
 40
1.0
 40
1.0
 40
2.0
 40
2.0
 40
2.0
 40
3.0
 40
3.0
 40
3.0
 40
4.0
 40
4.0
 40
4.0
 40
5.0
 40
5.0
 40
5.0
 40
6.0
 40
6.0
 40
6.0
 40
7.0
 40
7.0
 40
7.0
 40
8.0
 40
8.0
 40
8.0
 40
9.0
 40
9.0
 40
9.0
 40
10.0
 40
10.0
 40
10.0
 40
11.0
 40
11.0
 40
11.0
 40
12.0
 40
12.0
 40
12.0
 40
13.0
 40
13.0
 40
13.0
 40
14.0
 40
14.0
 40
14.0
 40
15.0
 40
15.0
 40
15.0
 40
16.0
 40
16.0
 40
16.0
 40
17.0
 40
17.0
 40
17.0
 40
18.0
 40
18.0
 40
18.0
 40
19.0
 40
19.0
 40
19.0
 40
20.0
 40
20.0
 40
20.0
 40
21.0
 40
21.0
 40
21.0
 40
22.0
 40
22.0
 40
22.0
 40
23.0
 40
23.0
 40
23.0
 40
24.0
 40
24.0
 40
24.0
 40
25.0
 40
25.0
 40
25.0
 40
26.0
 40
26.0
 40
26.0
 40
27.0
 40
27.0
 40
27.0
 40
28.0
 40
28.0
 40
28.0
 40
29.0
 40
29.0
 40
29.0
 40
30.0
 40
30.0
 40
30.0
 40
31.0
 40
31.0
 40
31.0
 40
32.0
 40
32.0
 40
32.0
 40
33.0
 40
33.0
 40
33.0
 40
34.0
 40
34.0
 40
34.0
 40
35.0
 40
35.0
 40
35.0
 40
36.0
 40
36.0
 40
36.0
 40
37.0
 40
37.0
 40
37.0
 40
38.0
 40
38.0
 40
38.0
 40
39.0
 40
39.0
 40
39.0
 40
40.0
 40
40.0
 40
40.0
 40
41.0
 40
41.0
 40
41.0
 40
42.0
 40
42.0
 40
42.0
 40
43.0
 40
43.0
 40
43.0
 40
43.0
 10
2.390518850432373
 20
1.634048978193479
 10
2.389186197926897
 20
1.637826424863609
 10
2.38735499916043
 20
1.640932751566955
 10
2.38502525413292
 20
1.643377545731659
 10
2.382695509105361
 20
1.645822339896313
 10
2.379196097850076
 20
1.648487644907265
 10
2.374527020366915
 20
1.651373460764363
 10
2.37231232447655
 20
1.652706113269839
 10
2.371200182817322
 20
1.654153814912459
 10
2.371200182817322
 20
1.655706978264132
 10
2.371200182817322
 20
1.655706978264132
 10
2.371200182817322
 20
1.659704935780509
 10
2.371200182817322
 20
1.659704935780509
 10
2.371200182817322
 20
1.661919631670874
 10
2.372532835322798
 20
1.663031773330052
 10
2.375198140333699
 20
1.663031773330052
 10
2.375198140333699
 20
1.663031773330052
 10
2.427162000618308
 20
1.663031773330052
 10
2.427162000618308
 20
1.663031773330052
 10
2.442262199870735
 20
1.663031773330052
 10
2.453421966175433
 20
1.661871694530368
 10
2.4606412995323
 20
1.659541949502808
 10
2.467860632889217
 20
1.657202617047207
 10
2.473517215466321
 20
1.653147134962283
 10
2.477630222119842
 20
1.647375503247986
 10
2.481743228773363
 20
1.641603871533738
 10
2.485683661721143
 20
1.633051885671395
 10
2.489461108391272
 20
1.621729133089098
 10
2.489461108391272
 20
1.621729133089098
 10
2.521435181094097
 20
1.525116620157708
 10
2.521435181094097
 20
1.525116620157708
 10
2.522547322753326
 20
1.52400447849848
 10
2.523879975258751
 20
1.523457995096932
 10
2.525433138610424
 20
1.523457995096932
 10
2.528769563588159
 20
1.523457995096932
 10
2.530437776076977
 20
1.525337131003905
 10
2.530437776076977
 20
1.529114577674035
 10
2.530437776076977
 20
1.531338860992491
 10
2.529546145263945
 20
1.535001258525477
 10
2.527772471066075
 20
1.540111357701082
 10
2.527772471066075
 20
1.540111357701082
 10
2.497782995979277
 20
1.631719233165919
 10
2.497782995979277
 20
1.631719233165919
 10
2.494897180122178
 20
1.640597191583563
 10
2.492346924248421
 20
1.646378410725952
 10
2.490122640929965
 20
1.649043715736853
 10
2.488128455885847
 20
1.651488509901557
 10
2.486843740520877
 20
1.653089610393737
 10
2.486297257119329
 20
1.653875779497664
 10
2.485741186289741
 20
1.65465236117345
 10
2.485463150874895
 20
1.655591929126988
 10
2.485463150874895
 20
1.656704070786216
 10
2.485463150874895
 20
1.656704070786216
 10
2.485463150874895
 20
1.659704935780509
 10
2.485463150874895
 20
1.659704935780509
 10
2.485463150874895
 20
1.661919631670874
 10
2.486795803380371
 20
1.663031773330052
 10
2.489461108391272
 20
1.663031773330052
 10
2.489461108391272
 20
1.663031773330052
 10
2.583734288867062
 20
1.663031773330052
 10
2.583734288867062
 20
1.663031773330052
 10
2.591730203899765
 20
1.663031773330052
 10
2.595728161416142
 20
1.660145957472954
 10
2.595728161416142
 20
1.654374325758656
 10
2.595728161416142
 20
1.649043715736853
 10
2.590061991410948
 20
1.630827602352939
 10
2.578739238828601
 20
1.599745160463145
 10
2.567406898818212
 20
1.568643543717119
 10
2.551971139582343
 20
1.529114577674035
 10
2.532431961121094
 20
1.481148674905802
 10
2.52531808947328
 20
1.463603681488671
 10
2.518328854390701
 20
1.44999912101932
 10
2.511445081017226
 20
1.440334993497749
 10
2.50456130764375
 20
1.430680453404269
 10
2.496958477162984
 20
1.423796680030793
 10
2.488627002146839
 20
1.419683673377272
 10
2.480295527130743
 20
1.415580254151842
 10
2.470468413331521
 20
1.413518957111036
 10
2.459145660749224
 20
1.413518957111036
 10
2.44270322156323
 20
1.413518957111036
 10
2.429443808505362
 20
1.417190942072112
 10
2.419338659291346
 20
1.424515737138032
 10
2.409223922649188
 20
1.431840532204003
 10
2.404180935470322
 20
1.441504659725575
 10
2.404180935470322
 20
1.453498532274655
 10
2.404180935470322
 20
1.463939241472063
 10
2.408284354695752
 20
1.472376178197212
 10
2.416500780574653
 20
1.478818929878293
 10
2.424717206453604
 20
1.485261681559324
 10
2.435378426497259
 20
1.488473469971773
 10
2.448484440705569
 20
1.488473469971773
 10
2.460698824100897
 20
1.488473469971773
 10
2.470688924177769
 20
1.485539716974118
 10
2.478464328364276
 20
1.479653036122727
 10
2.486239732550732
 20
1.473766355271285
 10
2.490122640929965
 20
1.466153937362429
 10
2.490122640929965
 20
1.456825369824249
 10
2.490122640929965
 20
1.449721085604526
 10
2.487735371333858
 20
1.444227489305073
 10
2.482960832141644
 20
1.440334993497749
 10
2.478186292949431
 20
1.436452085118566
 10
2.471465505853605
 20
1.434505837214904
 10
2.46280805828221
 20
1.434505837214904
 10
2.462357449161674
 20
1.433623793830015
 10
2.462146525743517
 20
1.432626701307931
 10
2.462146525743517
 20
1.431514559648703
 10
2.462146525743517
 20
1.428408232945357
 10
2.464696781617224
 20
1.426845482165592
 10
2.469806880792829
 20
1.426845482165592
 10
2.478464328364276
 20
1.426845482165592
 10
2.485683661721143
 20
1.429798410019379
 10
2.49145529343539
 20
1.43567550344273
 10
2.497226925149688
 20
1.441562184294172
 10
2.500122328434928
 20
1.448944503928689
 10
2.500122328434928
 20
1.457832049774424
 10
2.500122328434928
 20
1.468272758971832
 10
2.496450343473851
 20
1.476872681974631
 10
2.489125548407881
 20
1.483641406210962
 10
2.481800753341961
 20
1.490419717875385
 10
2.471139533298305
 20
1.495021683361907
 10
2.457141888276965
 20
1.497466477526561
 10
2.449155560672352
 20
1.498799130031987
 10
2.443930412359603
 20
1.500582391657998
 10
2.441485618194899
 20
1.502797087548364
 10
2.439040824030245
 20
1.50502137086682
 10
2.436490568156488
 20
1.509901371768087
 10
2.433825263145586
 20
1.517456265108346
 10
2.433825263145586
 20
1.517456265108346
 10
2.390518850432373
 20
1.634048978193479
 10
2.390518850432373
 20
1.634048978193479
 97
        0
 97
        0
 75
     2
 76
     1
 98
        0
  0
ENDBLK
  5
4A
330
47
100
AcDbEntity
  8
0
100
AcDbBlockEnd
  0
BLOCK
  5
5A
330
58
100
AcDbEntity
  8
0
100
AcDbBlockBegin
  2
block 4
 70
     0
 10
0.0
 20
0.0
 30
0.0
  3
block 4
  1

  0
INSERT
  5
5D
330
58
100
AcDbEntity
  8
_U+5F6B_U+523B_U+30D1_U+30B9
100
AcDbBlockReference
  2
block 5
 10
0.0
 20
0.0
 30
0.0
  0
SPLINE
  5
69
330
58
100
AcDbEntity
  8
_U+5F6B_U+523B_U+30D1_U+30B9
370
     0
100
AcDbSpline
210
0.0
220
0.0
230
1.0
 70
    11
 71
     3
 72
    32
 73
    28
 74
     0
 42
0.0000000001
 43
0.0000000001
 12
1.0
 22
0.0
 32
0.0
 13
1.0
 23
0.0
 33
0.0
 40
0.0
 40
0.0
 40
0.0
 40
0.0
 40
1.0
 40
1.0
 40
1.0
 40
2.0
 40
2.0
 40
2.0
 40
3.0
 40
3.0
 40
3.0
 40
4.0
 40
4.0
 40
4.0
 40
5.0
 40
5.0
 40
5.0
 40
6.0
 40
6.0
 40
6.0
 40
7.0
 40
7.0
 40
7.0
 40
8.0
 40
8.0
 40
8.0
 40
9.0
 40
9.0
 40
9.0
 40
9.0
 10
2.163741285317883
 20
1.776059014860872
 30
0.0
 10
2.130877244519272
 20
1.776059014860872
 30
0.0
 10
2.095503980630383
 20
1.79822155826365
 30
0.0
 10
2.095503980630383
 20
1.846859796110872
 30
0.0
 10
2.095503980630383
 20
1.893165134652539
 30
0.0
 10
2.129690449814411
 20
1.917389309999761
 30
0.0
 10
2.163463236272744
 20
1.917389309999761
 30
0.0
 10
2.204994269258855
 20
1.917389309999761
 30
0.0
 10
2.227400953286633
 20
1.884552395937261
 30
0.0
 10
2.227400953286633
 20
1.853655043506706
 30
0.0
 10
2.227400953286633
 20
1.853655043506706
 30
0.0
 10
2.227400953286633
 20
1.843808038298372
 30
0.0
 10
2.227400953286633
 20
1.843808038298372
 30
0.0
 10
2.227400953286633
 20
1.843808038298372
 30
0.0
 10
2.115245462835244
 20
1.843808038298372
 30
0.0
 10
2.115245462835244
 20
1.843808038298372
 30
0.0
 10
2.116615363008855
 20
1.810645603402539
 30
0.0
 10
2.140276658581772
 20
1.795753025277539
 30
0.0
 10
2.163741285317883
 20
1.795753025277539
 30
0.0
 10
2.180736185491494
 20
1.795753025277539
 30
0.0
 10
2.201305033147744
 20
1.804460707569206
 30
0.0
 10
2.208073153807466
 20
1.828915460173372
 30
0.0
 10
2.208073153807466
 20
1.828915460173372
 30
0.0
 10
2.227048305717188
 20
1.823680000103928
 30
0.0
 10
2.227048305717188
 20
1.823680000103928
 30
0.0
 10
2.219045918564411
 20
1.794749336041428
 30
0.0
 10
2.194197828286633
 20
1.776059014860872
 30
0.0
 10
2.163741285317883
 20
1.776059014860872
 30
0.0
  0
SPLINE
  5
6A
330
58
100
AcDbEntity
  8
_U+5F6B_U+523B_U+30D1_U+30B9
370
     0
100
AcDbSpline
210
0.0
220
0.0
230
1.0
 70
    11
 71
     3
 72
    14
 73
    10
 74
     0
 42
0.0000000001
 43
0.0000000001
 12
1.0
 22
0.0
 32
0.0
 13
1.0
 23
0.0
 33
0.0
 40
0.0
 40
0.0
 40
0.0
 40
0.0
 40
1.0
 40
1.0
 40
1.0
 40
2.0
 40
2.0
 40
2.0
 40
3.0
 40
3.0
 40
3.0
 40
3.0
 10
2.11727318635955
 20
1.863502048715039
 30
0.0
 10
2.11727318635955
 20
1.863502048715039
 30
0.0
 10
2.206716817001911
 20
1.863502048715039
 30
0.0
 10
2.206716817001911
 20
1.863502048715039
 30
0.0
 10
2.203054707626911
 20
1.881365004444206
 30
0.0
 10
2.189179382106077
 20
1.897695299583094
 30
0.0
 10
2.163463236272744
 20
1.897695299583094
 30
0.0
 10
2.143626810491494
 20
1.897695299583094
 30
0.0
 10
2.123647969345661
 20
1.886993802187261
 30
0.0
 10
2.11727318635955
 20
1.863502048715039
 30
0.0
  0
HATCH
  5
6B
330
58
100
AcDbEntity
  8
_U+5F6B_U+523B_U+30D1_U+30B9
 62
     7
420
 16777215
100
AcDbHatch
 10
0.0
 20
0.0
 30
0.0
210
0.0
220
0.0
230
1.0
  2
SOLID
 70
     1
 71
     0
 91
        2
 92
        1
 93
        1
 72
     4
 94
        3
 73
     0
 74
     1
 95
       32
 96
       28
 40
0.0
 40
0.0
 40
0.0
 40
0.0
 40
1.0
 40
1.0
 40
1.0
 40
2.0
 40
2.0
 40
2.0
 40
3.0
 40
3.0
 40
3.0
 40
4.0
 40
4.0
 40
4.0
 40
5.0
 40
5.0
 40
5.0
 40
6.0
 40
6.0
 40
6.0
 40
7.0
 40
7.0
 40
7.0
 40
8.0
 40
8.0
 40
8.0
 40
9.0
 40
9.0
 40
9.0
 40
9.0
 10
2.163741285317883
 20
1.776059014860872
 10
2.130877244519272
 20
1.776059014860872
 10
2.095503980630383
 20
1.79822155826365
 10
2.095503980630383
 20
1.846859796110872
 10
2.095503980630383
 20
1.893165134652539
 10
2.129690449814411
 20
1.917389309999761
 10
2.163463236272744
 20
1.917389309999761
 10
2.204994269258855
 20
1.917389309999761
 10
2.227400953286633
 20
1.884552395937261
 10
2.227400953286633
 20
1.853655043506706
 10
2.227400953286633
 20
1.853655043506706
 10
2.227400953286633
 20
1.843808038298372
 10
2.227400953286633
 20
1.843808038298372
 10
2.227400953286633
 20
1.843808038298372
 10
2.115245462835244
 20
1.843808038298372
 10
2.115245462835244
 20
1.843808038298372
 10
2.116615363008855
 20
1.810645603402539
 10
2.140276658581772
 20
1.795753025277539
 10
2.163741285317883
 20
1.795753025277539
 10
2.180736185491494
 20
1.795753025277539
 10
2.201305033147744
 20
1.804460707569206
 10
2.208073153807466
 20
1.828915460173372
 10
2.208073153807466
 20
1.828915460173372
 10
2.227048305717188
 20
1.823680000103928
 10
2.227048305717188
 20
1.823680000103928
 10
2.219045918564411
 20
1.794749336041428
 10
2.194197828286633
 20
1.776059014860872
 10
2.163741285317883
 20
1.776059014860872
 97
        0
 97
        0
 92
        1
 93
        1
 72
     4
 94
        3
 73
     0
 74
     1
 95
       14
 96
       10
 40
0.0
 40
0.0
 40
0.0
 40
0.0
 40
1.0
 40
1.0
 40
1.0
 40
2.0
 40
2.0
 40
2.0
 40
3.0
 40
3.0
 40
3.0
 40
3.0
 10
2.11727318635955
 20
1.863502048715039
 10
2.11727318635955
 20
1.863502048715039
 10
2.206716817001911
 20
1.863502048715039
 10
2.206716817001911
 20
1.863502048715039
 10
2.203054707626911
 20
1.881365004444206
 10
2.189179382106077
 20
1.897695299583094
 10
2.163463236272744
 20
1.897695299583094
 10
2.143626810491494
 20
1.897695299583094
 10
2.123647969345661
 20
1.886993802187261
 10
2.11727318635955
 20
1.863502048715039
 97
        0
 97
        0
 75
     2
 76
     1
 98
        0
  0
ENDBLK
  5
5B
330
58
100
AcDbEntity
  8
0
100
AcDbBlockEnd
  0
BLOCK
  5
5E
330
5C
100
AcDbEntity
  8
0
100
AcDbBlockBegin
  2
block 5
 70
     0
 10
0.0
 20
0.0
 30
0.0
  3
block 5
  1

  0
SPLINE
  5
60
330
5C
100
AcDbEntity
  8
_U+5F6B_U+523B_U+30D1_U+30B9
370
     0
100
AcDbSpline
210
0.0
220
0.0
230
1.0
 70
    11
 71
     3
 72
    35
 73
    31
 74
     0
 42
0.0000000001
 43
0.0000000001
 12
1.0
 22
0.0
 32
0.0
 13
1.0
 23
0.0
 33
0.0
 40
0.0
 40
0.0
 40
0.0
 40
0.0
 40
1.0
 40
1.0
 40
1.0
 40
2.0
 40
2.0
 40
2.0
 40
3.0
 40
3.0
 40
3.0
 40
4.0
 40
4.0
 40
4.0
 40
5.0
 40
5.0
 40
5.0
 40
6.0
 40
6.0
 40
6.0
 40
7.0
 40
7.0
 40
7.0
 40
8.0
 40
8.0
 40
8.0
 40
9.0
 40
9.0
 40
9.0
 40
10.0
 40
10.0
 40
10.0
 40
10.0
 10
1.499081997123426
 20
1.776059014860872
 30
0.0
 10
1.466217956324815
 20
1.776059014860872
 30
0.0
 10
1.430844692435926
 20
1.79822155826365
 30
0.0
 10
1.430844692435926
 20
1.846873359478928
 30
0.0
 10
1.430844692435926
 20
1.893178698020594
 30
0.0
 10
1.465031161619954
 20
1.917402873367817
 30
0.0
 10
1.498797166394259
 20
1.917402873367817
 30
0.0
 10
1.529443596515787
 20
1.917402873367817
 30
0.0
 10
1.554406975422037
 20
1.898671862083094
 30
0.0
 10
1.562389017522731
 20
1.869686944548372
 30
0.0
 10
1.562389017522731
 20
1.869686944548372
 30
0.0
 10
1.543413865613009
 20
1.864451484478928
 30
0.0
 10
1.543413865613009
 20
1.864451484478928
 30
0.0
 10
1.536659308321342
 20
1.888974053923372
 30
0.0
 10
1.515934481932454
 20
1.89770886295115
 30
0.0
 10
1.498797166394259
 20
1.89770886295115
 30
0.0
 10
1.474769659883842
 20
1.89770886295115
 30
0.0
 10
1.450525139484537
 20
1.881988919374761
 30
0.0
 10
1.450525139484537
 20
1.846873359478928
 30
0.0
 10
1.450525139484537
 20
1.811554349062261
 30
0.0
 10
1.474912075248426
 20
1.795753025277539
 30
0.0
 10
1.499081997123426
 20
1.795753025277539
 30
0.0
 10
1.516076897297037
 20
1.795753025277539
 30
0.0
 10
1.536652526637315
 20
1.804460707569206
 30
0.0
 10
1.543413865613009
 20
1.828929023541428
 30
0.0
 10
1.543413865613009
 20
1.828929023541428
 30
0.0
 10
1.562389017522731
 20
1.823693563471983
 30
0.0
 10
1.562389017522731
 20
1.823693563471983
 30
0.0
 10
1.554386630369954
 20
1.794762899409483
 30
0.0
 10
1.529538540092176
 20
1.776059014860872
 30
0.0
 10
1.499081997123426
 20
1.776059014860872
 30
0.0
  0
HATCH
  5
61
330
5C
100
AcDbEntity
  8
_U+5F6B_U+523B_U+30D1_U+30B9
 62
     7
420
 16777215
100
AcDbHatch
 10
0.0
 20
0.0
 30
0.0
210
0.0
220
0.0
230
1.0
  2
SOLID
 70
     1
 71
     0
 91
        1
 92
        1
 93
        1
 72
     4
 94
        3
 73
     0
 74
     1
 95
       35
 96
       31
 40
0.0
 40
0.0
 40
0.0
 40
0.0
 40
1.0
 40
1.0
 40
1.0
 40
2.0
 40
2.0
 40
2.0
 40
3.0
 40
3.0
 40
3.0
 40
4.0
 40
4.0
 40
4.0
 40
5.0
 40
5.0
 40
5.0
 40
6.0
 40
6.0
 40
6.0
 40
7.0
 40
7.0
 40
7.0
 40
8.0
 40
8.0
 40
8.0
 40
9.0
 40
9.0
 40
9.0
 40
10.0
 40
10.0
 40
10.0
 40
10.0
 10
1.499081997123426
 20
1.776059014860872
 10
1.466217956324815
 20
1.776059014860872
 10
1.430844692435926
 20
1.79822155826365
 10
1.430844692435926
 20
1.846873359478928
 10
1.430844692435926
 20
1.893178698020594
 10
1.465031161619954
 20
1.917402873367817
 10
1.498797166394259
 20
1.917402873367817
 10
1.529443596515787
 20
1.917402873367817
 10
1.554406975422037
 20
1.898671862083094
 10
1.562389017522731
 20
1.869686944548372
 10
1.562389017522731
 20
1.869686944548372
 10
1.543413865613009
 20
1.864451484478928
 10
1.543413865613009
 20
1.864451484478928
 10
1.536659308321342
 20
1.888974053923372
 10
1.515934481932454
 20
1.89770886295115
 10
1.498797166394259
 20
1.89770886295115
 10
1.474769659883842
 20
1.89770886295115
 10
1.450525139484537
 20
1.881988919374761
 10
1.450525139484537
 20
1.846873359478928
 10
1.450525139484537
 20
1.811554349062261
 10
1.474912075248426
 20
1.795753025277539
 10
1.499081997123426
 20
1.795753025277539
 10
1.516076897297037
 20
1.795753025277539
 10
1.536652526637315
 20
1.804460707569206
 10
1.543413865613009
 20
1.828929023541428
 10
1.543413865613009
 20
1.828929023541428
 10
1.562389017522731
 20
1.823693563471983
 10
1.562389017522731
 20
1.823693563471983
 10
1.554386630369954
 20
1.794762899409483
 10
1.529538540092176
 20
1.776059014860872
 10
1.499081997123426
 20
1.776059014860872
 97
        0
 97
        0
 75
     2
 76
     1
 98
        0
  0
SPLINE
  5
62
330
5C
100
AcDbEntity
  8
_U+5F6B_U+523B_U+30D1_U+30B9
370
     0
100
AcDbSpline
210
0.0
220
0.0
230
1.0
 70
    11
 71
     3
 72
    23
 73
    19
 74
     0
 42
0.0000000001
 43
0.0000000001
 12
1.0
 22
0.0
 32
0.0
 13
1.0
 23
0.0
 33
0.0
 40
0.0
 40
0.0
 40
0.0
 40
0.0
 40
1.0
 40
1.0
 40
1.0
 40
2.0
 40
2.0
 40
2.0
 40
3.0
 40
3.0
 40
3.0
 40
4.0
 40
4.0
 40
4.0
 40
5.0
 40
5.0
 40
5.0
 40
6.0
 40
6.0
 40
6.0
 40
6.0
 10
1.691057908581759
 20
1.776059014860872
 30
0.0
 10
1.690739169432454
 20
1.776059014860872
 30
0.0
 10
1.69041364859912
 20
1.776059014860872
 30
0.0
 10
1.690094909449815
 20
1.776059014860872
 30
0.0
 10
1.655060729762315
 20
1.776398099062261
 30
0.0
 10
1.619606085665092
 20
1.800730781353928
 30
0.0
 10
1.619606085665092
 20
1.846574965381706
 30
0.0
 10
1.619606085665092
 20
1.89307019107615
 30
0.0
 10
1.655555792696342
 20
1.917402873367817
 30
0.0
 10
1.691071471949815
 20
1.917402873367817
 30
0.0
 10
1.726309102158148
 20
1.917402873367817
 30
0.0
 10
1.761980760144259
 20
1.89307019107615
 30
0.0
 10
1.761980760144259
 20
1.846574965381706
 30
0.0
 10
1.761980760144259
 20
1.826433363819206
 30
0.0
 10
1.755131259276204
 20
1.809031562603928
 30
0.0
 10
1.742164679415092
 20
1.796214179791428
 30
0.0
 10
1.729164191133842
 20
1.783369670242817
 30
0.0
 10
1.710582376897731
 20
1.776059014860872
 30
0.0
 10
1.691057908581759
 20
1.776059014860872
 30
0.0
  0
SPLINE
  5
63
330
5C
100
AcDbEntity
  8
_U+5F6B_U+523B_U+30D1_U+30B9
370
     0
100
AcDbSpline
210
0.0
220
0.0
230
1.0
 70
    11
 71
     3
 72
    23
 73
    19
 74
     0
 42
0.0000000001
 43
0.0000000001
 12
1.0
 22
0.0
 32
0.0
 13
1.0
 23
0.0
 33
0.0
 40
0.0
 40
0.0
 40
0.0
 40
0.0
 40
1.0
 40
1.0
 40
1.0
 40
2.0
 40
2.0
 40
2.0
 40
3.0
 40
3.0
 40
3.0
 40
4.0
 40
4.0
 40
4.0
 40
5.0
 40
5.0
 40
5.0
 40
6.0
 40
6.0
 40
6.0
 40
6.0
 10
1.691071471949815
 20
1.89770886295115
 30
0.0
 10
1.665294290960231
 20
1.89770886295115
 30
0.0
 10
1.639286532713704
 20
1.881907539166428
 30
0.0
 10
1.639286532713704
 20
1.846574965381706
 30
0.0
 10
1.639286532713704
 20
1.811798489687261
 30
0.0
 10
1.664914516654676
 20
1.795983602534483
 30
0.0
 10
1.690311923338704
 20
1.795753025277539
 30
0.0
 10
1.690311923338704
 20
1.795753025277539
 30
0.0
 10
1.690339050074815
 20
1.795753025277539
 30
0.0
 10
1.690339050074815
 20
1.795753025277539
 30
0.0
 10
1.704580586533148
 20
1.795224053923372
 30
0.0
 10
1.718835686359537
 20
1.800852851666428
 30
0.0
 10
1.728330043998426
 20
1.810225138992817
 30
0.0
 10
1.737464972383842
 20
1.819244778749761
 30
0.0
 10
1.742300313095648
 20
1.831818020937261
 30
0.0
 10
1.742300313095648
 20
1.846574965381706
 30
0.0
 10
1.742300313095648
 20
1.881704088645594
 30
0.0
 10
1.71574323844287
 20
1.89770886295115
 30
0.0
 10
1.691071471949815
 20
1.89770886295115
 30
0.0
  0
HATCH
  5
64
330
5C
100
AcDbEntity
  8
_U+5F6B_U+523B_U+30D1_U+30B9
 62
     7
420
 16777215
100
AcDbHatch
 10
0.0
 20
0.0
 30
0.0
210
0.0
220
0.0
230
1.0
  2
SOLID
 70
     1
 71
     0
 91
        2
 92
        1
 93
        1
 72
     4
 94
        3
 73
     0
 74
     1
 95
       23
 96
       19
 40
0.0
 40
0.0
 40
0.0
 40
0.0
 40
1.0
 40
1.0
 40
1.0
 40
2.0
 40
2.0
 40
2.0
 40
3.0
 40
3.0
 40
3.0
 40
4.0
 40
4.0
 40
4.0
 40
5.0
 40
5.0
 40
5.0
 40
6.0
 40
6.0
 40
6.0
 40
6.0
 10
1.691057908581759
 20
1.776059014860872
 10
1.690739169432454
 20
1.776059014860872
 10
1.69041364859912
 20
1.776059014860872
 10
1.690094909449815
 20
1.776059014860872
 10
1.655060729762315
 20
1.776398099062261
 10
1.619606085665092
 20
1.800730781353928
 10
1.619606085665092
 20
1.846574965381706
 10
1.619606085665092
 20
1.89307019107615
 10
1.655555792696342
 20
1.917402873367817
 10
1.691071471949815
 20
1.917402873367817
 10
1.726309102158148
 20
1.917402873367817
 10
1.761980760144259
 20
1.89307019107615
 10
1.761980760144259
 20
1.846574965381706
 10
1.761980760144259
 20
1.826433363819206
 10
1.755131259276204
 20
1.809031562603928
 10
1.742164679415092
 20
1.796214179791428
 10
1.729164191133842
 20
1.783369670242817
 10
1.710582376897731
 20
1.776059014860872
 10
1.691057908581759
 20
1.776059014860872
 97
        0
 97
        0
 92
        1
 93
        1
 72
     4
 94
        3
 73
     0
 74
     1
 95
       23
 96
       19
 40
0.0
 40
0.0
 40
0.0
 40
0.0
 40
1.0
 40
1.0
 40
1.0
 40
2.0
 40
2.0
 40
2.0
 40
3.0
 40
3.0
 40
3.0
 40
4.0
 40
4.0
 40
4.0
 40
5.0
 40
5.0
 40
5.0
 40
6.0
 40
6.0
 40
6.0
 40
6.0
 10
1.691071471949815
 20
1.89770886295115
 10
1.665294290960231
 20
1.89770886295115
 10
1.639286532713704
 20
1.881907539166428
 10
1.639286532713704
 20
1.846574965381706
 10
1.639286532713704
 20
1.811798489687261
 10
1.664914516654676
 20
1.795983602534483
 10
1.690311923338704
 20
1.795753025277539
 10
1.690311923338704
 20
1.795753025277539
 10
1.690339050074815
 20
1.795753025277539
 10
1.690339050074815
 20
1.795753025277539
 10
1.704580586533148
 20
1.795224053923372
 10
1.718835686359537
 20
1.800852851666428
 10
1.728330043998426
 20
1.810225138992817
 10
1.737464972383842
 20
1.819244778749761
 10
1.742300313095648
 20
1.831818020937261
 10
1.742300313095648
 20
1.846574965381706
 10
1.742300313095648
 20
1.881704088645594
 10
1.71574323844287
 20
1.89770886295115
 10
1.691071471949815
 20
1.89770886295115
 97
        0
 97
        0
 75
     2
 76
     1
 98
        0
  0
SPLINE
  5
65
330
5C
100
AcDbEntity
  8
_U+5F6B_U+523B_U+30D1_U+30B9
370
     0
100
AcDbSpline
210
0.0
220
0.0
230
1.0
 70
    11
 71
     3
 72
    29
 73
    25
 74
     0
 42
0.0000000001
 43
0.0000000001
 12
1.0
 22
0.0
 32
0.0
 13
1.0
 23
0.0
 33
0.0
 40
0.0
 40
0.0
 40
0.0
 40
0.0
 40
1.0
 40
1.0
 40
1.0
 40
2.0
 40
2.0
 40
2.0
 40
3.0
 40
3.0
 40
3.0
 40
4.0
 40
4.0
 40
4.0
 40
5.0
 40
5.0
 40
5.0
 40
6.0
 40
6.0
 40
6.0
 40
7.0
 40
7.0
 40
7.0
 40
8.0
 40
8.0
 40
8.0
 40
8.0
 10
1.847192619953287
 20
1.783410360346983
 30
0.0
 10
1.847192619953287
 20
1.783410360346983
 30
0.0
 10
1.827512172904676
 20
1.783410360346983
 30
0.0
 10
1.827512172904676
 20
1.783410360346983
 30
0.0
 10
1.827512172904676
 20
1.783410360346983
 30
0.0
 10
1.827512172904676
 20
1.853872057395594
 30
0.0
 10
1.827512172904676
 20
1.853872057395594
 30
0.0
 10
1.827512172904676
 20
1.874813897673372
 30
0.0
 10
1.836789516654676
 20
1.893748359478928
 30
0.0
 10
1.852963833060926
 20
1.905846883784483
 30
0.0
 10
1.868887227158148
 20
1.917741957569206
 30
0.0
 10
1.889252624293565
 20
1.921227743159483
 30
0.0
 10
1.90885847281787
 20
1.915449748367817
 30
0.0
 10
1.90885847281787
 20
1.915449748367817
 30
0.0
 10
1.903283928547037
 20
1.896569540034483
 30
0.0
 10
1.903283928547037
 20
1.896569540034483
 30
0.0
 10
1.889679870387315
 20
1.900624987083094
 30
0.0
 10
1.875635002765787
 20
1.898224270937261
 30
0.0
 10
1.864743618217176
 20
1.890072686735872
 30
0.0
 10
1.853594529675509
 20
1.881744778749761
 30
0.0
 10
1.847192619953287
 20
1.868547621631706
 30
0.0
 10
1.847192619953287
 20
1.853872057395594
 30
0.0
 10
1.847192619953287
 20
1.853872057395594
 30
0.0
 10
1.847192619953287
 20
1.783410360346983
 30
0.0
 10
1.847192619953287
 20
1.783410360346983
 30
0.0
  0
HATCH
  5
66
330
5C
100
AcDbEntity
  8
_U+5F6B_U+523B_U+30D1_U+30B9
 62
     7
420
 16777215
100
AcDbHatch
 10
0.0
 20
0.0
 30
0.0
210
0.0
220
0.0
230
1.0
  2
SOLID
 70
     1
 71
     0
 91
        1
 92
        1
 93
        1
 72
     4
 94
        3
 73
     0
 74
     1
 95
       29
 96
       25
 40
0.0
 40
0.0
 40
0.0
 40
0.0
 40
1.0
 40
1.0
 40
1.0
 40
2.0
 40
2.0
 40
2.0
 40
3.0
 40
3.0
 40
3.0
 40
4.0
 40
4.0
 40
4.0
 40
5.0
 40
5.0
 40
5.0
 40
6.0
 40
6.0
 40
6.0
 40
7.0
 40
7.0
 40
7.0
 40
8.0
 40
8.0
 40
8.0
 40
8.0
 10
1.847192619953287
 20
1.783410360346983
 10
1.847192619953287
 20
1.783410360346983
 10
1.827512172904676
 20
1.783410360346983
 10
1.827512172904676
 20
1.783410360346983
 10
1.827512172904676
 20
1.783410360346983
 10
1.827512172904676
 20
1.853872057395594
 10
1.827512172904676
 20
1.853872057395594
 10
1.827512172904676
 20
1.874813897673372
 10
1.836789516654676
 20
1.893748359478928
 10
1.852963833060926
 20
1.905846883784483
 10
1.868887227158148
 20
1.917741957569206
 10
1.889252624293565
 20
1.921227743159483
 10
1.90885847281787
 20
1.915449748367817
 10
1.90885847281787
 20
1.915449748367817
 10
1.903283928547037
 20
1.896569540034483
 10
1.903283928547037
 20
1.896569540034483
 10
1.889679870387315
 20
1.900624987083094
 10
1.875635002765787
 20
1.898224270937261
 10
1.864743618217176
 20
1.890072686735872
 10
1.853594529675509
 20
1.881744778749761
 10
1.847192619953287
 20
1.868547621631706
 10
1.847192619953287
 20
1.853872057395594
 10
1.847192619953287
 20
1.853872057395594
 10
1.847192619953287
 20
1.783410360346983
 10
1.847192619953287
 20
1.783410360346983
 97
        0
 97
        0
 75
     2
 76
     1
 98
        0
  0
SPLINE
  5
67
330
5C
100
AcDbEntity
  8
_U+5F6B_U+523B_U+30D1_U+30B9
370
     0
100
AcDbSpline
210
0.0
220
0.0
230
1.0
 70
    11
 71
     3
 72
    41
 73
    37
 74
     0
 42
0.0000000001
 43
0.0000000001
 12
1.0
 22
0.0
 32
0.0
 13
1.0
 23
0.0
 33
0.0
 40
0.0
 40
0.0
 40
0.0
 40
0.0
 40
1.0
 40
1.0
 40
1.0
 40
2.0
 40
2.0
 40
2.0
 40
3.0
 40
3.0
 40
3.0
 40
4.0
 40
4.0
 40
4.0
 40
5.0
 40
5.0
 40
5.0
 40
6.0
 40
6.0
 40
6.0
 40
7.0
 40
7.0
 40
7.0
 40
8.0
 40
8.0
 40
8.0
 40
9.0
 40
9.0
 40
9.0
 40
10.0
 40
10.0
 40
10.0
 40
11.0
 40
11.0
 40
11.0
 40
12.0
 40
12.0
 40
12.0
 40
12.0
 10
2.0633791433908
 20
1.783410360346983
 30
0.0
 10
2.0633791433908
 20
1.783410360346983
 30
0.0
 10
2.043698696342188
 20
1.783410360346983
 30
0.0
 10
2.043698696342188
 20
1.783410360346983
 30
0.0
 10
2.043698696342188
 20
1.783410360346983
 30
0.0
 10
2.043698696342188
 20
1.852841241423372
 30
0.0
 10
2.043698696342188
 20
1.852841241423372
 30
0.0
 10
2.043698696342188
 20
1.88574597232615
 30
0.0
 10
2.034902852158161
 20
1.897003567812261
 30
0.0
 10
2.008847622123438
 20
1.897424032221983
 30
0.0
 10
1.996735534449827
 20
1.897939440208094
 30
0.0
 10
1.986773240613022
 20
1.89416882388865
 30
0.0
 10
1.979496493651204
 20
1.887034492291428
 30
0.0
 10
1.971677211967176
 20
1.879357625971983
 30
0.0
 10
1.967370842609537
 20
1.867693129444206
 30
0.0
 10
1.967370842609537
 20
1.854170451492817
 30
0.0
 10
1.967370842609537
 20
1.854170451492817
 30
0.0
 10
1.967370842609537
 20
1.783410360346983
 30
0.0
 10
1.967370842609537
 20
1.783410360346983
 30
0.0
 10
1.967370842609537
 20
1.783410360346983
 30
0.0
 10
1.947690395560926
 20
1.783410360346983
 30
0.0
 10
1.947690395560926
 20
1.783410360346983
 30
0.0
 10
1.947690395560926
 20
1.783410360346983
 30
0.0
 10
1.947690395560926
 20
1.854170451492817
 30
0.0
 10
1.947690395560926
 20
1.854170451492817
 30
0.0
 10
1.947690395560926
 20
1.873023533090039
 30
0.0
 10
1.95408552359912
 20
1.889679349062261
 30
0.0
 10
1.965709330022731
 20
1.901086141596983
 30
0.0
 10
1.976743129935926
 20
1.911909709305317
 30
0.0
 10
1.991927320474133
 20
1.917212986215039
 30
0.0
 10
2.009200269692883
 20
1.91711804263865
 30
0.0
 10
2.0577639090158
 20
1.916317803923372
 30
0.0
 10
2.0633791433908
 20
1.880049357742817
 30
0.0
 10
2.0633791433908
 20
1.852841241423372
 30
0.0
 10
2.0633791433908
 20
1.852841241423372
 30
0.0
 10
2.0633791433908
 20
1.783410360346983
 30
0.0
 10
2.0633791433908
 20
1.783410360346983
 30
0.0
  0
HATCH
  5
68
330
5C
100
AcDbEntity
  8
_U+5F6B_U+523B_U+30D1_U+30B9
 62
     7
420
 16777215
100
AcDbHatch
 10
0.0
 20
0.0
 30
0.0
210
0.0
220
0.0
230
1.0
  2
SOLID
 70
     1
 71
     0
 91
        1
 92
        1
 93
        1
 72
     4
 94
        3
 73
     0
 74
     1
 95
       41
 96
       37
 40
0.0
 40
0.0
 40
0.0
 40
0.0
 40
1.0
 40
1.0
 40
1.0
 40
2.0
 40
2.0
 40
2.0
 40
3.0
 40
3.0
 40
3.0
 40
4.0
 40
4.0
 40
4.0
 40
5.0
 40
5.0
 40
5.0
 40
6.0
 40
6.0
 40
6.0
 40
7.0
 40
7.0
 40
7.0
 40
8.0
 40
8.0
 40
8.0
 40
9.0
 40
9.0
 40
9.0
 40
10.0
 40
10.0
 40
10.0
 40
11.0
 40
11.0
 40
11.0
 40
12.0
 40
12.0
 40
12.0
 40
12.0
 10
2.0633791433908
 20
1.783410360346983
 10
2.0633791433908
 20
1.783410360346983
 10
2.043698696342188
 20
1.783410360346983
 10
2.043698696342188
 20
1.783410360346983
 10
2.043698696342188
 20
1.783410360346983
 10
2.043698696342188
 20
1.852841241423372
 10
2.043698696342188
 20
1.852841241423372
 10
2.043698696342188
 20
1.88574597232615
 10
2.034902852158161
 20
1.897003567812261
 10
2.008847622123438
 20
1.897424032221983
 10
1.996735534449827
 20
1.897939440208094
 10
1.986773240613022
 20
1.89416882388865
 10
1.979496493651204
 20
1.887034492291428
 10
1.971677211967176
 20
1.879357625971983
 10
1.967370842609537
 20
1.867693129444206
 10
1.967370842609537
 20
1.854170451492817
 10
1.967370842609537
 20
1.854170451492817
 10
1.967370842609537
 20
1.783410360346983
 10
1.967370842609537
 20
1.783410360346983
 10
1.967370842609537
 20
1.783410360346983
 10
1.947690395560926
 20
1.783410360346983
 10
1.947690395560926
 20
1.783410360346983
 10
1.947690395560926
 20
1.783410360346983
 10
1.947690395560926
 20
1.854170451492817
 10
1.947690395560926
 20
1.854170451492817
 10
1.947690395560926
 20
1.873023533090039
 10
1.95408552359912
 20
1.889679349062261
 10
1.965709330022731
 20
1.901086141596983
 10
1.976743129935926
 20
1.911909709305317
 10
1.991927320474133
 20
1.917212986215039
 10
2.009200269692883
 20
1.91711804263865
 10
2.0577639090158
 20
1.916317803923372
 10
2.0633791433908
 20
1.880049357742817
 10
2.0633791433908
 20
1.852841241423372
 10
2.0633791433908
 20
1.852841241423372
 10
2.0633791433908
 20
1.783410360346983
 10
2.0633791433908
 20
1.783410360346983
 97
        0
 97
        0
 75
     2
 76
     1
 98
        0
  0
ENDBLK
  5
5F
330
5C
100
AcDbEntity
  8
0
100
AcDbBlockEnd
  0
BLOCK
  5
6E
330
6C
100
AcDbEntity
  8
0
100
AcDbBlockBegin
  2
block 6
 70
     0
 10
0.0
 20
0.0
 30
0.0
  3
block 6
  1

  0
SPLINE
  5
70
330
6C
100
AcDbEntity
  8
_U+5F6B_U+523B_U+30D1_U+30B9
370
     0
100
AcDbSpline
210
0.0
220
0.0
230
1.0
 70
    11
 71
     3
 72
   107
 73
   103
 74
     0
 42
0.0000000001
 43
0.0000000001
 12
1.0
 22
0.0
 32
0.0
 13
1.0
 23
0.0
 33
0.0
 40
0.0
 40
0.0
 40
0.0
 40
0.0
 40
1.0
 40
1.0
 40
1.0
 40
2.0
 40
2.0
 40
2.0
 40
3.0
 40
3.0
 40
3.0
 40
4.0
 40
4.0
 40
4.0
 40
5.0
 40
5.0
 40
5.0
 40
6.0
 40
6.0
 40
6.0
 40
7.0
 40
7.0
 40
7.0
 40
8.0
 40
8.0
 40
8.0
 40
9.0
 40
9.0
 40
9.0
 40
10.0
 40
10.0
 40
10.0
 40
11.0
 40
11.0
 40
11.0
 40
12.0
 40
12.0
 40
12.0
 40
13.0
 40
13.0
 40
13.0
 40
14.0
 40
14.0
 40
14.0
 40
15.0
 40
15.0
 40
15.0
 40
16.0
 40
16.0
 40
16.0
 40
17.0
 40
17.0
 40
17.0
 40
18.0
 40
18.0
 40
18.0
 40
19.0
 40
19.0
 40
19.0
 40
20.0
 40
20.0
 40
20.0
 40
21.0
 40
21.0
 40
21.0
 40
22.0
 40
22.0
 40
22.0
 40
23.0
 40
23.0
 40
23.0
 40
24.0
 40
24.0
 40
24.0
 40
25.0
 40
25.0
 40
25.0
 40
26.0
 40
26.0
 40
26.0
 40
27.0
 40
27.0
 40
27.0
 40
28.0
 40
28.0
 40
28.0
 40
29.0
 40
29.0
 40
29.0
 40
30.0
 40
30.0
 40
30.0
 40
31.0
 40
31.0
 40
31.0
 40
32.0
 40
32.0
 40
32.0
 40
33.0
 40
33.0
 40
33.0
 40
34.0
 40
34.0
 40
34.0
 40
34.0
 10
-1.867150241836245
 20
-2.307926818981564
 30
0.0
 10
-1.866491789242294
 20
-2.336311209536562
 30
0.0
 10
-1.893019544396945
 20
-2.423854962903331
 30
0.0
 10
-1.959487335260873
 20
-2.423854962903331
 30
0.0
 10
-1.978470130849044
 20
-2.423854962903331
 30
0.0
 10
-1.996611824025169
 20
-2.414725211748924
 30
0.0
 10
-2.00683686525498
 20
-2.39933513808147
 30
0.0
 10
-2.016893838878281
 20
-2.384167558659884
 30
0.0
 10
-2.02077487286902
 20
-2.365522055931301
 30
0.0
 10
-2.02077487286902
 20
-2.344361804682674
 30
0.0
 10
-2.020623273520048
 20
-2.298292041080306
 30
0.0
 10
-2.00212937061153
 20
-2.237848650047883
 30
0.0
 10
-1.963521460908497
 20
-2.169334267972873
 30
0.0
 10
-1.92590777504832
 20
-2.103117620608651
 30
0.0
 10
-1.905101221027103
 20
-2.045373793886761
 30
0.0
 10
-1.905438514357734
 20
-2.00215184536392
 30
0.0
 10
-1.905438514357734
 20
-1.979404028193408
 30
0.0
 10
-1.910652862246214
 20
-1.96091895335932
 30
0.0
 10
-1.92138475672108
 20
-1.944987627397722
 30
0.0
 10
-1.932302345177605
 20
-1.929127839281616
 30
0.0
 10
-1.949430331863659
 20
-1.915179177094842
 30
0.0
 10
-1.975602802305275
 20
-1.903855801625898
 30
0.0
 10
-1.994753970959361
 20
-1.895638995145393
 30
0.0
 10
-2.013214996900691
 20
-1.891943684910176
 30
0.0
 10
-2.030663838433737
 20
-1.891943684910176
 30
0.0
 10
-2.068445562126524
 20
-1.891943684910176
 30
0.0
 10
-2.104522249767923
 20
-1.908894805689089
 30
0.0
 10
-2.136600124059972
 20
-1.939015282764432
 30
0.0
 10
-2.168847862682722
 20
-1.969159504316192
 30
0.0
 10
-2.196539706011006
 20
-2.012232897653828
 30
0.0
 10
-2.215860099346173
 20
-2.0613288643246
 30
0.0
 10
-2.231115012148317
 20
-2.0997702582769
 30
0.0
 10
-2.253962677885978
 20
-2.180184884829461
 30
0.0
 10
-2.253962677885978
 20
-2.262959955863683
 30
0.0
 10
-2.253962677885978
 20
-2.296436927761861
 30
0.0
 10
-2.249912113754716
 20
-2.330083155158011
 30
0.0
 10
-2.241189976110971
 20
-2.361824040535718
 30
0.0
 10
-2.325628378154761
 20
-2.243045037370848
 30
0.0
 10
-2.282666705622558
 20
-2.082997829903282
 30
0.0
 10
-2.247229292344223
 20
-2.008950680423797
 30
0.0
 10
-2.260661968795072
 20
-2.003567077037233
 30
0.0
 10
-2.274448353792625
 20
-2.000799323461352
 30
0.0
 10
-2.288521522627535
 20
-2.000799323461352
 30
0.0
 10
-2.289365996531615
 20
-2.000799323461352
 30
0.0
 10
-2.290226581590913
 20
-2.000799323461352
 30
0.0
 10
-2.290883512103101
 20
-2.000885473292176
 30
0.0
 10
-2.333171815639515
 20
-2.001821858025904
 30
0.0
 10
-2.372808327451669
 20
-2.027664676363
 30
0.0
 10
-2.403031413624376
 20
-2.073240981040398
 30
0.0
 10
-2.433085223516173
 20
-2.118736919797811
 30
0.0
 10
-2.452219618453303
 20
-2.182875277448122
 30
0.0
 10
-2.452051580620668
 20
-2.254047557992787
 30
0.0
 10
-2.452051580620668
 20
-2.257067977150276
 30
0.0
 10
-2.452051580620668
 20
-2.260004986224304
 30
0.0
 10
-2.452051580620668
 20
-2.263025405381843
 30
0.0
 10
-2.451055834696035
 20
-2.314490949025286
 30
0.0
 10
-2.439952247841423
 20
-2.361996340197417
 30
0.0
 10
-2.422319234408557
 20
-2.401615216643272
 30
0.0
 10
-2.464133238775124
 20
-2.3533545335793
 30
0.0
 10
-2.509120820681346
 20
-2.268899727946089
 30
0.0
 10
-2.487469797781917
 20
-2.147278998028999
 30
0.0
 10
-2.493005322819954
 20
-2.14592921587372
 30
0.0
 10
-2.498372792139182
 20
-2.145254324796193
 30
0.0
 10
-2.503754873443907
 20
-2.145254324796193
 30
0.0
 10
-2.503754873443907
 20
-2.145254324796193
 30
0.0
 10
-2.504108605258125
 20
-2.145254324796193
 30
0.0
 10
-2.504108605258125
 20
-2.145254324796193
 30
0.0
 10
-2.507450183679035
 20
-2.145254324796193
 30
0.0
 10
-2.510638640669236
 20
-2.145432712785098
 30
0.0
 10
-2.513997875239182
 20
-2.146012321540992
 30
0.0
 10
-2.538162446164923
 20
-2.149472926759927
 30
0.0
 10
-2.559492291914782
 20
-2.16522586473252
 30
0.0
 10
-2.576129559423028
 20
-2.192266522495957
 30
0.0
 10
-2.592379000484319
 20
-2.219120042123046
 30
0.0
 10
-2.602470402930622
 20
-2.256479235903524
 30
0.0
 10
-2.602470402930622
 20
-2.298039375498699
 30
0.0
 10
-2.602470402930622
 20
-2.310560933773887
 30
0.0
 10
-2.601625936936216
 20
-2.323385386330756
 30
0.0
 10
-2.599770838620101
 20
-2.336480734130419
 30
0.0
 10
-2.593071836908937
 20
-2.383475045548948
 30
0.0
 10
-2.574594083286077
 20
-2.424446443897371
 30
0.0
 10
-2.551086731009844
 20
-2.452643618388846
 30
0.0
 10
-2.527614723589901
 20
-2.481024964780242
 30
0.0
 10
-2.499890307710732
 20
-2.495790953606805
 30
0.0
 10
-2.473869101384682
 20
-2.495790953606805
 30
0.0
 10
-2.437099866516531
 20
-2.495790953606805
 30
0.0
 10
-2.405866138800168
 20
-2.474478763467586
 30
0.0
 10
-2.387590786431221
 20
-2.459290854099815
 30
0.0
 10
-2.357368959116128
 20
-2.496953550994502
 30
0.0
 10
-2.320110809454352
 20
-2.517795721730231
 30
0.0
 10
-2.2816545212143
 20
-2.517795721730231
 30
0.0
 10
-2.242032600604817
 20
-2.517795721730231
 30
0.0
 10
-2.201230762170831
 20
-2.494542573396504
 30
0.0
 10
-2.173032039767956
 20
-2.473313489462877
 30
0.0
 10
-2.153560072913403
 20
-2.490258521914509
 30
0.0
 10
-2.129884699083605
 20
-2.504852242375339
 30
0.0
 10
-2.100675312526417
 20
-2.516276684076855
 30
0.0
 10
-2.075988999611241
 20
-2.525929422543615
 30
0.0
 10
-2.052853051577434
 20
-2.530130063941972
 30
0.0
 10
-2.031187130162367
 20
-2.530130063941972
 30
0.0
 10
-1.82334411831203
 20
-2.530130063941972
 30
0.0
 10
-1.841635888755314
 20
-2.335467027614742
 30
0.0
 10
-1.867150241836245
 20
-2.307926818981564
 30
0.0
  0
HATCH
  5
71
330
6C
100
AcDbEntity
  8
_U+5F6B_U+523B_U+30D1_U+30B9
 62
     7
420
 16777215
100
AcDbHatch
 10
0.0
 20
0.0
 30
0.0
210
0.0
220
0.0
230
1.0
  2
SOLID
 70
     1
 71
     0
 91
        1
 92
        1
 93
        1
 72
     4
 94
        3
 73
     0
 74
     1
 95
      107
 96
      103
 40
0.0
 40
0.0
 40
0.0
 40
0.0
 40
1.0
 40
1.0
 40
1.0
 40
2.0
 40
2.0
 40
2.0
 40
3.0
 40
3.0
 40
3.0
 40
4.0
 40
4.0
 40
4.0
 40
5.0
 40
5.0
 40
5.0
 40
6.0
 40
6.0
 40
6.0
 40
7.0
 40
7.0
 40
7.0
 40
8.0
 40
8.0
 40
8.0
 40
9.0
 40
9.0
 40
9.0
 40
10.0
 40
10.0
 40
10.0
 40
11.0
 40
11.0
 40
11.0
 40
12.0
 40
12.0
 40
12.0
 40
13.0
 40
13.0
 40
13.0
 40
14.0
 40
14.0
 40
14.0
 40
15.0
 40
15.0
 40
15.0
 40
16.0
 40
16.0
 40
16.0
 40
17.0
 40
17.0
 40
17.0
 40
18.0
 40
18.0
 40
18.0
 40
19.0
 40
19.0
 40
19.0
 40
20.0
 40
20.0
 40
20.0
 40
21.0
 40
21.0
 40
21.0
 40
22.0
 40
22.0
 40
22.0
 40
23.0
 40
23.0
 40
23.0
 40
24.0
 40
24.0
 40
24.0
 40
25.0
 40
25.0
 40
25.0
 40
26.0
 40
26.0
 40
26.0
 40
27.0
 40
27.0
 40
27.0
 40
28.0
 40
28.0
 40
28.0
 40
29.0
 40
29.0
 40
29.0
 40
30.0
 40
30.0
 40
30.0
 40
31.0
 40
31.0
 40
31.0
 40
32.0
 40
32.0
 40
32.0
 40
33.0
 40
33.0
 40
33.0
 40
34.0
 40
34.0
 40
34.0
 40
34.0
 10
-1.867150241836245
 20
-2.307926818981564
 10
-1.866491789242294
 20
-2.336311209536562
 10
-1.893019544396945
 20
-2.423854962903331
 10
-1.959487335260873
 20
-2.423854962903331
 10
-1.978470130849044
 20
-2.423854962903331
 10
-1.996611824025169
 20
-2.414725211748924
 10
-2.00683686525498
 20
-2.39933513808147
 10
-2.016893838878281
 20
-2.384167558659884
 10
-2.02077487286902
 20
-2.365522055931301
 10
-2.02077487286902
 20
-2.344361804682674
 10
-2.020623273520048
 20
-2.298292041080306
 10
-2.00212937061153
 20
-2.237848650047883
 10
-1.963521460908497
 20
-2.169334267972873
 10
-1.92590777504832
 20
-2.103117620608651
 10
-1.905101221027103
 20
-2.045373793886761
 10
-1.905438514357734
 20
-2.00215184536392
 10
-1.905438514357734
 20
-1.979404028193408
 10
-1.910652862246214
 20
-1.96091895335932
 10
-1.92138475672108
 20
-1.944987627397722
 10
-1.932302345177605
 20
-1.929127839281616
 10
-1.949430331863659
 20
-1.915179177094842
 10
-1.975602802305275
 20
-1.903855801625898
 10
-1.994753970959361
 20
-1.895638995145393
 10
-2.013214996900691
 20
-1.891943684910176
 10
-2.030663838433737
 20
-1.891943684910176
 10
-2.068445562126524
 20
-1.891943684910176
 10
-2.104522249767923
 20
-1.908894805689089
 10
-2.136600124059972
 20
-1.939015282764432
 10
-2.168847862682722
 20
-1.969159504316192
 10
-2.196539706011006
 20
-2.012232897653828
 10
-2.215860099346173
 20
-2.0613288643246
 10
-2.231115012148317
 20
-2.0997702582769
 10
-2.253962677885978
 20
-2.180184884829461
 10
-2.253962677885978
 20
-2.262959955863683
 10
-2.253962677885978
 20
-2.296436927761861
 10
-2.249912113754716
 20
-2.330083155158011
 10
-2.241189976110971
 20
-2.361824040535718
 10
-2.325628378154761
 20
-2.243045037370848
 10
-2.282666705622558
 20
-2.082997829903282
 10
-2.247229292344223
 20
-2.008950680423797
 10
-2.260661968795072
 20
-2.003567077037233
 10
-2.274448353792625
 20
-2.000799323461352
 10
-2.288521522627535
 20
-2.000799323461352
 10
-2.289365996531615
 20
-2.000799323461352
 10
-2.290226581590913
 20
-2.000799323461352
 10
-2.290883512103101
 20
-2.000885473292176
 10
-2.333171815639515
 20
-2.001821858025904
 10
-2.372808327451669
 20
-2.027664676363
 10
-2.403031413624376
 20
-2.073240981040398
 10
-2.433085223516173
 20
-2.118736919797811
 10
-2.452219618453303
 20
-2.182875277448122
 10
-2.452051580620668
 20
-2.254047557992787
 10
-2.452051580620668
 20
-2.257067977150276
 10
-2.452051580620668
 20
-2.260004986224304
 10
-2.452051580620668
 20
-2.263025405381843
 10
-2.451055834696035
 20
-2.314490949025286
 10
-2.439952247841423
 20
-2.361996340197417
 10
-2.422319234408557
 20
-2.401615216643272
 10
-2.464133238775124
 20
-2.3533545335793
 10
-2.509120820681346
 20
-2.268899727946089
 10
-2.487469797781917
 20
-2.147278998028999
 10
-2.493005322819954
 20
-2.14592921587372
 10
-2.498372792139182
 20
-2.145254324796193
 10
-2.503754873443907
 20
-2.145254324796193
 10
-2.503754873443907
 20
-2.145254324796193
 10
-2.504108605258125
 20
-2.145254324796193
 10
-2.504108605258125
 20
-2.145254324796193
 10
-2.507450183679035
 20
-2.145254324796193
 10
-2.510638640669236
 20
-2.145432712785098
 10
-2.513997875239182
 20
-2.146012321540992
 10
-2.538162446164923
 20
-2.149472926759927
 10
-2.559492291914782
 20
-2.16522586473252
 10
-2.576129559423028
 20
-2.192266522495957
 10
-2.592379000484319
 20
-2.219120042123046
 10
-2.602470402930622
 20
-2.256479235903524
 10
-2.602470402930622
 20
-2.298039375498699
 10
-2.602470402930622
 20
-2.310560933773887
 10
-2.601625936936216
 20
-2.323385386330756
 10
-2.599770838620101
 20
-2.336480734130419
 10
-2.593071836908937
 20
-2.383475045548948
 10
-2.574594083286077
 20
-2.424446443897371
 10
-2.551086731009844
 20
-2.452643618388846
 10
-2.527614723589901
 20
-2.481024964780242
 10
-2.499890307710732
 20
-2.495790953606805
 10
-2.473869101384682
 20
-2.495790953606805
 10
-2.437099866516531
 20
-2.495790953606805
 10
-2.405866138800168
 20
-2.474478763467586
 10
-2.387590786431221
 20
-2.459290854099815
 10
-2.357368959116128
 20
-2.496953550994502
 10
-2.320110809454352
 20
-2.517795721730231
 10
-2.2816545212143
 20
-2.517795721730231
 10
-2.242032600604817
 20
-2.517795721730231
 10
-2.201230762170831
 20
-2.494542573396504
 10
-2.173032039767956
 20
-2.473313489462877
 10
-2.153560072913403
 20
-2.490258521914509
 10
-2.129884699083605
 20
-2.504852242375339
 10
-2.100675312526417
 20
-2.516276684076855
 10
-2.075988999611241
 20
-2.525929422543615
 10
-2.052853051577434
 20
-2.530130063941972
 10
-2.031187130162367
 20
-2.530130063941972
 10
-1.82334411831203
 20
-2.530130063941972
 10
-1.841635888755314
 20
-2.335467027614742
 10
-1.867150241836245
 20
-2.307926818981564
 97
        0
 97
        0
 75
     2
 76
     1
 98
        0
  0
INSERT
  5
73
330
6C
100
AcDbEntity
  8
_U+5F6B_U+523B_U+30D1_U+30B9
100
AcDbBlockReference
  2
block 7
 10
0.0
 20
0.0
 30
0.0
  0
INSERT
  5
84
330
6C
100
AcDbEntity
  8
_U+5F6B_U+523B_U+30D1_U+30B9
100
AcDbBlockReference
  2
block 8
 10
0.0
 20
0.0
 30
0.0
  0
ENDBLK
  5
6F
330
6C
100
AcDbEntity
  8
0
100
AcDbBlockEnd
  0
BLOCK
  5
74
330
72
100
AcDbEntity
  8
0
100
AcDbBlockBegin
  2
block 7
 70
     0
 10
0.0
 20
0.0
 30
0.0
  3
block 7
  1

  0
SPLINE
  5
76
330
72
100
AcDbEntity
  8
_U+5F6B_U+523B_U+30D1_U+30B9
370
     0
100
AcDbSpline
210
0.0
220
0.0
230
1.0
 70
    11
 71
     3
 72
   107
 73
   103
 74
     0
 42
0.0000000001
 43
0.0000000001
 12
1.0
 22
0.0
 32
0.0
 13
1.0
 23
0.0
 33
0.0
 40
0.0
 40
0.0
 40
0.0
 40
0.0
 40
1.0
 40
1.0
 40
1.0
 40
2.0
 40
2.0
 40
2.0
 40
3.0
 40
3.0
 40
3.0
 40
4.0
 40
4.0
 40
4.0
 40
5.0
 40
5.0
 40
5.0
 40
6.0
 40
6.0
 40
6.0
 40
7.0
 40
7.0
 40
7.0
 40
8.0
 40
8.0
 40
8.0
 40
9.0
 40
9.0
 40
9.0
 40
10.0
 40
10.0
 40
10.0
 40
11.0
 40
11.0
 40
11.0
 40
12.0
 40
12.0
 40
12.0
 40
13.0
 40
13.0
 40
13.0
 40
14.0
 40
14.0
 40
14.0
 40
15.0
 40
15.0
 40
15.0
 40
16.0
 40
16.0
 40
16.0
 40
17.0
 40
17.0
 40
17.0
 40
18.0
 40
18.0
 40
18.0
 40
19.0
 40
19.0
 40
19.0
 40
20.0
 40
20.0
 40
20.0
 40
21.0
 40
21.0
 40
21.0
 40
22.0
 40
22.0
 40
22.0
 40
23.0
 40
23.0
 40
23.0
 40
24.0
 40
24.0
 40
24.0
 40
25.0
 40
25.0
 40
25.0
 40
26.0
 40
26.0
 40
26.0
 40
27.0
 40
27.0
 40
27.0
 40
28.0
 40
28.0
 40
28.0
 40
29.0
 40
29.0
 40
29.0
 40
30.0
 40
30.0
 40
30.0
 40
31.0
 40
31.0
 40
31.0
 40
32.0
 40
32.0
 40
32.0
 40
33.0
 40
33.0
 40
33.0
 40
34.0
 40
34.0
 40
34.0
 40
34.0
 10
-1.648786361145843
 20
-2.271373858593405
 30
0.0
 10
-1.663225027859628
 20
-2.271373858593405
 30
0.0
 10
-1.675329155831807
 20
-2.276157985213735
 30
0.0
 10
-1.685098745062431
 20
-2.285697476170046
 30
0.0
 10
-1.694873128007101
 20
-2.295246554554448
 30
0.0
 10
-1.699757922622477
 20
-2.307019916257332
 30
0.0
 10
-1.699757922622477
 20
-2.321007973850556
 30
0.0
 10
-1.699757922622477
 20
-2.338552967267661
 30
0.0
 10
-1.693377489224026
 20
-2.352991633981446
 30
0.0
 10
-1.680602241285063
 20
-2.364314386563743
 30
0.0
 10
-1.66783178706012
 20
-2.375646726574157
 30
0.0
 10
-1.651451666156744
 20
-2.381303309151261
 30
0.0
 10
-1.63146667228898
 20
-2.381303309151261
 30
0.0
 10
-1.619698104300167
 20
-2.381303309151261
 30
0.0
 10
-1.608648593418618
 20
-2.379088613260895
 30
0.0
 10
-1.598318139644309
 20
-2.374640046623982
 30
0.0
 10
-1.587992479584096
 20
-2.370201067415185
 30
0.0
 10
-1.579498018290337
 20
-2.364103463145612
 30
0.0
 10
-1.572834755763034
 20
-2.35631847153104
 30
0.0
 10
-1.571502103257596
 20
-2.354774895607433
 30
0.0
 10
-1.570505010735511
 20
-2.353710691088685
 30
0.0
 10
-1.569838684482799
 20
-2.353154620259071
 30
0.0
 10
-1.569172358230086
 20
-2.352608136857548
 30
0.0
 10
-1.568395776554224
 20
-2.352320514014688
 30
0.0
 10
-1.567504145741218
 20
-2.352320514014688
 30
0.0
 10
-1.567504145741218
 20
-2.352320514014688
 30
0.0
 10
-1.562509095702808
 20
-2.352320514014688
 30
0.0
 10
-1.562509095702808
 20
-2.352320514014688
 30
0.0
 10
-1.560955932351135
 20
-2.352320514014688
 30
0.0
 10
-1.559791059837355
 20
-2.35294369684094
 30
0.0
 10
-1.559009684447473
 20
-2.354161300209246
 30
0.0
 10
-1.558233102771636
 20
-2.355378903577528
 30
0.0
 10
-1.557509251950326
 20
-2.35776617317366
 30
0.0
 10
-1.556847719411659
 20
-2.361323108997542
 30
0.0
 10
-1.555960882312673
 20
-2.365762088206338
 30
0.0
 10
-1.555515066906209
 20
-2.370757138244799
 30
0.0
 10
-1.555515066906209
 20
-2.37630825911285
 30
0.0
 10
-1.555515066906209
 20
-2.396959579233301
 30
0.0
 10
-1.559843790691881
 20
-2.415674238878258
 30
0.0
 10
-1.568506031977348
 20
-2.432442650619578
 30
0.0
 10
-1.57716827326279
 20
-2.449211062360872
 30
0.0
 10
-1.589382656658118
 20
-2.462585524555859
 30
0.0
 10
-1.605149182163296
 20
-2.472585212060848
 30
0.0
 10
-1.620920501382493
 20
-2.482575312137695
 30
0.0
 10
-1.639016771915218
 20
-2.48757036217613
 30
0.0
 10
-1.659447581189498
 20
-2.48757036217613
 30
0.0
 10
-1.680103695024021
 20
-2.48757036217613
 30
0.0
 10
-1.69892381637803
 20
-2.482690361274864
 30
0.0
 10
-1.715912738965522
 20
-2.472920772044214
 30
0.0
 10
-1.732901661553064
 20
-2.463151182813615
 30
0.0
 10
-1.746453491167889
 20
-2.449153537792275
 30
0.0
 10
-1.756553846667834
 20
-2.430947011836452
 30
0.0
 10
-1.766663789595896
 20
-2.412730898452562
 30
0.0
 10
-1.771711570488883
 20
-2.391964529194916
 30
0.0
 10
-1.771711570488883
 20
-2.368647904063512
 30
0.0
 10
-1.771711570488883
 20
-2.346884442283782
 30
0.0
 10
-1.76716233585695
 20
-2.327393200962989
 30
0.0
 10
-1.758054279165018
 20
-2.31018376752925
 30
0.0
 10
-1.748951016187094
 20
-2.29297433409551
 30
0.0
 10
-1.735960051115929
 20
-2.279427298194757
 30
0.0
 10
-1.71907659023749
 20
-2.269542659826937
 30
0.0
 10
-1.702202716787118
 20
-2.259667608887235
 30
0.0
 10
-1.682658744611798
 20
-2.254720495989305
 30
0.0
 10
-1.660449467425577
 20
-2.254720495989305
 30
0.0
 10
-1.643791311107407
 20
-2.254720495989305
 30
0.0
 10
-1.628801367278078
 20
-2.257443325568778
 30
0.0
 10
-1.615474842223522
 20
-2.262879397299659
 30
0.0
 10
-1.60214831716899
 20
-2.268325056458656
 30
0.0
 10
-1.59154941540799
 20
-2.276042936076565
 30
0.0
 10
-1.583663755798372
 20
-2.286033036153438
 30
0.0
 10
-1.575782889902813
 20
-2.296023136230284
 30
0.0
 10
-1.571837663240987
 20
-2.307470525377867
 30
0.0
 10
-1.571837663240987
 20
-2.320346441311863
 30
0.0
 10
-1.571837663240987
 20
-2.335226129718067
 30
0.0
 10
-1.57716827326279
 20
-2.347162477698576
 30
0.0
 10
-1.587824699592375
 20
-2.356155485253364
 30
0.0
 10
-1.598485919635992
 20
-2.365148492808177
 30
0.0
 10
-1.612593820080443
 20
-2.369644996585571
 30
0.0
 10
-1.630134019783529
 20
-2.369644996585571
 30
0.0
 10
-1.640795239827159
 20
-2.369644996585571
 30
0.0
 10
-1.650512098203257
 20
-2.367593286972831
 30
0.0
 10
-1.659279801197777
 20
-2.36348028031931
 30
0.0
 10
-1.668057091620388
 20
-2.359376861093905
 30
0.0
 10
-1.675051120416987
 20
-2.353605229379632
 30
0.0
 10
-1.680266681301671
 20
-2.346165385176517
 30
0.0
 10
-1.685491829614421
 20
-2.338725540973403
 30
0.0
 10
-1.68809961005675
 20
-2.330231079679632
 30
0.0
 10
-1.68809961005675
 20
-2.320682001295229
 30
0.0
 10
-1.68809961005675
 20
-2.308688128746148
 30
0.0
 10
-1.683991397117249
 20
-2.299139050361747
 30
0.0
 10
-1.675770177524277
 20
-2.292025178713932
 30
0.0
 10
-1.667558545359346
 20
-2.284920894494209
 30
0.0
 10
-1.656451509909225
 20
-2.281373546098393
 30
0.0
 10
-1.642458658601956
 20
-2.281373546098393
 30
0.0
 10
-1.641126006096518
 20
-2.280040893592943
 30
0.0
 10
-1.640459679843793
 20
-2.278593191950323
 30
0.0
 10
-1.640459679843793
 20
-2.27704002859865
 30
0.0
 10
-1.640459679843793
 20
-2.275266354400729
 30
0.0
 10
-1.641241055233675
 20
-2.273876177326706
 30
0.0
 10
-1.642794218585348
 20
-2.272869497376531
 30
0.0
 10
-1.644347381937021
 20
-2.271872404854447
 30
0.0
 10
-1.646346360695209
 20
-2.271373858593405
 30
0.0
 10
-1.648786361145843
 20
-2.271373858593405
 30
0.0
  0
HATCH
  5
77
330
72
100
AcDbEntity
  8
_U+5F6B_U+523B_U+30D1_U+30B9
 62
     7
420
 16777215
100
AcDbHatch
 10
0.0
 20
0.0
 30
0.0
210
0.0
220
0.0
230
1.0
  2
SOLID
 70
     1
 71
     0
 91
        1
 92
        1
 93
        1
 72
     4
 94
        3
 73
     0
 74
     1
 95
      107
 96
      103
 40
0.0
 40
0.0
 40
0.0
 40
0.0
 40
1.0
 40
1.0
 40
1.0
 40
2.0
 40
2.0
 40
2.0
 40
3.0
 40
3.0
 40
3.0
 40
4.0
 40
4.0
 40
4.0
 40
5.0
 40
5.0
 40
5.0
 40
6.0
 40
6.0
 40
6.0
 40
7.0
 40
7.0
 40
7.0
 40
8.0
 40
8.0
 40
8.0
 40
9.0
 40
9.0
 40
9.0
 40
10.0
 40
10.0
 40
10.0
 40
11.0
 40
11.0
 40
11.0
 40
12.0
 40
12.0
 40
12.0
 40
13.0
 40
13.0
 40
13.0
 40
14.0
 40
14.0
 40
14.0
 40
15.0
 40
15.0
 40
15.0
 40
16.0
 40
16.0
 40
16.0
 40
17.0
 40
17.0
 40
17.0
 40
18.0
 40
18.0
 40
18.0
 40
19.0
 40
19.0
 40
19.0
 40
20.0
 40
20.0
 40
20.0
 40
21.0
 40
21.0
 40
21.0
 40
22.0
 40
22.0
 40
22.0
 40
23.0
 40
23.0
 40
23.0
 40
24.0
 40
24.0
 40
24.0
 40
25.0
 40
25.0
 40
25.0
 40
26.0
 40
26.0
 40
26.0
 40
27.0
 40
27.0
 40
27.0
 40
28.0
 40
28.0
 40
28.0
 40
29.0
 40
29.0
 40
29.0
 40
30.0
 40
30.0
 40
30.0
 40
31.0
 40
31.0
 40
31.0
 40
32.0
 40
32.0
 40
32.0
 40
33.0
 40
33.0
 40
33.0
 40
34.0
 40
34.0
 40
34.0
 40
34.0
 10
-1.648786361145843
 20
-2.271373858593405
 10
-1.663225027859628
 20
-2.271373858593405
 10
-1.675329155831807
 20
-2.276157985213735
 10
-1.685098745062431
 20
-2.285697476170046
 10
-1.694873128007101
 20
-2.295246554554448
 10
-1.699757922622477
 20
-2.307019916257332
 10
-1.699757922622477
 20
-2.321007973850556
 10
-1.699757922622477
 20
-2.338552967267661
 10
-1.693377489224026
 20
-2.352991633981446
 10
-1.680602241285063
 20
-2.364314386563743
 10
-1.66783178706012
 20
-2.375646726574157
 10
-1.651451666156744
 20
-2.381303309151261
 10
-1.63146667228898
 20
-2.381303309151261
 10
-1.619698104300167
 20
-2.381303309151261
 10
-1.608648593418618
 20
-2.379088613260895
 10
-1.598318139644309
 20
-2.374640046623982
 10
-1.587992479584096
 20
-2.370201067415185
 10
-1.579498018290337
 20
-2.364103463145612
 10
-1.572834755763034
 20
-2.35631847153104
 10
-1.571502103257596
 20
-2.354774895607433
 10
-1.570505010735511
 20
-2.353710691088685
 10
-1.569838684482799
 20
-2.353154620259071
 10
-1.569172358230086
 20
-2.352608136857548
 10
-1.568395776554224
 20
-2.352320514014688
 10
-1.567504145741218
 20
-2.352320514014688
 10
-1.567504145741218
 20
-2.352320514014688
 10
-1.562509095702808
 20
-2.352320514014688
 10
-1.562509095702808
 20
-2.352320514014688
 10
-1.560955932351135
 20
-2.352320514014688
 10
-1.559791059837355
 20
-2.35294369684094
 10
-1.559009684447473
 20
-2.354161300209246
 10
-1.558233102771636
 20
-2.355378903577528
 10
-1.557509251950326
 20
-2.35776617317366
 10
-1.556847719411659
 20
-2.361323108997542
 10
-1.555960882312673
 20
-2.365762088206338
 10
-1.555515066906209
 20
-2.370757138244799
 10
-1.555515066906209
 20
-2.37630825911285
 10
-1.555515066906209
 20
-2.396959579233301
 10
-1.559843790691881
 20
-2.415674238878258
 10
-1.568506031977348
 20
-2.432442650619578
 10
-1.57716827326279
 20
-2.449211062360872
 10
-1.589382656658118
 20
-2.462585524555859
 10
-1.605149182163296
 20
-2.472585212060848
 10
-1.620920501382493
 20
-2.482575312137695
 10
-1.639016771915218
 20
-2.48757036217613
 10
-1.659447581189498
 20
-2.48757036217613
 10
-1.680103695024021
 20
-2.48757036217613
 10
-1.69892381637803
 20
-2.482690361274864
 10
-1.715912738965522
 20
-2.472920772044214
 10
-1.732901661553064
 20
-2.463151182813615
 10
-1.746453491167889
 20
-2.449153537792275
 10
-1.756553846667834
 20
-2.430947011836452
 10
-1.766663789595896
 20
-2.412730898452562
 10
-1.771711570488883
 20
-2.391964529194916
 10
-1.771711570488883
 20
-2.368647904063512
 10
-1.771711570488883
 20
-2.346884442283782
 10
-1.76716233585695
 20
-2.327393200962989
 10
-1.758054279165018
 20
-2.31018376752925
 10
-1.748951016187094
 20
-2.29297433409551
 10
-1.735960051115929
 20
-2.279427298194757
 10
-1.71907659023749
 20
-2.269542659826937
 10
-1.702202716787118
 20
-2.259667608887235
 10
-1.682658744611798
 20
-2.254720495989305
 10
-1.660449467425577
 20
-2.254720495989305
 10
-1.643791311107407
 20
-2.254720495989305
 10
-1.628801367278078
 20
-2.257443325568778
 10
-1.615474842223522
 20
-2.262879397299659
 10
-1.60214831716899
 20
-2.268325056458656
 10
-1.59154941540799
 20
-2.276042936076565
 10
-1.583663755798372
 20
-2.286033036153438
 10
-1.575782889902813
 20
-2.296023136230284
 10
-1.571837663240987
 20
-2.307470525377867
 10
-1.571837663240987
 20
-2.320346441311863
 10
-1.571837663240987
 20
-2.335226129718067
 10
-1.57716827326279
 20
-2.347162477698576
 10
-1.587824699592375
 20
-2.356155485253364
 10
-1.598485919635992
 20
-2.365148492808177
 10
-1.612593820080443
 20
-2.369644996585571
 10
-1.630134019783529
 20
-2.369644996585571
 10
-1.640795239827159
 20
-2.369644996585571
 10
-1.650512098203257
 20
-2.367593286972831
 10
-1.659279801197777
 20
-2.36348028031931
 10
-1.668057091620388
 20
-2.359376861093905
 10
-1.675051120416987
 20
-2.353605229379632
 10
-1.680266681301671
 20
-2.346165385176517
 10
-1.685491829614421
 20
-2.338725540973403
 10
-1.68809961005675
 20
-2.330231079679632
 10
-1.68809961005675
 20
-2.320682001295229
 10
-1.68809961005675
 20
-2.308688128746148
 10
-1.683991397117249
 20
-2.299139050361747
 10
-1.675770177524277
 20
-2.292025178713932
 10
-1.667558545359346
 20
-2.284920894494209
 10
-1.656451509909225
 20
-2.281373546098393
 10
-1.642458658601956
 20
-2.281373546098393
 10
-1.641126006096518
 20
-2.280040893592943
 10
-1.640459679843793
 20
-2.278593191950323
 10
-1.640459679843793
 20
-2.27704002859865
 10
-1.640459679843793
 20
-2.275266354400729
 10
-1.641241055233675
 20
-2.273876177326706
 10
-1.642794218585348
 20
-2.272869497376531
 10
-1.644347381937021
 20
-2.271872404854447
 10
-1.646346360695209
 20
-2.271373858593405
 10
-1.648786361145843
 20
-2.271373858593405
 97
        0
 97
        0
 75
     2
 76
     1
 98
        0
  0
SPLINE
  5
78
330
72
100
AcDbEntity
  8
_U+5F6B_U+523B_U+30D1_U+30B9
370
     0
100
AcDbSpline
210
0.0
220
0.0
230
1.0
 70
    11
 71
     3
 72
    95
 73
    91
 74
     0
 42
0.0000000001
 43
0.0000000001
 12
1.0
 22
0.0
 32
0.0
 13
1.0
 23
0.0
 33
0.0
 40
0.0
 40
0.0
 40
0.0
 40
0.0
 40
1.0
 40
1.0
 40
1.0
 40
2.0
 40
2.0
 40
2.0
 40
3.0
 40
3.0
 40
3.0
 40
4.0
 40
4.0
 40
4.0
 40
5.0
 40
5.0
 40
5.0
 40
6.0
 40
6.0
 40
6.0
 40
7.0
 40
7.0
 40
7.0
 40
8.0
 40
8.0
 40
8.0
 40
9.0
 40
9.0
 40
9.0
 40
10.0
 40
10.0
 40
10.0
 40
11.0
 40
11.0
 40
11.0
 40
12.0
 40
12.0
 40
12.0
 40
13.0
 40
13.0
 40
13.0
 40
14.0
 40
14.0
 40
14.0
 40
15.0
 40
15.0
 40
15.0
 40
16.0
 40
16.0
 40
16.0
 40
17.0
 40
17.0
 40
17.0
 40
18.0
 40
18.0
 40
18.0
 40
19.0
 40
19.0
 40
19.0
 40
20.0
 40
20.0
 40
20.0
 40
21.0
 40
21.0
 40
21.0
 40
22.0
 40
22.0
 40
22.0
 40
23.0
 40
23.0
 40
23.0
 40
24.0
 40
24.0
 40
24.0
 40
25.0
 40
25.0
 40
25.0
 40
26.0
 40
26.0
 40
26.0
 40
27.0
 40
27.0
 40
27.0
 40
28.0
 40
28.0
 40
28.0
 40
29.0
 40
29.0
 40
29.0
 40
30.0
 40
30.0
 40
30.0
 40
30.0
 10
-1.538856910587987
 20
-2.283367731142511
 30
0.0
 10
-1.538856910587987
 20
-2.27559232695603
 30
0.0
 10
-1.539969052247216
 20
-2.269657708964107
 30
0.0
 10
-1.542188541851626
 20
-2.265544702310585
 30
0.0
 10
-1.544408031456037
 20
-2.261441283085155
 30
0.0
 10
-1.548516244395513
 20
-2.257606311846429
 30
0.0
 10
-1.554513180670053
 20
-2.254049376022522
 30
0.0
 10
-1.556066344021777
 20
-2.253167332637607
 30
0.0
 10
-1.557010705689309
 20
-2.252448275530368
 30
0.0
 10
-1.557346265672676
 20
-2.251882617272637
 30
0.0
 10
-1.557677031941997
 20
-2.251336133871139
 30
0.0
 10
-1.557844811933693
 20
-2.250607489335784
 30
0.0
 10
-1.557844811933693
 20
-2.249725445950869
 30
0.0
 10
-1.557844811933693
 20
-2.249725445950869
 30
0.0
 10
-1.557844811933693
 20
-2.245727488434517
 30
0.0
 10
-1.557844811933693
 20
-2.245727488434517
 30
0.0
 10
-1.557844811933693
 20
-2.243503205116035
 30
0.0
 10
-1.556512159428242
 20
-2.242391063456807
 30
0.0
 10
-1.553846854417341
 20
-2.242391063456807
 30
0.0
 10
-1.553846854417341
 20
-2.242391063456807
 30
0.0
 10
-1.467564795260235
 20
-2.242391063456807
 30
0.0
 10
-1.467564795260235
 20
-2.242391063456807
 30
0.0
 10
-1.463346326897661
 20
-2.242391063456807
 30
0.0
 10
-1.460402986471965
 20
-2.243225169701241
 30
0.0
 10
-1.458734773983098
 20
-2.244893382190083
 30
0.0
 10
-1.457076148922372
 20
-2.246561594678926
 30
0.0
 10
-1.456242042677938
 20
-2.249274836830308
 30
0.0
 10
-1.456242042677938
 20
-2.253052283500463
 30
0.0
 10
-1.456242042677938
 20
-2.253052283500463
 30
0.0
 10
-1.456242042677938
 20
-2.329003888883259
 30
0.0
 10
-1.456242042677938
 20
-2.329003888883259
 30
0.0
 10
-1.445360311788085
 20
-2.315466440410596
 30
0.0
 10
-1.430260112535608
 20
-2.308688128746148
 30
0.0
 10
-1.41093185749249
 20
-2.308688128746148
 30
0.0
 10
-1.394949614855149
 20
-2.308688128746148
 30
0.0
 10
-1.38273523145982
 20
-2.313462667938337
 30
0.0
 10
-1.374288707306555
 20
-2.323011746322739
 30
0.0
 10
-1.365851770581382
 20
-2.332560824707166
 30
0.0
 10
-1.361633302218757
 20
-2.346107860607945
 30
0.0
 10
-1.361633302218757
 20
-2.363652854025077
 30
0.0
 10
-1.361633302218757
 20
-2.363652854025077
 30
0.0
 10
-1.361633302218757
 20
-2.471252559555397
 30
0.0
 10
-1.361633302218757
 20
-2.471252559555397
 30
0.0
 10
-1.361633302218757
 20
-2.475030006225527
 30
0.0
 10
-1.362467408463191
 20
-2.477743248376909
 30
0.0
 10
-1.364135620952058
 20
-2.479411460865751
 30
0.0
 10
-1.365794246012784
 20
-2.481079673354593
 30
0.0
 10
-1.368747173866596
 20
-2.481913779599002
 30
0.0
 10
-1.372956054801105
 20
-2.481913779599002
 30
0.0
 10
-1.372956054801105
 20
-2.481913779599002
 30
0.0
 10
-1.432925417546509
 20
-2.481913779599002
 30
0.0
 10
-1.432925417546509
 20
-2.481913779599002
 30
0.0
 10
-1.437143885909134
 20
-2.481913779599002
 30
0.0
 10
-1.440087226334829
 20
-2.481079673354593
 30
0.0
 10
-1.441745851395555
 20
-2.479411460865751
 30
0.0
 10
-1.443414063884423
 20
-2.477743248376909
 30
0.0
 10
-1.444248170128857
 20
-2.475030006225527
 30
0.0
 10
-1.444248170128857
 20
-2.471252559555397
 30
0.0
 10
-1.444248170128857
 20
-2.471252559555397
 30
0.0
 10
-1.444248170128857
 20
-2.356654031514406
 30
0.0
 10
-1.444248170128857
 20
-2.356654031514406
 30
0.0
 10
-1.444248170128857
 20
-2.354218824777844
 30
0.0
 10
-1.444804240958446
 20
-2.35221505230561
 30
0.0
 10
-1.445916382617674
 20
-2.350661888953886
 30
0.0
 10
-1.447028524276902
 20
-2.349108725602238
 30
0.0
 10
-1.448581687628588
 20
-2.348332143926402
 30
0.0
 10
-1.450575872672718
 20
-2.348332143926402
 30
0.0
 10
-1.453241177683657
 20
-2.348332143926402
 30
0.0
 10
-1.45512990101871
 20
-2.349214187311291
 30
0.0
 10
-1.456242042677938
 20
-2.350987861509212
 30
0.0
 10
-1.456242042677938
 20
-2.350987861509212
 30
0.0
 10
-1.456242042677938
 20
-2.471252559555397
 30
0.0
 10
-1.456242042677938
 20
-2.471252559555397
 30
0.0
 10
-1.456242042677938
 20
-2.475030006225527
 30
0.0
 10
-1.457076148922372
 20
-2.477743248376909
 30
0.0
 10
-1.458734773983098
 20
-2.479411460865751
 30
0.0
 10
-1.460402986471965
 20
-2.481079673354593
 30
0.0
 10
-1.463346326897661
 20
-2.481913779599002
 30
0.0
 10
-1.467564795260235
 20
-2.481913779599002
 30
0.0
 10
-1.467564795260235
 20
-2.481913779599002
 30
0.0
 10
-1.527529364291657
 20
-2.481913779599002
 30
0.0
 10
-1.527529364291657
 20
-2.481913779599002
 30
0.0
 10
-1.531752626368289
 20
-2.481913779599002
 30
0.0
 10
-1.534691173079965
 20
-2.481079673354593
 30
0.0
 10
-1.536359385568782
 20
-2.479411460865751
 30
0.0
 10
-1.538022804343604
 20
-2.477743248376909
 30
0.0
 10
-1.538856910587987
 20
-2.475030006225527
 30
0.0
 10
-1.538856910587987
 20
-2.471252559555397
 30
0.0
 10
-1.538856910587987
 20
-2.471252559555397
 30
0.0
 10
-1.538856910587987
 20
-2.283367731142511
 30
0.0
 10
-1.538856910587987
 20
-2.283367731142511
 30
0.0
  0
HATCH
  5
79
330
72
100
AcDbEntity
  8
_U+5F6B_U+523B_U+30D1_U+30B9
 62
     7
420
 16777215
100
AcDbHatch
 10
0.0
 20
0.0
 30
0.0
210
0.0
220
0.0
230
1.0
  2
SOLID
 70
     1
 71
     0
 91
        1
 92
        1
 93
        1
 72
     4
 94
        3
 73
     0
 74
     1
 95
       95
 96
       91
 40
0.0
 40
0.0
 40
0.0
 40
0.0
 40
1.0
 40
1.0
 40
1.0
 40
2.0
 40
2.0
 40
2.0
 40
3.0
 40
3.0
 40
3.0
 40
4.0
 40
4.0
 40
4.0
 40
5.0
 40
5.0
 40
5.0
 40
6.0
 40
6.0
 40
6.0
 40
7.0
 40
7.0
 40
7.0
 40
8.0
 40
8.0
 40
8.0
 40
9.0
 40
9.0
 40
9.0
 40
10.0
 40
10.0
 40
10.0
 40
11.0
 40
11.0
 40
11.0
 40
12.0
 40
12.0
 40
12.0
 40
13.0
 40
13.0
 40
13.0
 40
14.0
 40
14.0
 40
14.0
 40
15.0
 40
15.0
 40
15.0
 40
16.0
 40
16.0
 40
16.0
 40
17.0
 40
17.0
 40
17.0
 40
18.0
 40
18.0
 40
18.0
 40
19.0
 40
19.0
 40
19.0
 40
20.0
 40
20.0
 40
20.0
 40
21.0
 40
21.0
 40
21.0
 40
22.0
 40
22.0
 40
22.0
 40
23.0
 40
23.0
 40
23.0
 40
24.0
 40
24.0
 40
24.0
 40
25.0
 40
25.0
 40
25.0
 40
26.0
 40
26.0
 40
26.0
 40
27.0
 40
27.0
 40
27.0
 40
28.0
 40
28.0
 40
28.0
 40
29.0
 40
29.0
 40
29.0
 40
30.0
 40
30.0
 40
30.0
 40
30.0
 10
-1.538856910587987
 20
-2.283367731142511
 10
-1.538856910587987
 20
-2.27559232695603
 10
-1.539969052247216
 20
-2.269657708964107
 10
-1.542188541851626
 20
-2.265544702310585
 10
-1.544408031456037
 20
-2.261441283085155
 10
-1.548516244395513
 20
-2.257606311846429
 10
-1.554513180670053
 20
-2.254049376022522
 10
-1.556066344021777
 20
-2.253167332637607
 10
-1.557010705689309
 20
-2.252448275530368
 10
-1.557346265672676
 20
-2.251882617272637
 10
-1.557677031941997
 20
-2.251336133871139
 10
-1.557844811933693
 20
-2.250607489335784
 10
-1.557844811933693
 20
-2.249725445950869
 10
-1.557844811933693
 20
-2.249725445950869
 10
-1.557844811933693
 20
-2.245727488434517
 10
-1.557844811933693
 20
-2.245727488434517
 10
-1.557844811933693
 20
-2.243503205116035
 10
-1.556512159428242
 20
-2.242391063456807
 10
-1.553846854417341
 20
-2.242391063456807
 10
-1.553846854417341
 20
-2.242391063456807
 10
-1.467564795260235
 20
-2.242391063456807
 10
-1.467564795260235
 20
-2.242391063456807
 10
-1.463346326897661
 20
-2.242391063456807
 10
-1.460402986471965
 20
-2.243225169701241
 10
-1.458734773983098
 20
-2.244893382190083
 10
-1.457076148922372
 20
-2.246561594678926
 10
-1.456242042677938
 20
-2.249274836830308
 10
-1.456242042677938
 20
-2.253052283500463
 10
-1.456242042677938
 20
-2.253052283500463
 10
-1.456242042677938
 20
-2.329003888883259
 10
-1.456242042677938
 20
-2.329003888883259
 10
-1.445360311788085
 20
-2.315466440410596
 10
-1.430260112535608
 20
-2.308688128746148
 10
-1.41093185749249
 20
-2.308688128746148
 10
-1.394949614855149
 20
-2.308688128746148
 10
-1.38273523145982
 20
-2.313462667938337
 10
-1.374288707306555
 20
-2.323011746322739
 10
-1.365851770581382
 20
-2.332560824707166
 10
-1.361633302218757
 20
-2.346107860607945
 10
-1.361633302218757
 20
-2.363652854025077
 10
-1.361633302218757
 20
-2.363652854025077
 10
-1.361633302218757
 20
-2.471252559555397
 10
-1.361633302218757
 20
-2.471252559555397
 10
-1.361633302218757
 20
-2.475030006225527
 10
-1.362467408463191
 20
-2.477743248376909
 10
-1.364135620952058
 20
-2.479411460865751
 10
-1.365794246012784
 20
-2.481079673354593
 10
-1.368747173866596
 20
-2.481913779599002
 10
-1.372956054801105
 20
-2.481913779599002
 10
-1.372956054801105
 20
-2.481913779599002
 10
-1.432925417546509
 20
-2.481913779599002
 10
-1.432925417546509
 20
-2.481913779599002
 10
-1.437143885909134
 20
-2.481913779599002
 10
-1.440087226334829
 20
-2.481079673354593
 10
-1.441745851395555
 20
-2.479411460865751
 10
-1.443414063884423
 20
-2.477743248376909
 10
-1.444248170128857
 20
-2.475030006225527
 10
-1.444248170128857
 20
-2.471252559555397
 10
-1.444248170128857
 20
-2.471252559555397
 10
-1.444248170128857
 20
-2.356654031514406
 10
-1.444248170128857
 20
-2.356654031514406
 10
-1.444248170128857
 20
-2.354218824777844
 10
-1.444804240958446
 20
-2.35221505230561
 10
-1.445916382617674
 20
-2.350661888953886
 10
-1.447028524276902
 20
-2.349108725602238
 10
-1.448581687628588
 20
-2.348332143926402
 10
-1.450575872672718
 20
-2.348332143926402
 10
-1.453241177683657
 20
-2.348332143926402
 10
-1.45512990101871
 20
-2.349214187311291
 10
-1.456242042677938
 20
-2.350987861509212
 10
-1.456242042677938
 20
-2.350987861509212
 10
-1.456242042677938
 20
-2.471252559555397
 10
-1.456242042677938
 20
-2.471252559555397
 10
-1.456242042677938
 20
-2.475030006225527
 10
-1.457076148922372
 20
-2.477743248376909
 10
-1.458734773983098
 20
-2.479411460865751
 10
-1.460402986471965
 20
-2.481079673354593
 10
-1.463346326897661
 20
-2.481913779599002
 10
-1.467564795260235
 20
-2.481913779599002
 10
-1.467564795260235
 20
-2.481913779599002
 10
-1.527529364291657
 20
-2.481913779599002
 10
-1.527529364291657
 20
-2.481913779599002
 10
-1.531752626368289
 20
-2.481913779599002
 10
-1.534691173079965
 20
-2.481079673354593
 10
-1.536359385568782
 20
-2.479411460865751
 10
-1.538022804343604
 20
-2.477743248376909
 10
-1.538856910587987
 20
-2.475030006225527
 10
-1.538856910587987
 20
-2.471252559555397
 10
-1.538856910587987
 20
-2.471252559555397
 10
-1.538856910587987
 20
-2.283367731142511
 10
-1.538856910587987
 20
-2.283367731142511
 97
        0
 97
        0
 75
     2
 76
     1
 98
        0
  0
SPLINE
  5
7A
330
72
100
AcDbEntity
  8
_U+5F6B_U+523B_U+30D1_U+30B9
370
     0
100
AcDbSpline
210
0.0
220
0.0
230
1.0
 70
    11
 71
     3
 72
    80
 73
    76
 74
     0
 42
0.0000000001
 43
0.0000000001
 12
1.0
 22
0.0
 32
0.0
 13
1.0
 23
0.0
 33
0.0
 40
0.0
 40
0.0
 40
0.0
 40
0.0
 40
1.0
 40
1.0
 40
1.0
 40
2.0
 40
2.0
 40
2.0
 40
3.0
 40
3.0
 40
3.0
 40
4.0
 40
4.0
 40
4.0
 40
5.0
 40
5.0
 40
5.0
 40
6.0
 40
6.0
 40
6.0
 40
7.0
 40
7.0
 40
7.0
 40
8.0
 40
8.0
 40
8.0
 40
9.0
 40
9.0
 40
9.0
 40
10.0
 40
10.0
 40
10.0
 40
11.0
 40
11.0
 40
11.0
 40
12.0
 40
12.0
 40
12.0
 40
13.0
 40
13.0
 40
13.0
 40
14.0
 40
14.0
 40
14.0
 40
15.0
 40
15.0
 40
15.0
 40
16.0
 40
16.0
 40
16.0
 40
17.0
 40
17.0
 40
17.0
 40
18.0
 40
18.0
 40
18.0
 40
19.0
 40
19.0
 40
19.0
 40
20.0
 40
20.0
 40
20.0
 40
21.0
 40
21.0
 40
21.0
 40
22.0
 40
22.0
 40
22.0
 40
23.0
 40
23.0
 40
23.0
 40
24.0
 40
24.0
 40
24.0
 40
25.0
 40
25.0
 40
25.0
 40
25.0
 10
-1.265030376715483
 20
-2.404955494266055
 30
0.0
 10
-1.265030376715483
 20
-2.410075180869752
 30
0.0
 10
-1.26069685921574
 20
-2.414782608065277
 30
0.0
 10
-1.252039411644344
 20
-2.419116125565021
 30
0.0
 10
-1.243372376644831
 20
-2.42344964306479
 30
0.0
 10
-1.233717836551351
 20
-2.425616401814649
 30
0.0
 10
-1.223056616507721
 20
-2.425616401814649
 30
0.0
 10
-1.201954687266683
 20
-2.425616401814649
 30
0.0
 10
-1.184630204695774
 20
-2.418512117594926
 30
0.0
 10
-1.17108316879502
 20
-2.404293961727388
 30
0.0
 10
-1.16975051628957
 20
-2.402961309221938
 30
0.0
 10
-1.168810948336058
 20
-2.402127202977504
 30
0.0
 10
-1.168254877506443
 20
-2.401791642994087
 30
0.0
 10
-1.167698806676829
 20
-2.401465670438812
 30
0.0
 10
-1.166864700432395
 20
-2.40129309673307
 30
0.0
 10
-1.165752558773193
 20
-2.40129309673307
 30
0.0
 10
-1.165752558773193
 20
-2.40129309673307
 30
0.0
 10
-1.16175460125684
 20
-2.40129309673307
 30
0.0
 10
-1.16175460125684
 20
-2.40129309673307
 30
0.0
 10
-1.160211025333259
 20
-2.40129309673307
 30
0.0
 10
-1.159146820814486
 20
-2.401849167562685
 30
0.0
 10
-1.158590749984897
 20
-2.402961309221938
 30
0.0
 10
-1.158044266583374
 20
-2.404073450881141
 30
0.0
 10
-1.157756643740463
 20
-2.406077223353375
 30
0.0
 10
-1.157756643740463
 20
-2.408953451782433
 30
0.0
 10
-1.157756643740463
 20
-2.422730585957525
 30
0.0
 10
-1.161486153270087
 20
-2.435443515613871
 30
0.0
 10
-1.16891641004511
 20
-2.447101828179534
 30
0.0
 10
-1.176365841676342
 20
-2.458760140745274
 30
0.0
 10
-1.186912012582828
 20
-2.468146232852
 30
0.0
 10
-1.200564510192635
 20
-2.475250517071724
 30
0.0
 10
-1.214226595230583
 20
-2.482354801291497
 30
0.0
 10
-1.229499368188751
 20
-2.485911737115379
 30
0.0
 10
-1.246373241639124
 20
-2.485911737115379
 30
0.0
 10
-1.264359256748725
 20
-2.485911737115379
 30
0.0
 10
-1.28057159766038
 20
-2.482239752154328
 30
0.0
 10
-1.29501026437414
 20
-2.474914957088357
 30
0.0
 10
-1.30944893108795
 20
-2.467590162022411
 30
0.0
 10
-1.320944257375989
 20
-2.457149452825004
 30
0.0
 10
-1.329486655810241
 20
-2.443602416924225
 30
0.0
 10
-1.338038641672584
 20
-2.430055381023471
 30
0.0
 10
-1.34231463460373
 20
-2.414619621787627
 30
0.0
 10
-1.34231463460373
 20
-2.397295139216744
 30
0.0
 10
-1.34231463460373
 20
-2.380200754920123
 30
0.0
 10
-1.338316677087379
 20
-2.364985506530527
 30
0.0
 10
-1.330320762054624
 20
-2.35165898147597
 30
0.0
 10
-1.322324847021921
 20
-2.338332456421439
 30
0.0
 10
-1.310944569871026
 20
-2.327843810083525
 30
0.0
 10
-1.296170343173874
 20
-2.320173867606122
 30
0.0
 10
-1.281405703904814
 20
-2.312513512556784
 30
0.0
 10
-1.264138745902478
 20
-2.308688128746148
 30
0.0
 10
-1.24436946916689
 20
-2.308688128746148
 30
0.0
 10
-1.229499368188751
 20
-2.308688128746148
 30
0.0
 10
-1.216115318565648
 20
-2.311017873773658
 30
0.0
 10
-1.204236495153711
 20
-2.315677363828702
 30
0.0
 10
-1.1923576717418
 20
-2.320346441311863
 30
0.0
 10
-1.182971579635048
 20
-2.327009703839116
 30
0.0
 10
-1.176078218833431
 20
-2.335667151410512
 30
0.0
 10
-1.169204032888047
 20
-2.344334186410025
 30
0.0
 10
-1.165752558773193
 20
-2.354324286486872
 30
0.0
 10
-1.165752558773193
 20
-2.365647039069169
 30
0.0
 10
-1.165752558773193
 20
-2.380085705782979
 30
0.0
 10
-1.170977707085942
 20
-2.392022053763488
 30
0.0
 10
-1.181408828855259
 20
-2.401465670438812
 30
0.0
 10
-1.191849538052667
 20
-2.41089969968607
 30
0.0
 10
-1.205061013970054
 20
-2.415616714309686
 30
0.0
 10
-1.221052844035512
 20
-2.415616714309686
 30
0.0
 10
-1.237044674100945
 20
-2.415616714309686
 30
0.0
 10
-1.250035639172084
 20
-2.410286104287858
 30
0.0
 10
-1.260035326677047
 20
-2.399624884244228
 30
0.0
 10
-1.261358391754432
 20
-2.399624884244228
 30
0.0
 10
-1.262528057982207
 20
-2.400133017933361
 30
0.0
 10
-1.263525150504291
 20
-2.401130110455445
 30
0.0
 10
-1.264531830454467
 20
-2.402127202977504
 30
0.0
 10
-1.265030376715483
 20
-2.403411918342474
 30
0.0
 10
-1.265030376715483
 20
-2.404955494266055
 30
0.0
  0
SPLINE
  5
7B
330
72
100
AcDbEntity
  8
_U+5F6B_U+523B_U+30D1_U+30B9
370
     0
100
AcDbSpline
210
0.0
220
0.0
230
1.0
 70
    11
 71
     3
 72
    23
 73
    19
 74
     0
 42
0.0000000001
 43
0.0000000001
 12
1.0
 22
0.0
 32
0.0
 13
1.0
 23
0.0
 33
0.0
 40
0.0
 40
0.0
 40
0.0
 40
0.0
 40
1.0
 40
1.0
 40
1.0
 40
2.0
 40
2.0
 40
2.0
 40
3.0
 40
3.0
 40
3.0
 40
4.0
 40
4.0
 40
4.0
 40
5.0
 40
5.0
 40
5.0
 40
6.0
 40
6.0
 40
6.0
 40
6.0
 10
-1.25503068921052
 20
-2.381974429118018
 30
0.0
 10
-1.25369803670507
 20
-2.383757690744055
 30
0.0
 10
-1.251924362507149
 20
-2.384639734128945
 30
0.0
 10
-1.249700079188718
 20
-2.384639734128945
 30
0.0
 10
-1.245702121672366
 20
-2.384639734128945
 30
0.0
 10
-1.243707936628248
 20
-2.382425038238605
 30
0.0
 10
-1.243707936628248
 20
-2.377976471601667
 30
0.0
 10
-1.243707936628248
 20
-2.377976471601667
 30
0.0
 10
-1.243707936628248
 20
-2.330672101372102
 30
0.0
 10
-1.243707936628248
 20
-2.330672101372102
 30
0.0
 10
-1.243707936628248
 20
-2.326233122163305
 30
0.0
 10
-1.245702121672366
 20
-2.324008838844848
 30
0.0
 10
-1.249700079188718
 20
-2.324008838844848
 30
0.0
 10
-1.251924362507149
 20
-2.324008838844848
 30
0.0
 10
-1.25369803670507
 20
-2.324900469657829
 30
0.0
 10
-1.25503068921052
 20
-2.326674143855724
 30
0.0
 10
-1.25503068921052
 20
-2.326674143855724
 30
0.0
 10
-1.25503068921052
 20
-2.381974429118018
 30
0.0
 10
-1.25503068921052
 20
-2.381974429118018
 30
0.0
  0
HATCH
  5
7C
330
72
100
AcDbEntity
  8
_U+5F6B_U+523B_U+30D1_U+30B9
 62
     7
420
 16777215
100
AcDbHatch
 10
0.0
 20
0.0
 30
0.0
210
0.0
220
0.0
230
1.0
  2
SOLID
 70
     1
 71
     0
 91
        2
 92
        1
 93
        1
 72
     4
 94
        3
 73
     0
 74
     1
 95
       80
 96
       76
 40
0.0
 40
0.0
 40
0.0
 40
0.0
 40
1.0
 40
1.0
 40
1.0
 40
2.0
 40
2.0
 40
2.0
 40
3.0
 40
3.0
 40
3.0
 40
4.0
 40
4.0
 40
4.0
 40
5.0
 40
5.0
 40
5.0
 40
6.0
 40
6.0
 40
6.0
 40
7.0
 40
7.0
 40
7.0
 40
8.0
 40
8.0
 40
8.0
 40
9.0
 40
9.0
 40
9.0
 40
10.0
 40
10.0
 40
10.0
 40
11.0
 40
11.0
 40
11.0
 40
12.0
 40
12.0
 40
12.0
 40
13.0
 40
13.0
 40
13.0
 40
14.0
 40
14.0
 40
14.0
 40
15.0
 40
15.0
 40
15.0
 40
16.0
 40
16.0
 40
16.0
 40
17.0
 40
17.0
 40
17.0
 40
18.0
 40
18.0
 40
18.0
 40
19.0
 40
19.0
 40
19.0
 40
20.0
 40
20.0
 40
20.0
 40
21.0
 40
21.0
 40
21.0
 40
22.0
 40
22.0
 40
22.0
 40
23.0
 40
23.0
 40
23.0
 40
24.0
 40
24.0
 40
24.0
 40
25.0
 40
25.0
 40
25.0
 40
25.0
 10
-1.265030376715483
 20
-2.404955494266055
 10
-1.265030376715483
 20
-2.410075180869752
 10
-1.26069685921574
 20
-2.414782608065277
 10
-1.252039411644344
 20
-2.419116125565021
 10
-1.243372376644831
 20
-2.42344964306479
 10
-1.233717836551351
 20
-2.425616401814649
 10
-1.223056616507721
 20
-2.425616401814649
 10
-1.201954687266683
 20
-2.425616401814649
 10
-1.184630204695774
 20
-2.418512117594926
 10
-1.17108316879502
 20
-2.404293961727388
 10
-1.16975051628957
 20
-2.402961309221938
 10
-1.168810948336058
 20
-2.402127202977504
 10
-1.168254877506443
 20
-2.401791642994087
 10
-1.167698806676829
 20
-2.401465670438812
 10
-1.166864700432395
 20
-2.40129309673307
 10
-1.165752558773193
 20
-2.40129309673307
 10
-1.165752558773193
 20
-2.40129309673307
 10
-1.16175460125684
 20
-2.40129309673307
 10
-1.16175460125684
 20
-2.40129309673307
 10
-1.160211025333259
 20
-2.40129309673307
 10
-1.159146820814486
 20
-2.401849167562685
 10
-1.158590749984897
 20
-2.402961309221938
 10
-1.158044266583374
 20
-2.404073450881141
 10
-1.157756643740463
 20
-2.406077223353375
 10
-1.157756643740463
 20
-2.408953451782433
 10
-1.157756643740463
 20
-2.422730585957525
 10
-1.161486153270087
 20
-2.435443515613871
 10
-1.16891641004511
 20
-2.447101828179534
 10
-1.176365841676342
 20
-2.458760140745274
 10
-1.186912012582828
 20
-2.468146232852
 10
-1.200564510192635
 20
-2.475250517071724
 10
-1.214226595230583
 20
-2.482354801291497
 10
-1.229499368188751
 20
-2.485911737115379
 10
-1.246373241639124
 20
-2.485911737115379
 10
-1.264359256748725
 20
-2.485911737115379
 10
-1.28057159766038
 20
-2.482239752154328
 10
-1.29501026437414
 20
-2.474914957088357
 10
-1.30944893108795
 20
-2.467590162022411
 10
-1.320944257375989
 20
-2.457149452825004
 10
-1.329486655810241
 20
-2.443602416924225
 10
-1.338038641672584
 20
-2.430055381023471
 10
-1.34231463460373
 20
-2.414619621787627
 10
-1.34231463460373
 20
-2.397295139216744
 10
-1.34231463460373
 20
-2.380200754920123
 10
-1.338316677087379
 20
-2.364985506530527
 10
-1.330320762054624
 20
-2.35165898147597
 10
-1.322324847021921
 20
-2.338332456421439
 10
-1.310944569871026
 20
-2.327843810083525
 10
-1.296170343173874
 20
-2.320173867606122
 10
-1.281405703904814
 20
-2.312513512556784
 10
-1.264138745902478
 20
-2.308688128746148
 10
-1.24436946916689
 20
-2.308688128746148
 10
-1.229499368188751
 20
-2.308688128746148
 10
-1.216115318565648
 20
-2.311017873773658
 10
-1.204236495153711
 20
-2.315677363828702
 10
-1.1923576717418
 20
-2.320346441311863
 10
-1.182971579635048
 20
-2.327009703839116
 10
-1.176078218833431
 20
-2.335667151410512
 10
-1.169204032888047
 20
-2.344334186410025
 10
-1.165752558773193
 20
-2.354324286486872
 10
-1.165752558773193
 20
-2.365647039069169
 10
-1.165752558773193
 20
-2.380085705782979
 10
-1.170977707085942
 20
-2.392022053763488
 10
-1.181408828855259
 20
-2.401465670438812
 10
-1.191849538052667
 20
-2.41089969968607
 10
-1.205061013970054
 20
-2.415616714309686
 10
-1.221052844035512
 20
-2.415616714309686
 10
-1.237044674100945
 20
-2.415616714309686
 10
-1.250035639172084
 20
-2.410286104287858
 10
-1.260035326677047
 20
-2.399624884244228
 10
-1.261358391754432
 20
-2.399624884244228
 10
-1.262528057982207
 20
-2.400133017933361
 10
-1.263525150504291
 20
-2.401130110455445
 10
-1.264531830454467
 20
-2.402127202977504
 10
-1.265030376715483
 20
-2.403411918342474
 10
-1.265030376715483
 20
-2.404955494266055
 97
        0
 97
        0
 92
        1
 93
        1
 72
     4
 94
        3
 73
     0
 74
     1
 95
       23
 96
       19
 40
0.0
 40
0.0
 40
0.0
 40
0.0
 40
1.0
 40
1.0
 40
1.0
 40
2.0
 40
2.0
 40
2.0
 40
3.0
 40
3.0
 40
3.0
 40
4.0
 40
4.0
 40
4.0
 40
5.0
 40
5.0
 40
5.0
 40
6.0
 40
6.0
 40
6.0
 40
6.0
 10
-1.25503068921052
 20
-2.381974429118018
 10
-1.25369803670507
 20
-2.383757690744055
 10
-1.251924362507149
 20
-2.384639734128945
 10
-1.249700079188718
 20
-2.384639734128945
 10
-1.245702121672366
 20
-2.384639734128945
 10
-1.243707936628248
 20
-2.382425038238605
 10
-1.243707936628248
 20
-2.377976471601667
 10
-1.243707936628248
 20
-2.377976471601667
 10
-1.243707936628248
 20
-2.330672101372102
 10
-1.243707936628248
 20
-2.330672101372102
 10
-1.243707936628248
 20
-2.326233122163305
 10
-1.245702121672366
 20
-2.324008838844848
 10
-1.249700079188718
 20
-2.324008838844848
 10
-1.251924362507149
 20
-2.324008838844848
 10
-1.25369803670507
 20
-2.324900469657829
 10
-1.25503068921052
 20
-2.326674143855724
 10
-1.25503068921052
 20
-2.326674143855724
 10
-1.25503068921052
 20
-2.381974429118018
 10
-1.25503068921052
 20
-2.381974429118018
 97
        0
 97
        0
 75
     2
 76
     1
 98
        0
  0
SPLINE
  5
7D
330
72
100
AcDbEntity
  8
_U+5F6B_U+523B_U+30D1_U+30B9
370
     0
100
AcDbSpline
210
0.0
220
0.0
230
1.0
 70
    11
 71
     3
 72
    98
 73
    94
 74
     0
 42
0.0000000001
 43
0.0000000001
 12
1.0
 22
0.0
 32
0.0
 13
1.0
 23
0.0
 33
0.0
 40
0.0
 40
0.0
 40
0.0
 40
0.0
 40
1.0
 40
1.0
 40
1.0
 40
2.0
 40
2.0
 40
2.0
 40
3.0
 40
3.0
 40
3.0
 40
4.0
 40
4.0
 40
4.0
 40
5.0
 40
5.0
 40
5.0
 40
6.0
 40
6.0
 40
6.0
 40
7.0
 40
7.0
 40
7.0
 40
8.0
 40
8.0
 40
8.0
 40
9.0
 40
9.0
 40
9.0
 40
10.0
 40
10.0
 40
10.0
 40
11.0
 40
11.0
 40
11.0
 40
12.0
 40
12.0
 40
12.0
 40
13.0
 40
13.0
 40
13.0
 40
14.0
 40
14.0
 40
14.0
 40
15.0
 40
15.0
 40
15.0
 40
16.0
 40
16.0
 40
16.0
 40
17.0
 40
17.0
 40
17.0
 40
18.0
 40
18.0
 40
18.0
 40
19.0
 40
19.0
 40
19.0
 40
20.0
 40
20.0
 40
20.0
 40
21.0
 40
21.0
 40
21.0
 40
22.0
 40
22.0
 40
22.0
 40
23.0
 40
23.0
 40
23.0
 40
24.0
 40
24.0
 40
24.0
 40
25.0
 40
25.0
 40
25.0
 40
26.0
 40
26.0
 40
26.0
 40
27.0
 40
27.0
 40
27.0
 40
28.0
 40
28.0
 40
28.0
 40
29.0
 40
29.0
 40
29.0
 40
30.0
 40
30.0
 40
30.0
 40
31.0
 40
31.0
 40
31.0
 40
31.0
 10
-1.132119861009616
 20
-2.312686086262526
 30
0.0
 10
-1.113021704240812
 20
-2.312686086262526
 30
0.0
 10
-1.100021151741556
 20
-2.318342668839629
 30
0.0
 10
-1.093137378368081
 20
-2.329675008850018
 30
0.0
 10
-1.086704214115141
 20
-2.32257072463032
 30
0.0
 10
-1.079484880758223
 20
-2.317297639177064
 30
0.0
 10
-1.07148896572552
 20
-2.313846165062235
 30
0.0
 10
-1.063493050692765
 20
-2.310404278375472
 30
0.0
 10
-1.05427953229178
 20
-2.308688128746148
 30
0.0
 10
-1.043838823094347
 20
-2.308688128746148
 30
0.0
 10
-1.027626482182667
 20
-2.308688128746148
 30
0.0
 10
-1.014299957128135
 20
-2.31312710795497
 30
0.0
 10
-1.003859247930728
 20
-2.32201465380068
 30
0.0
 10
-0.9934281261614362
 20
-2.330892612218324
 30
0.0
 10
-0.9882029778486614
 20
-2.342224952228738
 30
0.0
 10
-0.9882029778486614
 20
-2.355992498975739
 30
0.0
 10
-0.9882029778486614
 20
-2.367535762404259
 30
0.0
 10
-0.9924214462112609
 20
-2.376921854511036
 30
0.0
 10
-1.000858382936435
 20
-2.384141187867903
 30
0.0
 10
-1.0093049070897
 20
-2.391360521224821
 30
0.0
 10
-1.020186637979577
 20
-2.394965394189209
 30
0.0
 10
-1.033513163034109
 20
-2.394965394189209
 30
0.0
 10
-1.046619177242418
 20
-2.394965394189209
 30
0.0
 10
-1.057328334426529
 20
-2.39163855663959
 30
0.0
 10
-1.065659809442675
 20
-2.384975294112312
 30
0.0
 10
-1.073981697030679
 20
-2.378312031585084
 30
0.0
 10
-1.078152228252798
 20
-2.369875094859885
 30
0.0
 10
-1.078152228252798
 20
-2.359654896508725
 30
0.0
 10
-1.078152228252798
 20
-2.350987861509212
 30
0.0
 10
-1.07515136325848
 20
-2.343883577289489
 30
0.0
 10
-1.069149633269919
 20
-2.338332456421439
 30
0.0
 10
-1.063157490709399
 20
-2.332781335553389
 30
0.0
 10
-1.055497135660062
 20
-2.330000981405318
 30
0.0
 10
-1.046168568121882
 20
-2.330000981405318
 30
0.0
 10
-1.045497448155098
 20
-2.328898427174181
 30
0.0
 10
-1.045171475599798
 20
-2.327786285514953
 30
0.0
 10
-1.045171475599798
 20
-2.326674143855724
 30
0.0
 10
-1.045171475599798
 20
-2.323567817152404
 30
0.0
 10
-1.047501220627333
 20
-2.32201465380068
 30
0.0
 10
-1.052160710682377
 20
-2.32201465380068
 30
0.0
 10
-1.061939887341092
 20
-2.32201465380068
 30
0.0
 10
-1.070376824066291
 20
-2.325734575902263
 30
0.0
 10
-1.077481108286015
 20
-2.333174420105378
 30
0.0
 10
-1.084594979933829
 20
-2.340614264308492
 30
0.0
 10
-1.088142328329645
 20
-2.349549747294683
 30
0.0
 10
-1.088142328329645
 20
-2.359990456492091
 30
0.0
 10
-1.088142328329645
 20
-2.368868414909735
 30
0.0
 10
-1.085640009596369
 20
-2.376701343664813
 30
0.0
 10
-1.080644959557958
 20
-2.383470067901145
 30
0.0
 10
-1.075649909519497
 20
-2.390248379565592
 30
0.0
 10
-1.068488100731227
 20
-2.395626926727876
 30
0.0
 10
-1.059159533193047
 20
-2.399624884244228
 30
0.0
 10
-1.056053206489676
 20
-2.400957536749704
 30
0.0
 10
-1.054001496876961
 20
-2.402462762960896
 30
0.0
 10
-1.052994816926811
 20
-2.404130975449738
 30
0.0
 10
-1.051997724404727
 20
-2.405789600510464
 30
0.0
 10
-1.05149917814371
 20
-2.408627479227132
 30
0.0
 10
-1.05149917814371
 20
-2.412625436743509
 30
0.0
 10
-1.05149917814371
 20
-2.412625436743509
 30
0.0
 10
-1.05149917814371
 20
-2.471252559555397
 30
0.0
 10
-1.05149917814371
 20
-2.471252559555397
 30
0.0
 10
-1.05149917814371
 20
-2.47835684377512
 30
0.0
 10
-1.055276624813814
 20
-2.481913779599002
 30
0.0
 10
-1.062821930726007
 20
-2.481913779599002
 30
0.0
 10
-1.062821930726007
 20
-2.481913779599002
 30
0.0
 10
-1.130451648520799
 20
-2.481913779599002
 30
0.0
 10
-1.130451648520799
 20
-2.481913779599002
 30
0.0
 10
-1.137335421894275
 20
-2.481913779599002
 30
0.0
 10
-1.140777308581038
 20
-2.47835684377512
 30
0.0
 10
-1.140777308581038
 20
-2.471252559555397
 30
0.0
 10
-1.140777308581038
 20
-2.471252559555397
 30
0.0
 10
-1.140777308581038
 20
-2.353653166520113
 30
0.0
 10
-1.140777308581038
 20
-2.353653166520113
 30
0.0
 10
-1.140777308581038
 20
-2.345887349761698
 30
0.0
 10
-1.141889450240266
 20
-2.339943144341684
 30
0.0
 10
-1.144104146130631
 20
-2.335839725116279
 30
0.0
 10
-1.146328429449088
 20
-2.331726718462758
 30
0.0
 10
-1.150441436102609
 20
-2.327901334652122
 30
0.0
 10
-1.156433578663104
 20
-2.324344398828215
 30
0.0
 10
-1.157986742014777
 20
-2.323452768015234
 30
0.0
 10
-1.15893589739638
 20
-2.322733710907944
 30
0.0
 10
-1.15926186995163
 20
-2.322177640078356
 30
0.0
 10
-1.159597429935072
 20
-2.321621569248741
 30
0.0
 10
-1.159760416212698
 20
-2.320902512141477
 30
0.0
 10
-1.159760416212698
 20
-2.320010881328446
 30
0.0
 10
-1.159760416212698
 20
-2.320010881328446
 30
0.0
 10
-1.159760416212698
 20
-2.316012923812094
 30
0.0
 10
-1.159760416212698
 20
-2.316012923812094
 30
0.0
 10
-1.159760416212698
 20
-2.313798227921729
 30
0.0
 10
-1.158427763707247
 20
-2.312686086262526
 30
0.0
 10
-1.15576245869632
 20
-2.312686086262526
 30
0.0
 10
-1.15576245869632
 20
-2.312686086262526
 30
0.0
 10
-1.132119861009616
 20
-2.312686086262526
 30
0.0
 10
-1.132119861009616
 20
-2.312686086262526
 30
0.0
  0
HATCH
  5
7E
330
72
100
AcDbEntity
  8
_U+5F6B_U+523B_U+30D1_U+30B9
 62
     7
420
 16777215
100
AcDbHatch
 10
0.0
 20
0.0
 30
0.0
210
0.0
220
0.0
230
1.0
  2
SOLID
 70
     1
 71
     0
 91
        1
 92
        1
 93
        1
 72
     4
 94
        3
 73
     0
 74
     1
 95
       98
 96
       94
 40
0.0
 40
0.0
 40
0.0
 40
0.0
 40
1.0
 40
1.0
 40
1.0
 40
2.0
 40
2.0
 40
2.0
 40
3.0
 40
3.0
 40
3.0
 40
4.0
 40
4.0
 40
4.0
 40
5.0
 40
5.0
 40
5.0
 40
6.0
 40
6.0
 40
6.0
 40
7.0
 40
7.0
 40
7.0
 40
8.0
 40
8.0
 40
8.0
 40
9.0
 40
9.0
 40
9.0
 40
10.0
 40
10.0
 40
10.0
 40
11.0
 40
11.0
 40
11.0
 40
12.0
 40
12.0
 40
12.0
 40
13.0
 40
13.0
 40
13.0
 40
14.0
 40
14.0
 40
14.0
 40
15.0
 40
15.0
 40
15.0
 40
16.0
 40
16.0
 40
16.0
 40
17.0
 40
17.0
 40
17.0
 40
18.0
 40
18.0
 40
18.0
 40
19.0
 40
19.0
 40
19.0
 40
20.0
 40
20.0
 40
20.0
 40
21.0
 40
21.0
 40
21.0
 40
22.0
 40
22.0
 40
22.0
 40
23.0
 40
23.0
 40
23.0
 40
24.0
 40
24.0
 40
24.0
 40
25.0
 40
25.0
 40
25.0
 40
26.0
 40
26.0
 40
26.0
 40
27.0
 40
27.0
 40
27.0
 40
28.0
 40
28.0
 40
28.0
 40
29.0
 40
29.0
 40
29.0
 40
30.0
 40
30.0
 40
30.0
 40
31.0
 40
31.0
 40
31.0
 40
31.0
 10
-1.132119861009616
 20
-2.312686086262526
 10
-1.113021704240812
 20
-2.312686086262526
 10
-1.100021151741556
 20
-2.318342668839629
 10
-1.093137378368081
 20
-2.329675008850018
 10
-1.086704214115141
 20
-2.32257072463032
 10
-1.079484880758223
 20
-2.317297639177064
 10
-1.07148896572552
 20
-2.313846165062235
 10
-1.063493050692765
 20
-2.310404278375472
 10
-1.05427953229178
 20
-2.308688128746148
 10
-1.043838823094347
 20
-2.308688128746148
 10
-1.027626482182667
 20
-2.308688128746148
 10
-1.014299957128135
 20
-2.31312710795497
 10
-1.003859247930728
 20
-2.32201465380068
 10
-0.9934281261614362
 20
-2.330892612218324
 10
-0.9882029778486614
 20
-2.342224952228738
 10
-0.9882029778486614
 20
-2.355992498975739
 10
-0.9882029778486614
 20
-2.367535762404259
 10
-0.9924214462112609
 20
-2.376921854511036
 10
-1.000858382936435
 20
-2.384141187867903
 10
-1.0093049070897
 20
-2.391360521224821
 10
-1.020186637979577
 20
-2.394965394189209
 10
-1.033513163034109
 20
-2.394965394189209
 10
-1.046619177242418
 20
-2.394965394189209
 10
-1.057328334426529
 20
-2.39163855663959
 10
-1.065659809442675
 20
-2.384975294112312
 10
-1.073981697030679
 20
-2.378312031585084
 10
-1.078152228252798
 20
-2.369875094859885
 10
-1.078152228252798
 20
-2.359654896508725
 10
-1.078152228252798
 20
-2.350987861509212
 10
-1.07515136325848
 20
-2.343883577289489
 10
-1.069149633269919
 20
-2.338332456421439
 10
-1.063157490709399
 20
-2.332781335553389
 10
-1.055497135660062
 20
-2.330000981405318
 10
-1.046168568121882
 20
-2.330000981405318
 10
-1.045497448155098
 20
-2.328898427174181
 10
-1.045171475599798
 20
-2.327786285514953
 10
-1.045171475599798
 20
-2.326674143855724
 10
-1.045171475599798
 20
-2.323567817152404
 10
-1.047501220627333
 20
-2.32201465380068
 10
-1.052160710682377
 20
-2.32201465380068
 10
-1.061939887341092
 20
-2.32201465380068
 10
-1.070376824066291
 20
-2.325734575902263
 10
-1.077481108286015
 20
-2.333174420105378
 10
-1.084594979933829
 20
-2.340614264308492
 10
-1.088142328329645
 20
-2.349549747294683
 10
-1.088142328329645
 20
-2.359990456492091
 10
-1.088142328329645
 20
-2.368868414909735
 10
-1.085640009596369
 20
-2.376701343664813
 10
-1.080644959557958
 20
-2.383470067901145
 10
-1.075649909519497
 20
-2.390248379565592
 10
-1.068488100731227
 20
-2.395626926727876
 10
-1.059159533193047
 20
-2.399624884244228
 10
-1.056053206489676
 20
-2.400957536749704
 10
-1.054001496876961
 20
-2.402462762960896
 10
-1.052994816926811
 20
-2.404130975449738
 10
-1.051997724404727
 20
-2.405789600510464
 10
-1.05149917814371
 20
-2.408627479227132
 10
-1.05149917814371
 20
-2.412625436743509
 10
-1.05149917814371
 20
-2.412625436743509
 10
-1.05149917814371
 20
-2.471252559555397
 10
-1.05149917814371
 20
-2.471252559555397
 10
-1.05149917814371
 20
-2.47835684377512
 10
-1.055276624813814
 20
-2.481913779599002
 10
-1.062821930726007
 20
-2.481913779599002
 10
-1.062821930726007
 20
-2.481913779599002
 10
-1.130451648520799
 20
-2.481913779599002
 10
-1.130451648520799
 20
-2.481913779599002
 10
-1.137335421894275
 20
-2.481913779599002
 10
-1.140777308581038
 20
-2.47835684377512
 10
-1.140777308581038
 20
-2.471252559555397
 10
-1.140777308581038
 20
-2.471252559555397
 10
-1.140777308581038
 20
-2.353653166520113
 10
-1.140777308581038
 20
-2.353653166520113
 10
-1.140777308581038
 20
-2.345887349761698
 10
-1.141889450240266
 20
-2.339943144341684
 10
-1.144104146130631
 20
-2.335839725116279
 10
-1.146328429449088
 20
-2.331726718462758
 10
-1.150441436102609
 20
-2.327901334652122
 10
-1.156433578663104
 20
-2.324344398828215
 10
-1.157986742014777
 20
-2.323452768015234
 10
-1.15893589739638
 20
-2.322733710907944
 10
-1.15926186995163
 20
-2.322177640078356
 10
-1.159597429935072
 20
-2.321621569248741
 10
-1.159760416212698
 20
-2.320902512141477
 10
-1.159760416212698
 20
-2.320010881328446
 10
-1.159760416212698
 20
-2.320010881328446
 10
-1.159760416212698
 20
-2.316012923812094
 10
-1.159760416212698
 20
-2.316012923812094
 10
-1.159760416212698
 20
-2.313798227921729
 10
-1.158427763707247
 20
-2.312686086262526
 10
-1.15576245869632
 20
-2.312686086262526
 10
-1.15576245869632
 20
-2.312686086262526
 10
-1.132119861009616
 20
-2.312686086262526
 10
-1.132119861009616
 20
-2.312686086262526
 97
        0
 97
        0
 75
     2
 76
     1
 98
        0
  0
SPLINE
  5
7F
330
72
100
AcDbEntity
  8
_U+5F6B_U+523B_U+30D1_U+30B9
370
     0
100
AcDbSpline
210
0.0
220
0.0
230
1.0
 70
    11
 71
     3
 72
    98
 73
    94
 74
     0
 42
0.0000000001
 43
0.0000000001
 12
1.0
 22
0.0
 32
0.0
 13
1.0
 23
0.0
 33
0.0
 40
0.0
 40
0.0
 40
0.0
 40
0.0
 40
1.0
 40
1.0
 40
1.0
 40
2.0
 40
2.0
 40
2.0
 40
3.0
 40
3.0
 40
3.0
 40
4.0
 40
4.0
 40
4.0
 40
5.0
 40
5.0
 40
5.0
 40
6.0
 40
6.0
 40
6.0
 40
7.0
 40
7.0
 40
7.0
 40
8.0
 40
8.0
 40
8.0
 40
9.0
 40
9.0
 40
9.0
 40
10.0
 40
10.0
 40
10.0
 40
11.0
 40
11.0
 40
11.0
 40
12.0
 40
12.0
 40
12.0
 40
13.0
 40
13.0
 40
13.0
 40
14.0
 40
14.0
 40
14.0
 40
15.0
 40
15.0
 40
15.0
 40
16.0
 40
16.0
 40
16.0
 40
17.0
 40
17.0
 40
17.0
 40
18.0
 40
18.0
 40
18.0
 40
19.0
 40
19.0
 40
19.0
 40
20.0
 40
20.0
 40
20.0
 40
21.0
 40
21.0
 40
21.0
 40
22.0
 40
22.0
 40
22.0
 40
23.0
 40
23.0
 40
23.0
 40
24.0
 40
24.0
 40
24.0
 40
25.0
 40
25.0
 40
25.0
 40
26.0
 40
26.0
 40
26.0
 40
27.0
 40
27.0
 40
27.0
 40
28.0
 40
28.0
 40
28.0
 40
29.0
 40
29.0
 40
29.0
 40
30.0
 40
30.0
 40
30.0
 40
31.0
 40
31.0
 40
31.0
 40
31.0
 10
-0.9652219127006497
 20
-2.312686086262526
 30
0.0
 10
-0.9461237559318457
 20
-2.312686086262526
 30
0.0
 10
-0.9331232034325896
 20
-2.318342668839629
 30
0.0
 10
-0.9262394300591141
 20
-2.329675008850018
 30
0.0
 10
-0.9198062658061492
 20
-2.32257072463032
 30
0.0
 10
-0.9125869324492567
 20
-2.317297639177064
 30
0.0
 10
-0.9045910174165277
 20
-2.313846165062235
 30
0.0
 10
-0.8965951023837988
 20
-2.310404278375472
 30
0.0
 10
-0.8873815839827885
 20
-2.308688128746148
 30
0.0
 10
-0.8769408747853554
 20
-2.308688128746148
 30
0.0
 10
-0.8607285338737003
 20
-2.308688128746148
 30
0.0
 10
-0.8474020088191435
 20
-2.31312710795497
 30
0.0
 10
-0.8369612996217357
 20
-2.32201465380068
 30
0.0
 10
-0.8265301778524442
 20
-2.330892612218324
 30
0.0
 10
-0.8213050295396948
 20
-2.342224952228738
 30
0.0
 10
-0.8213050295396948
 20
-2.355992498975739
 30
0.0
 10
-0.8213050295396948
 20
-2.367535762404259
 30
0.0
 10
-0.825523497902269
 20
-2.376921854511036
 30
0.0
 10
-0.8339604346274427
 20
-2.384141187867903
 30
0.0
 10
-0.8424069587807328
 20
-2.391360521224821
 30
0.0
 10
-0.8532886896705855
 20
-2.394965394189209
 30
0.0
 10
-0.8666152147251421
 20
-2.394965394189209
 30
0.0
 10
-0.8797212289334513
 20
-2.394965394189209
 30
0.0
 10
-0.8904303861175624
 20
-2.39163855663959
 30
0.0
 10
-0.898761861133658
 20
-2.384975294112312
 30
0.0
 10
-0.9070837487217128
 20
-2.378312031585084
 30
0.0
 10
-0.9112542799438313
 20
-2.369875094859885
 30
0.0
 10
-0.9112542799438313
 20
-2.359654896508725
 30
0.0
 10
-0.9112542799438313
 20
-2.350987861509212
 30
0.0
 10
-0.9082534149494879
 20
-2.343883577289489
 30
0.0
 10
-0.9022516849609271
 20
-2.338332456421439
 30
0.0
 10
-0.896259542400407
 20
-2.332781335553389
 30
0.0
 10
-0.888599187351095
 20
-2.330000981405318
 30
0.0
 10
-0.8792706198128901
 20
-2.330000981405318
 30
0.0
 10
-0.878599499846132
 20
-2.328898427174181
 30
0.0
 10
-0.8782735272908313
 20
-2.327786285514953
 30
0.0
 10
-0.8782735272908313
 20
-2.326674143855724
 30
0.0
 10
-0.8782735272908313
 20
-2.323567817152404
 30
0.0
 10
-0.8806032723183408
 20
-2.32201465380068
 30
0.0
 10
-0.8852627623734103
 20
-2.32201465380068
 30
0.0
 10
-0.8950419390321258
 20
-2.32201465380068
 30
0.0
 10
-0.9034788757572995
 20
-2.325734575902263
 30
0.0
 10
-0.9105831599770479
 20
-2.333174420105378
 30
0.0
 10
-0.9176970316248622
 20
-2.340614264308492
 30
0.0
 10
-0.9212443800206529
 20
-2.349549747294683
 30
0.0
 10
-0.9212443800206529
 20
-2.359990456492091
 30
0.0
 10
-0.9212443800206529
 20
-2.368868414909735
 30
0.0
 10
-0.9187420612874019
 20
-2.376701343664813
 30
0.0
 10
-0.9137470112489406
 20
-2.383470067901145
 30
0.0
 10
-0.9087519612105299
 20
-2.390248379565592
 30
0.0
 10
-0.9015901524222347
 20
-2.395626926727876
 30
0.0
 10
-0.8922615848840552
 20
-2.399624884244228
 30
0.0
 10
-0.8891552581806839
 20
-2.400957536749704
 30
0.0
 10
-0.8871035485679688
 20
-2.402462762960896
 30
0.0
 10
-0.8860968686178188
 20
-2.404130975449738
 30
0.0
 10
-0.88509977609576
 20
-2.405789600510464
 30
0.0
 10
-0.8846012298347179
 20
-2.408627479227132
 30
0.0
 10
-0.8846012298347179
 20
-2.412625436743509
 30
0.0
 10
-0.8846012298347179
 20
-2.412625436743509
 30
0.0
 10
-0.8846012298347179
 20
-2.471252559555397
 30
0.0
 10
-0.8846012298347179
 20
-2.471252559555397
 30
0.0
 10
-0.8846012298347179
 20
-2.47835684377512
 30
0.0
 10
-0.8883786765048474
 20
-2.481913779599002
 30
0.0
 10
-0.8959239824170152
 20
-2.481913779599002
 30
0.0
 10
-0.8959239824170152
 20
-2.481913779599002
 30
0.0
 10
-0.9635537002118073
 20
-2.481913779599002
 30
0.0
 10
-0.9635537002118073
 20
-2.481913779599002
 30
0.0
 10
-0.9704374735853081
 20
-2.481913779599002
 30
0.0
 10
-0.9738793602720458
 20
-2.47835684377512
 30
0.0
 10
-0.9738793602720458
 20
-2.471252559555397
 30
0.0
 10
-0.9738793602720458
 20
-2.471252559555397
 30
0.0
 10
-0.9738793602720458
 20
-2.353653166520113
 30
0.0
 10
-0.9738793602720458
 20
-2.353653166520113
 30
0.0
 10
-0.9738793602720458
 20
-2.345887349761698
 30
0.0
 10
-0.974991501931274
 20
-2.339943144341684
 30
0.0
 10
-0.9772061978216394
 20
-2.335839725116279
 30
0.0
 10
-0.9794304811400959
 20
-2.331726718462758
 30
0.0
 10
-0.9835434877936171
 20
-2.327901334652122
 30
0.0
 10
-0.9895356303541121
 20
-2.324344398828215
 30
0.0
 10
-0.9910887937057851
 20
-2.323452768015234
 30
0.0
 10
-0.9920379490873882
 20
-2.322733710907944
 30
0.0
 10
-0.9923639216426636
 20
-2.322177640078356
 30
0.0
 10
-0.9926994816260554
 20
-2.321621569248741
 30
0.0
 10
-0.9928624679037057
 20
-2.320902512141477
 30
0.0
 10
-0.9928624679037057
 20
-2.320010881328446
 30
0.0
 10
-0.9928624679037057
 20
-2.320010881328446
 30
0.0
 10
-0.9928624679037057
 20
-2.316012923812094
 30
0.0
 10
-0.9928624679037057
 20
-2.316012923812094
 30
0.0
 10
-0.9928624679037057
 20
-2.313798227921729
 30
0.0
 10
-0.991529815398255
 20
-2.312686086262526
 30
0.0
 10
-0.9888645103873285
 20
-2.312686086262526
 30
0.0
 10
-0.9888645103873285
 20
-2.312686086262526
 30
0.0
 10
-0.9652219127006497
 20
-2.312686086262526
 30
0.0
 10
-0.9652219127006497
 20
-2.312686086262526
 30
0.0
  0
HATCH
  5
80
330
72
100
AcDbEntity
  8
_U+5F6B_U+523B_U+30D1_U+30B9
 62
     7
420
 16777215
100
AcDbHatch
 10
0.0
 20
0.0
 30
0.0
210
0.0
220
0.0
230
1.0
  2
SOLID
 70
     1
 71
     0
 91
        1
 92
        1
 93
        1
 72
     4
 94
        3
 73
     0
 74
     1
 95
       98
 96
       94
 40
0.0
 40
0.0
 40
0.0
 40
0.0
 40
1.0
 40
1.0
 40
1.0
 40
2.0
 40
2.0
 40
2.0
 40
3.0
 40
3.0
 40
3.0
 40
4.0
 40
4.0
 40
4.0
 40
5.0
 40
5.0
 40
5.0
 40
6.0
 40
6.0
 40
6.0
 40
7.0
 40
7.0
 40
7.0
 40
8.0
 40
8.0
 40
8.0
 40
9.0
 40
9.0
 40
9.0
 40
10.0
 40
10.0
 40
10.0
 40
11.0
 40
11.0
 40
11.0
 40
12.0
 40
12.0
 40
12.0
 40
13.0
 40
13.0
 40
13.0
 40
14.0
 40
14.0
 40
14.0
 40
15.0
 40
15.0
 40
15.0
 40
16.0
 40
16.0
 40
16.0
 40
17.0
 40
17.0
 40
17.0
 40
18.0
 40
18.0
 40
18.0
 40
19.0
 40
19.0
 40
19.0
 40
20.0
 40
20.0
 40
20.0
 40
21.0
 40
21.0
 40
21.0
 40
22.0
 40
22.0
 40
22.0
 40
23.0
 40
23.0
 40
23.0
 40
24.0
 40
24.0
 40
24.0
 40
25.0
 40
25.0
 40
25.0
 40
26.0
 40
26.0
 40
26.0
 40
27.0
 40
27.0
 40
27.0
 40
28.0
 40
28.0
 40
28.0
 40
29.0
 40
29.0
 40
29.0
 40
30.0
 40
30.0
 40
30.0
 40
31.0
 40
31.0
 40
31.0
 40
31.0
 10
-0.9652219127006497
 20
-2.312686086262526
 10
-0.9461237559318457
 20
-2.312686086262526
 10
-0.9331232034325896
 20
-2.318342668839629
 10
-0.9262394300591141
 20
-2.329675008850018
 10
-0.9198062658061492
 20
-2.32257072463032
 10
-0.9125869324492567
 20
-2.317297639177064
 10
-0.9045910174165277
 20
-2.313846165062235
 10
-0.8965951023837988
 20
-2.310404278375472
 10
-0.8873815839827885
 20
-2.308688128746148
 10
-0.8769408747853554
 20
-2.308688128746148
 10
-0.8607285338737003
 20
-2.308688128746148
 10
-0.8474020088191435
 20
-2.31312710795497
 10
-0.8369612996217357
 20
-2.32201465380068
 10
-0.8265301778524442
 20
-2.330892612218324
 10
-0.8213050295396948
 20
-2.342224952228738
 10
-0.8213050295396948
 20
-2.355992498975739
 10
-0.8213050295396948
 20
-2.367535762404259
 10
-0.825523497902269
 20
-2.376921854511036
 10
-0.8339604346274427
 20
-2.384141187867903
 10
-0.8424069587807328
 20
-2.391360521224821
 10
-0.8532886896705855
 20
-2.394965394189209
 10
-0.8666152147251421
 20
-2.394965394189209
 10
-0.8797212289334513
 20
-2.394965394189209
 10
-0.8904303861175624
 20
-2.39163855663959
 10
-0.898761861133658
 20
-2.384975294112312
 10
-0.9070837487217128
 20
-2.378312031585084
 10
-0.9112542799438313
 20
-2.369875094859885
 10
-0.9112542799438313
 20
-2.359654896508725
 10
-0.9112542799438313
 20
-2.350987861509212
 10
-0.9082534149494879
 20
-2.343883577289489
 10
-0.9022516849609271
 20
-2.338332456421439
 10
-0.896259542400407
 20
-2.332781335553389
 10
-0.888599187351095
 20
-2.330000981405318
 10
-0.8792706198128901
 20
-2.330000981405318
 10
-0.878599499846132
 20
-2.328898427174181
 10
-0.8782735272908313
 20
-2.327786285514953
 10
-0.8782735272908313
 20
-2.326674143855724
 10
-0.8782735272908313
 20
-2.323567817152404
 10
-0.8806032723183408
 20
-2.32201465380068
 10
-0.8852627623734103
 20
-2.32201465380068
 10
-0.8950419390321258
 20
-2.32201465380068
 10
-0.9034788757572995
 20
-2.325734575902263
 10
-0.9105831599770479
 20
-2.333174420105378
 10
-0.9176970316248622
 20
-2.340614264308492
 10
-0.9212443800206529
 20
-2.349549747294683
 10
-0.9212443800206529
 20
-2.359990456492091
 10
-0.9212443800206529
 20
-2.368868414909735
 10
-0.9187420612874019
 20
-2.376701343664813
 10
-0.9137470112489406
 20
-2.383470067901145
 10
-0.9087519612105299
 20
-2.390248379565592
 10
-0.9015901524222347
 20
-2.395626926727876
 10
-0.8922615848840552
 20
-2.399624884244228
 10
-0.8891552581806839
 20
-2.400957536749704
 10
-0.8871035485679688
 20
-2.402462762960896
 10
-0.8860968686178188
 20
-2.404130975449738
 10
-0.88509977609576
 20
-2.405789600510464
 10
-0.8846012298347179
 20
-2.408627479227132
 10
-0.8846012298347179
 20
-2.412625436743509
 10
-0.8846012298347179
 20
-2.412625436743509
 10
-0.8846012298347179
 20
-2.471252559555397
 10
-0.8846012298347179
 20
-2.471252559555397
 10
-0.8846012298347179
 20
-2.47835684377512
 10
-0.8883786765048474
 20
-2.481913779599002
 10
-0.8959239824170152
 20
-2.481913779599002
 10
-0.8959239824170152
 20
-2.481913779599002
 10
-0.9635537002118073
 20
-2.481913779599002
 10
-0.9635537002118073
 20
-2.481913779599002
 10
-0.9704374735853081
 20
-2.481913779599002
 10
-0.9738793602720458
 20
-2.47835684377512
 10
-0.9738793602720458
 20
-2.471252559555397
 10
-0.9738793602720458
 20
-2.471252559555397
 10
-0.9738793602720458
 20
-2.353653166520113
 10
-0.9738793602720458
 20
-2.353653166520113
 10
-0.9738793602720458
 20
-2.345887349761698
 10
-0.974991501931274
 20
-2.339943144341684
 10
-0.9772061978216394
 20
-2.335839725116279
 10
-0.9794304811400959
 20
-2.331726718462758
 10
-0.9835434877936171
 20
-2.327901334652122
 10
-0.9895356303541121
 20
-2.324344398828215
 10
-0.9910887937057851
 20
-2.323452768015234
 10
-0.9920379490873882
 20
-2.322733710907944
 10
-0.9923639216426636
 20
-2.322177640078356
 10
-0.9926994816260554
 20
-2.321621569248741
 10
-0.9928624679037057
 20
-2.320902512141477
 10
-0.9928624679037057
 20
-2.320010881328446
 10
-0.9928624679037057
 20
-2.320010881328446
 10
-0.9928624679037057
 20
-2.316012923812094
 10
-0.9928624679037057
 20
-2.316012923812094
 10
-0.9928624679037057
 20
-2.313798227921729
 10
-0.991529815398255
 20
-2.312686086262526
 10
-0.9888645103873285
 20
-2.312686086262526
 10
-0.9888645103873285
 20
-2.312686086262526
 10
-0.9652219127006497
 20
-2.312686086262526
 10
-0.9652219127006497
 20
-2.312686086262526
 97
        0
 97
        0
 75
     2
 76
     1
 98
        0
  0
SPLINE
  5
81
330
72
100
AcDbEntity
  8
_U+5F6B_U+523B_U+30D1_U+30B9
370
     0
100
AcDbSpline
210
0.0
220
0.0
230
1.0
 70
    11
 71
     3
 72
   134
 73
   130
 74
     0
 42
0.0000000001
 43
0.0000000001
 12
1.0
 22
0.0
 32
0.0
 13
1.0
 23
0.0
 33
0.0
 40
0.0
 40
0.0
 40
0.0
 40
0.0
 40
1.0
 40
1.0
 40
1.0
 40
2.0
 40
2.0
 40
2.0
 40
3.0
 40
3.0
 40
3.0
 40
4.0
 40
4.0
 40
4.0
 40
5.0
 40
5.0
 40
5.0
 40
6.0
 40
6.0
 40
6.0
 40
7.0
 40
7.0
 40
7.0
 40
8.0
 40
8.0
 40
8.0
 40
9.0
 40
9.0
 40
9.0
 40
10.0
 40
10.0
 40
10.0
 40
11.0
 40
11.0
 40
11.0
 40
12.0
 40
12.0
 40
12.0
 40
13.0
 40
13.0
 40
13.0
 40
14.0
 40
14.0
 40
14.0
 40
15.0
 40
15.0
 40
15.0
 40
16.0
 40
16.0
 40
16.0
 40
17.0
 40
17.0
 40
17.0
 40
18.0
 40
18.0
 40
18.0
 40
19.0
 40
19.0
 40
19.0
 40
20.0
 40
20.0
 40
20.0
 40
21.0
 40
21.0
 40
21.0
 40
22.0
 40
22.0
 40
22.0
 40
23.0
 40
23.0
 40
23.0
 40
24.0
 40
24.0
 40
24.0
 40
25.0
 40
25.0
 40
25.0
 40
26.0
 40
26.0
 40
26.0
 40
27.0
 40
27.0
 40
27.0
 40
28.0
 40
28.0
 40
28.0
 40
29.0
 40
29.0
 40
29.0
 40
30.0
 40
30.0
 40
30.0
 40
31.0
 40
31.0
 40
31.0
 40
32.0
 40
32.0
 40
32.0
 40
33.0
 40
33.0
 40
33.0
 40
34.0
 40
34.0
 40
34.0
 40
35.0
 40
35.0
 40
35.0
 40
36.0
 40
36.0
 40
36.0
 40
37.0
 40
37.0
 40
37.0
 40
38.0
 40
38.0
 40
38.0
 40
39.0
 40
39.0
 40
39.0
 40
40.0
 40
40.0
 40
40.0
 40
41.0
 40
41.0
 40
41.0
 40
42.0
 40
42.0
 40
42.0
 40
43.0
 40
43.0
 40
43.0
 40
43.0
 10
-0.8136446744903575
 20
-2.341668881399123
 30
0.0
 10
-0.814977326995808
 20
-2.337891434728994
 30
0.0
 10
-0.8168085257623008
 20
-2.334785108025623
 30
0.0
 10
-0.8191382707898103
 20
-2.332340313860944
 30
0.0
 10
-0.8214680158173198
 20
-2.329895519696265
 30
0.0
 10
-0.8249674270726548
 20
-2.327230214685339
 30
0.0
 10
-0.8296365045557902
 20
-2.324344398828215
 30
0.0
 10
-0.8318512004461556
 20
-2.323011746322739
 30
0.0
 10
-0.8329633421053838
 20
-2.321564044680144
 30
0.0
 10
-0.8329633421053838
 20
-2.320010881328446
 30
0.0
 10
-0.8329633421053838
 20
-2.320010881328446
 30
0.0
 10
-0.8329633421053838
 20
-2.316012923812094
 30
0.0
 10
-0.8329633421053838
 20
-2.316012923812094
 30
0.0
 10
-0.8329633421053838
 20
-2.313798227921729
 30
0.0
 10
-0.8316306895999332
 20
-2.312686086262526
 30
0.0
 10
-0.8289653845890319
 20
-2.312686086262526
 30
0.0
 10
-0.8289653845890319
 20
-2.312686086262526
 30
0.0
 10
-0.7770015243043973
 20
-2.312686086262526
 30
0.0
 10
-0.7770015243043973
 20
-2.312686086262526
 30
0.0
 10
-0.7619013250519452
 20
-2.312686086262526
 30
0.0
 10
-0.7507415587472981
 20
-2.313846165062235
 30
0.0
 10
-0.7435222253903804
 20
-2.31617591008977
 30
0.0
 10
-0.7363028920335132
 20
-2.318515242545371
 30
0.0
 10
-0.7306463094564101
 20
-2.32257072463032
 30
0.0
 10
-0.7265333028028887
 20
-2.328342356344592
 30
0.0
 10
-0.7224202961493675
 20
-2.334113988058839
 30
0.0
 10
-0.7184798632015877
 20
-2.342665973921207
 30
0.0
 10
-0.7147024165314076
 20
-2.353988726503505
 30
0.0
 10
-0.7147024165314076
 20
-2.353988726503505
 30
0.0
 10
-0.6827283438286333
 20
-2.45060123943487
 30
0.0
 10
-0.6827283438286333
 20
-2.45060123943487
 30
0.0
 10
-0.6816162021694051
 20
-2.451713381094123
 30
0.0
 10
-0.6802835496639292
 20
-2.452259864495646
 30
0.0
 10
-0.6787303863122562
 20
-2.452259864495646
 30
0.0
 10
-0.6753939613345715
 20
-2.452259864495646
 30
0.0
 10
-0.6737257488457544
 20
-2.450380728588673
 30
0.0
 10
-0.6737257488457544
 20
-2.446603281918543
 30
0.0
 10
-0.6737257488457544
 20
-2.444378998600087
 30
0.0
 10
-0.674617379658735
 20
-2.440716601067101
 30
0.0
 10
-0.6763910538566557
 20
-2.435606501891496
 30
0.0
 10
-0.6763910538566557
 20
-2.435606501891496
 30
0.0
 10
-0.7063805289434033
 20
-2.343998626426658
 30
0.0
 10
-0.7063805289434033
 20
-2.343998626426658
 30
0.0
 10
-0.7092663448005522
 20
-2.335120668009015
 30
0.0
 10
-0.7118166006743093
 20
-2.329339448866651
 30
0.0
 10
-0.7140408839927659
 20
-2.326674143855724
 30
0.0
 10
-0.7160350690368836
 20
-2.324229349691045
 30
0.0
 10
-0.7173197844018533
 20
-2.322628249198866
 30
0.0
 10
-0.717866267803351
 20
-2.321842080094939
 30
0.0
 10
-0.7184223386329904
 20
-2.321065498419128
 30
0.0
 10
-0.7187003740477849
 20
-2.320125930465615
 30
0.0
 10
-0.7187003740477849
 20
-2.319013788806387
 30
0.0
 10
-0.7187003740477849
 20
-2.319013788806387
 30
0.0
 10
-0.7187003740477849
 20
-2.316012923812094
 30
0.0
 10
-0.7187003740477849
 20
-2.316012923812094
 30
0.0
 10
-0.7187003740477849
 20
-2.313798227921729
 30
0.0
 10
-0.7173677215423595
 20
-2.312686086262526
 30
0.0
 10
-0.7147024165314076
 20
-2.312686086262526
 30
0.0
 10
-0.7147024165314076
 20
-2.312686086262526
 30
0.0
 10
-0.620429236055669
 20
-2.312686086262526
 30
0.0
 10
-0.620429236055669
 20
-2.312686086262526
 30
0.0
 10
-0.6124333210229148
 20
-2.312686086262526
 30
0.0
 10
-0.6084353635065882
 20
-2.315571902119649
 30
0.0
 10
-0.6084353635065882
 20
-2.321343533833922
 30
0.0
 10
-0.6084353635065882
 20
-2.326674143855724
 30
0.0
 10
-0.6141015335117824
 20
-2.344890257239639
 30
0.0
 10
-0.6254242860940799
 20
-2.375972699129433
 30
0.0
 10
-0.6367566261044683
 20
-2.407074315875459
 30
0.0
 10
-0.6521923853403374
 20
-2.446603281918543
 30
0.0
 10
-0.6717315638015862
 20
-2.4945691846868
 30
0.0
 10
-0.6788454354494003
 20
-2.512114178103906
 30
0.0
 10
-0.6858346705319793
 20
-2.525718738573282
 30
0.0
 10
-0.6927184439055054
 20
-2.535382866094854
 30
0.0
 10
-0.6996022172789809
 20
-2.545037406188309
 30
0.0
 10
-0.707205047759746
 20
-2.55192117956181
 30
0.0
 10
-0.7155365227758416
 20
-2.556034186215331
 30
0.0
 10
-0.7238679977919875
 20
-2.560137605440736
 30
0.0
 10
-0.733695111591184
 20
-2.562198902481567
 30
0.0
 10
-0.7450178641735066
 20
-2.562198902481567
 30
0.0
 10
-0.7614603033595004
 20
-2.562198902481567
 30
0.0
 10
-0.7747197164173687
 20
-2.558526917520491
 30
0.0
 10
-0.7848248656313848
 20
-2.551202122454545
 30
0.0
 10
-0.794939602273492
 20
-2.5438773273886
 30
0.0
 10
-0.799982589452409
 20
-2.534213199867029
 30
0.0
 10
-0.799982589452409
 20
-2.522219327317922
 30
0.0
 10
-0.799982589452409
 20
-2.51177861812054
 30
0.0
 10
-0.7958791702269788
 20
-2.503341681395366
 30
0.0
 10
-0.7876627443480275
 20
-2.496898929714285
 30
0.0
 10
-0.7794463184690761
 20
-2.490456178033279
 30
0.0
 10
-0.768785098425446
 20
-2.48724438962083
 30
0.0
 10
-0.7556790842171368
 20
-2.48724438962083
 30
0.0
 10
-0.7434647008218083
 20
-2.48724438962083
 30
0.0
 10
-0.7334746007449616
 20
-2.490178142618459
 30
0.0
 10
-0.7256991965584549
 20
-2.496064823469876
 30
0.0
 10
-0.7179237923719484
 20
-2.501951504321318
 30
0.0
 10
-0.7140408839927659
 20
-2.509563922230174
 30
0.0
 10
-0.7140408839927659
 20
-2.518892489768354
 30
0.0
 10
-0.7140408839927659
 20
-2.525996773988077
 30
0.0
 10
-0.7164281535888727
 20
-2.53149037028753
 30
0.0
 10
-0.7212026927810358
 20
-2.535382866094854
 30
0.0
 10
-0.7259772319732747
 20
-2.539265774474036
 30
0.0
 10
-0.7326980190691251
 20
-2.541212022377699
 30
0.0
 10
-0.7413554666405212
 20
-2.541212022377699
 30
0.0
 10
-0.7418060757610571
 20
-2.542094065762563
 30
0.0
 10
-0.7420169991792136
 20
-2.543091158284672
 30
0.0
 10
-0.7420169991792136
 20
-2.5442032999439
 30
0.0
 10
-0.7420169991792136
 20
-2.547309626647246
 30
0.0
 10
-0.7394667433054565
 20
-2.54887237742701
 30
0.0
 10
-0.734356644129851
 20
-2.54887237742701
 30
0.0
 10
-0.7256991965584549
 20
-2.54887237742701
 30
0.0
 10
-0.7184798632015877
 20
-2.545919449573224
 30
0.0
 10
-0.71270823148729
 20
-2.540042356149873
 30
0.0
 10
-0.7069365997730427
 20
-2.534155675298431
 30
0.0
 10
-0.7040411964878027
 20
-2.526773355663913
 30
0.0
 10
-0.7040411964878027
 20
-2.517885809818179
 30
0.0
 10
-0.7040411964878027
 20
-2.507445100620771
 30
0.0
 10
-0.7077131814488792
 20
-2.498845177617947
 30
0.0
 10
-0.7150379765147995
 20
-2.492076453381615
 30
0.0
 10
-0.7223627715807702
 20
-2.485298141717193
 30
0.0
 10
-0.7330239916244005
 20
-2.480696176230695
 30
0.0
 10
-0.7470216366457154
 20
-2.478251382066042
 30
0.0
 10
-0.7550079642503533
 20
-2.476918729560616
 30
0.0
 10
-0.7602331125631281
 20
-2.475135467934579
 30
0.0
 10
-0.7626779067277817
 20
-2.472920772044214
 30
0.0
 10
-0.7651227008924858
 20
-2.470696488725757
 30
0.0
 10
-0.7676729567662429
 20
-2.465816487824516
 30
0.0
 10
-0.7703382617771442
 20
-2.458261594484232
 30
0.0
 10
-0.7703382617771442
 20
-2.458261594484232
 30
0.0
 10
-0.8136446744903575
 20
-2.341668881399123
 30
0.0
 10
-0.8136446744903575
 20
-2.341668881399123
 30
0.0
  0
HATCH
  5
82
330
72
100
AcDbEntity
  8
_U+5F6B_U+523B_U+30D1_U+30B9
 62
     7
420
 16777215
100
AcDbHatch
 10
0.0
 20
0.0
 30
0.0
210
0.0
220
0.0
230
1.0
  2
SOLID
 70
     1
 71
     0
 91
        1
 92
        1
 93
        1
 72
     4
 94
        3
 73
     0
 74
     1
 95
      134
 96
      130
 40
0.0
 40
0.0
 40
0.0
 40
0.0
 40
1.0
 40
1.0
 40
1.0
 40
2.0
 40
2.0
 40
2.0
 40
3.0
 40
3.0
 40
3.0
 40
4.0
 40
4.0
 40
4.0
 40
5.0
 40
5.0
 40
5.0
 40
6.0
 40
6.0
 40
6.0
 40
7.0
 40
7.0
 40
7.0
 40
8.0
 40
8.0
 40
8.0
 40
9.0
 40
9.0
 40
9.0
 40
10.0
 40
10.0
 40
10.0
 40
11.0
 40
11.0
 40
11.0
 40
12.0
 40
12.0
 40
12.0
 40
13.0
 40
13.0
 40
13.0
 40
14.0
 40
14.0
 40
14.0
 40
15.0
 40
15.0
 40
15.0
 40
16.0
 40
16.0
 40
16.0
 40
17.0
 40
17.0
 40
17.0
 40
18.0
 40
18.0
 40
18.0
 40
19.0
 40
19.0
 40
19.0
 40
20.0
 40
20.0
 40
20.0
 40
21.0
 40
21.0
 40
21.0
 40
22.0
 40
22.0
 40
22.0
 40
23.0
 40
23.0
 40
23.0
 40
24.0
 40
24.0
 40
24.0
 40
25.0
 40
25.0
 40
25.0
 40
26.0
 40
26.0
 40
26.0
 40
27.0
 40
27.0
 40
27.0
 40
28.0
 40
28.0
 40
28.0
 40
29.0
 40
29.0
 40
29.0
 40
30.0
 40
30.0
 40
30.0
 40
31.0
 40
31.0
 40
31.0
 40
32.0
 40
32.0
 40
32.0
 40
33.0
 40
33.0
 40
33.0
 40
34.0
 40
34.0
 40
34.0
 40
35.0
 40
35.0
 40
35.0
 40
36.0
 40
36.0
 40
36.0
 40
37.0
 40
37.0
 40
37.0
 40
38.0
 40
38.0
 40
38.0
 40
39.0
 40
39.0
 40
39.0
 40
40.0
 40
40.0
 40
40.0
 40
41.0
 40
41.0
 40
41.0
 40
42.0
 40
42.0
 40
42.0
 40
43.0
 40
43.0
 40
43.0
 40
43.0
 10
-0.8136446744903575
 20
-2.341668881399123
 10
-0.814977326995808
 20
-2.337891434728994
 10
-0.8168085257623008
 20
-2.334785108025623
 10
-0.8191382707898103
 20
-2.332340313860944
 10
-0.8214680158173198
 20
-2.329895519696265
 10
-0.8249674270726548
 20
-2.327230214685339
 10
-0.8296365045557902
 20
-2.324344398828215
 10
-0.8318512004461556
 20
-2.323011746322739
 10
-0.8329633421053838
 20
-2.321564044680144
 10
-0.8329633421053838
 20
-2.320010881328446
 10
-0.8329633421053838
 20
-2.320010881328446
 10
-0.8329633421053838
 20
-2.316012923812094
 10
-0.8329633421053838
 20
-2.316012923812094
 10
-0.8329633421053838
 20
-2.313798227921729
 10
-0.8316306895999332
 20
-2.312686086262526
 10
-0.8289653845890319
 20
-2.312686086262526
 10
-0.8289653845890319
 20
-2.312686086262526
 10
-0.7770015243043973
 20
-2.312686086262526
 10
-0.7770015243043973
 20
-2.312686086262526
 10
-0.7619013250519452
 20
-2.312686086262526
 10
-0.7507415587472981
 20
-2.313846165062235
 10
-0.7435222253903804
 20
-2.31617591008977
 10
-0.7363028920335132
 20
-2.318515242545371
 10
-0.7306463094564101
 20
-2.32257072463032
 10
-0.7265333028028887
 20
-2.328342356344592
 10
-0.7224202961493675
 20
-2.334113988058839
 10
-0.7184798632015877
 20
-2.342665973921207
 10
-0.7147024165314076
 20
-2.353988726503505
 10
-0.7147024165314076
 20
-2.353988726503505
 10
-0.6827283438286333
 20
-2.45060123943487
 10
-0.6827283438286333
 20
-2.45060123943487
 10
-0.6816162021694051
 20
-2.451713381094123
 10
-0.6802835496639292
 20
-2.452259864495646
 10
-0.6787303863122562
 20
-2.452259864495646
 10
-0.6753939613345715
 20
-2.452259864495646
 10
-0.6737257488457544
 20
-2.450380728588673
 10
-0.6737257488457544
 20
-2.446603281918543
 10
-0.6737257488457544
 20
-2.444378998600087
 10
-0.674617379658735
 20
-2.440716601067101
 10
-0.6763910538566557
 20
-2.435606501891496
 10
-0.6763910538566557
 20
-2.435606501891496
 10
-0.7063805289434033
 20
-2.343998626426658
 10
-0.7063805289434033
 20
-2.343998626426658
 10
-0.7092663448005522
 20
-2.335120668009015
 10
-0.7118166006743093
 20
-2.329339448866651
 10
-0.7140408839927659
 20
-2.326674143855724
 10
-0.7160350690368836
 20
-2.324229349691045
 10
-0.7173197844018533
 20
-2.322628249198866
 10
-0.717866267803351
 20
-2.321842080094939
 10
-0.7184223386329904
 20
-2.321065498419128
 10
-0.7187003740477849
 20
-2.320125930465615
 10
-0.7187003740477849
 20
-2.319013788806387
 10
-0.7187003740477849
 20
-2.319013788806387
 10
-0.7187003740477849
 20
-2.316012923812094
 10
-0.7187003740477849
 20
-2.316012923812094
 10
-0.7187003740477849
 20
-2.313798227921729
 10
-0.7173677215423595
 20
-2.312686086262526
 10
-0.7147024165314076
 20
-2.312686086262526
 10
-0.7147024165314076
 20
-2.312686086262526
 10
-0.620429236055669
 20
-2.312686086262526
 10
-0.620429236055669
 20
-2.312686086262526
 10
-0.6124333210229148
 20
-2.312686086262526
 10
-0.6084353635065882
 20
-2.315571902119649
 10
-0.6084353635065882
 20
-2.321343533833922
 10
-0.6084353635065882
 20
-2.326674143855724
 10
-0.6141015335117824
 20
-2.344890257239639
 10
-0.6254242860940799
 20
-2.375972699129433
 10
-0.6367566261044683
 20
-2.407074315875459
 10
-0.6521923853403374
 20
-2.446603281918543
 10
-0.6717315638015862
 20
-2.4945691846868
 10
-0.6788454354494003
 20
-2.512114178103906
 10
-0.6858346705319793
 20
-2.525718738573282
 10
-0.6927184439055054
 20
-2.535382866094854
 10
-0.6996022172789809
 20
-2.545037406188309
 10
-0.707205047759746
 20
-2.55192117956181
 10
-0.7155365227758416
 20
-2.556034186215331
 10
-0.7238679977919875
 20
-2.560137605440736
 10
-0.733695111591184
 20
-2.562198902481567
 10
-0.7450178641735066
 20
-2.562198902481567
 10
-0.7614603033595004
 20
-2.562198902481567
 10
-0.7747197164173687
 20
-2.558526917520491
 10
-0.7848248656313848
 20
-2.551202122454545
 10
-0.794939602273492
 20
-2.5438773273886
 10
-0.799982589452409
 20
-2.534213199867029
 10
-0.799982589452409
 20
-2.522219327317922
 10
-0.799982589452409
 20
-2.51177861812054
 10
-0.7958791702269788
 20
-2.503341681395366
 10
-0.7876627443480275
 20
-2.496898929714285
 10
-0.7794463184690761
 20
-2.490456178033279
 10
-0.768785098425446
 20
-2.48724438962083
 10
-0.7556790842171368
 20
-2.48724438962083
 10
-0.7434647008218083
 20
-2.48724438962083
 10
-0.7334746007449616
 20
-2.490178142618459
 10
-0.7256991965584549
 20
-2.496064823469876
 10
-0.7179237923719484
 20
-2.501951504321318
 10
-0.7140408839927659
 20
-2.509563922230174
 10
-0.7140408839927659
 20
-2.518892489768354
 10
-0.7140408839927659
 20
-2.525996773988077
 10
-0.7164281535888727
 20
-2.53149037028753
 10
-0.7212026927810358
 20
-2.535382866094854
 10
-0.7259772319732747
 20
-2.539265774474036
 10
-0.7326980190691251
 20
-2.541212022377699
 10
-0.7413554666405212
 20
-2.541212022377699
 10
-0.7418060757610571
 20
-2.542094065762563
 10
-0.7420169991792136
 20
-2.543091158284672
 10
-0.7420169991792136
 20
-2.5442032999439
 10
-0.7420169991792136
 20
-2.547309626647246
 10
-0.7394667433054565
 20
-2.54887237742701
 10
-0.734356644129851
 20
-2.54887237742701
 10
-0.7256991965584549
 20
-2.54887237742701
 10
-0.7184798632015877
 20
-2.545919449573224
 10
-0.71270823148729
 20
-2.540042356149873
 10
-0.7069365997730427
 20
-2.534155675298431
 10
-0.7040411964878027
 20
-2.526773355663913
 10
-0.7040411964878027
 20
-2.517885809818179
 10
-0.7040411964878027
 20
-2.507445100620771
 10
-0.7077131814488792
 20
-2.498845177617947
 10
-0.7150379765147995
 20
-2.492076453381615
 10
-0.7223627715807702
 20
-2.485298141717193
 10
-0.7330239916244005
 20
-2.480696176230695
 10
-0.7470216366457154
 20
-2.478251382066042
 10
-0.7550079642503533
 20
-2.476918729560616
 10
-0.7602331125631281
 20
-2.475135467934579
 10
-0.7626779067277817
 20
-2.472920772044214
 10
-0.7651227008924858
 20
-2.470696488725757
 10
-0.7676729567662429
 20
-2.465816487824516
 10
-0.7703382617771442
 20
-2.458261594484232
 10
-0.7703382617771442
 20
-2.458261594484232
 10
-0.8136446744903575
 20
-2.341668881399123
 10
-0.8136446744903575
 20
-2.341668881399123
 97
        0
 97
        0
 75
     2
 76
     1
 98
        0
  0
ENDBLK
  5
75
330
72
100
AcDbEntity
  8
0
100
AcDbBlockEnd
  0
BLOCK
  5
85
330
83
100
AcDbEntity
  8
0
100
AcDbBlockBegin
  2
block 8
 70
     0
 10
0.0
 20
0.0
 30
0.0
  3
block 8
  1

  0
INSERT
  5
88
330
83
100
AcDbEntity
  8
_U+5F6B_U+523B_U+30D1_U+30B9
100
AcDbBlockReference
  2
block 9
 10
0.0
 20
0.0
 30
0.0
  0
SPLINE
  5
94
330
83
100
AcDbEntity
  8
_U+5F6B_U+523B_U+30D1_U+30B9
370
     0
100
AcDbSpline
210
0.0
220
0.0
230
1.0
 70
    11
 71
     3
 72
    32
 73
    28
 74
     0
 42
0.0000000001
 43
0.0000000001
 12
1.0
 22
0.0
 32
0.0
 13
1.0
 23
0.0
 33
0.0
 40
0.0
 40
0.0
 40
0.0
 40
0.0
 40
1.0
 40
1.0
 40
1.0
 40
2.0
 40
2.0
 40
2.0
 40
3.0
 40
3.0
 40
3.0
 40
4.0
 40
4.0
 40
4.0
 40
5.0
 40
5.0
 40
5.0
 40
6.0
 40
6.0
 40
6.0
 40
7.0
 40
7.0
 40
7.0
 40
8.0
 40
8.0
 40
8.0
 40
9.0
 40
9.0
 40
9.0
 40
9.0
 10
-1.040420606548347
 20
-2.199658926811278
 30
0.0
 10
-1.073284647346958
 20
-2.199658926811278
 30
0.0
 10
-1.108657911235847
 20
-2.1774963834085
 30
0.0
 10
-1.108657911235847
 20
-2.128858145561278
 30
0.0
 10
-1.108657911235847
 20
-2.082552807019611
 30
0.0
 10
-1.07447144205182
 20
-2.058328631672389
 30
0.0
 10
-1.040705437277514
 20
-2.058328631672389
 30
0.0
 10
-0.9991676226073751
 20
-2.058328631672389
 30
0.0
 10
-0.9767609385795973
 20
-2.091165545734889
 30
0.0
 10
-0.9767609385795973
 20
-2.122062898165445
 30
0.0
 10
-0.9767609385795973
 20
-2.122062898165445
 30
0.0
 10
-0.9767609385795973
 20
-2.131909903373778
 30
0.0
 10
-0.9767609385795973
 20
-2.131909903373778
 30
0.0
 10
-0.9767609385795973
 20
-2.131909903373778
 30
0.0
 10
-1.088916429030986
 20
-2.131909903373778
 30
0.0
 10
-1.088916429030986
 20
-2.131909903373778
 30
0.0
 10
-1.087546528857375
 20
-2.165072338269611
 30
0.0
 10
-1.063885233284458
 20
-2.179964916394611
 30
0.0
 10
-1.040420606548347
 20
-2.179964916394611
 30
0.0
 10
-1.023425706374736
 20
-2.179964916394611
 30
0.0
 10
-1.002856858718486
 20
-2.171257234102945
 30
0.0
 10
-0.996088738058764
 20
-2.146802481498778
 30
0.0
 10
-0.996088738058764
 20
-2.146802481498778
 30
0.0
 10
-0.9771135861490418
 20
-2.152037941568222
 30
0.0
 10
-0.9771135861490418
 20
-2.152037941568222
 30
0.0
 10
-0.9851159733018195
 20
-2.180968605630722
 30
0.0
 10
-1.009964063579597
 20
-2.199658926811278
 30
0.0
 10
-1.040420606548347
 20
-2.199658926811278
 30
0.0
  0
SPLINE
  5
95
330
83
100
AcDbEntity
  8
_U+5F6B_U+523B_U+30D1_U+30B9
370
     0
100
AcDbSpline
210
0.0
220
0.0
230
1.0
 70
    11
 71
     3
 72
    14
 73
    10
 74
     0
 42
0.0000000001
 43
0.0000000001
 12
1.0
 22
0.0
 32
0.0
 13
1.0
 23
0.0
 33
0.0
 40
0.0
 40
0.0
 40
0.0
 40
0.0
 40
1.0
 40
1.0
 40
1.0
 40
2.0
 40
2.0
 40
2.0
 40
3.0
 40
3.0
 40
3.0
 40
3.0
 10
-1.086888705506681
 20
-2.112215892957111
 30
0.0
 10
-1.086888705506681
 20
-2.112215892957111
 30
0.0
 10
-0.9974450748643195
 20
-2.112215892957111
 30
0.0
 10
-0.9974450748643195
 20
-2.112215892957111
 30
0.0
 10
-1.00110718423932
 20
-2.094352937227945
 30
0.0
 10
-1.014982509760153
 20
-2.078022642089056
 30
0.0
 10
-1.040705437277514
 20
-2.078022642089056
 30
0.0
 10
-1.060535081374736
 20
-2.078022642089056
 30
0.0
 10
-1.080520704204597
 20
-2.088724139484889
 30
0.0
 10
-1.086888705506681
 20
-2.112215892957111
 30
0.0
  0
HATCH
  5
96
330
83
100
AcDbEntity
  8
_U+5F6B_U+523B_U+30D1_U+30B9
 62
     7
420
 16777215
100
AcDbHatch
 10
0.0
 20
0.0
 30
0.0
210
0.0
220
0.0
230
1.0
  2
SOLID
 70
     1
 71
     0
 91
        2
 92
        1
 93
        1
 72
     4
 94
        3
 73
     0
 74
     1
 95
       32
 96
       28
 40
0.0
 40
0.0
 40
0.0
 40
0.0
 40
1.0
 40
1.0
 40
1.0
 40
2.0
 40
2.0
 40
2.0
 40
3.0
 40
3.0
 40
3.0
 40
4.0
 40
4.0
 40
4.0
 40
5.0
 40
5.0
 40
5.0
 40
6.0
 40
6.0
 40
6.0
 40
7.0
 40
7.0
 40
7.0
 40
8.0
 40
8.0
 40
8.0
 40
9.0
 40
9.0
 40
9.0
 40
9.0
 10
-1.040420606548347
 20
-2.199658926811278
 10
-1.073284647346958
 20
-2.199658926811278
 10
-1.108657911235847
 20
-2.1774963834085
 10
-1.108657911235847
 20
-2.128858145561278
 10
-1.108657911235847
 20
-2.082552807019611
 10
-1.07447144205182
 20
-2.058328631672389
 10
-1.040705437277514
 20
-2.058328631672389
 10
-0.9991676226073751
 20
-2.058328631672389
 10
-0.9767609385795973
 20
-2.091165545734889
 10
-0.9767609385795973
 20
-2.122062898165445
 10
-0.9767609385795973
 20
-2.122062898165445
 10
-0.9767609385795973
 20
-2.131909903373778
 10
-0.9767609385795973
 20
-2.131909903373778
 10
-0.9767609385795973
 20
-2.131909903373778
 10
-1.088916429030986
 20
-2.131909903373778
 10
-1.088916429030986
 20
-2.131909903373778
 10
-1.087546528857375
 20
-2.165072338269611
 10
-1.063885233284458
 20
-2.179964916394611
 10
-1.040420606548347
 20
-2.179964916394611
 10
-1.023425706374736
 20
-2.179964916394611
 10
-1.002856858718486
 20
-2.171257234102945
 10
-0.996088738058764
 20
-2.146802481498778
 10
-0.996088738058764
 20
-2.146802481498778
 10
-0.9771135861490418
 20
-2.152037941568222
 10
-0.9771135861490418
 20
-2.152037941568222
 10
-0.9851159733018195
 20
-2.180968605630722
 10
-1.009964063579597
 20
-2.199658926811278
 10
-1.040420606548347
 20
-2.199658926811278
 97
        0
 97
        0
 92
        1
 93
        1
 72
     4
 94
        3
 73
     0
 74
     1
 95
       14
 96
       10
 40
0.0
 40
0.0
 40
0.0
 40
0.0
 40
1.0
 40
1.0
 40
1.0
 40
2.0
 40
2.0
 40
2.0
 40
3.0
 40
3.0
 40
3.0
 40
3.0
 10
-1.086888705506681
 20
-2.112215892957111
 10
-1.086888705506681
 20
-2.112215892957111
 10
-0.9974450748643195
 20
-2.112215892957111
 10
-0.9974450748643195
 20
-2.112215892957111
 10
-1.00110718423932
 20
-2.094352937227945
 10
-1.014982509760153
 20
-2.078022642089056
 10
-1.040705437277514
 20
-2.078022642089056
 10
-1.060535081374736
 20
-2.078022642089056
 10
-1.080520704204597
 20
-2.088724139484889
 10
-1.086888705506681
 20
-2.112215892957111
 97
        0
 97
        0
 75
     2
 76
     1
 98
        0
  0
ENDBLK
  5
86
330
83
100
AcDbEntity
  8
0
100
AcDbBlockEnd
  0
BLOCK
  5
89
330
87
100
AcDbEntity
  8
0
100
AcDbBlockBegin
  2
block 9
 70
     0
 10
0.0
 20
0.0
 30
0.0
  3
block 9
  1

  0
SPLINE
  5
8B
330
87
100
AcDbEntity
  8
_U+5F6B_U+523B_U+30D1_U+30B9
370
     0
100
AcDbSpline
210
0.0
220
0.0
230
1.0
 70
    11
 71
     3
 72
    35
 73
    31
 74
     0
 42
0.0000000001
 43
0.0000000001
 12
1.0
 22
0.0
 32
0.0
 13
1.0
 23
0.0
 33
0.0
 40
0.0
 40
0.0
 40
0.0
 40
0.0
 40
1.0
 40
1.0
 40
1.0
 40
2.0
 40
2.0
 40
2.0
 40
3.0
 40
3.0
 40
3.0
 40
4.0
 40
4.0
 40
4.0
 40
5.0
 40
5.0
 40
5.0
 40
6.0
 40
6.0
 40
6.0
 40
7.0
 40
7.0
 40
7.0
 40
8.0
 40
8.0
 40
8.0
 40
9.0
 40
9.0
 40
9.0
 40
10.0
 40
10.0
 40
10.0
 40
10.0
 10
-1.705079894742792
 20
-2.199658926811278
 30
0.0
 10
-1.737943935541403
 20
-2.199658926811278
 30
0.0
 10
-1.773317199430292
 20
-2.1774963834085
 30
0.0
 10
-1.773317199430292
 20
-2.128844582193222
 30
0.0
 10
-1.773317199430292
 20
-2.082539243651556
 30
0.0
 10
-1.739130730246264
 20
-2.058315068304334
 30
0.0
 10
-1.705364725471958
 20
-2.058315068304334
 30
0.0
 10
-1.674718295350431
 20
-2.058315068304334
 30
0.0
 10
-1.649754916444181
 20
-2.077046079589056
 30
0.0
 10
-1.641772874343486
 20
-2.106030997123778
 30
0.0
 10
-1.641772874343486
 20
-2.106030997123778
 30
0.0
 10
-1.660748026253208
 20
-2.111266457193222
 30
0.0
 10
-1.660748026253208
 20
-2.111266457193222
 30
0.0
 10
-1.667509365228903
 20
-2.086743887748778
 30
0.0
 10
-1.688227409933764
 20
-2.078009078721
 30
0.0
 10
-1.705364725471958
 20
-2.078009078721
 30
0.0
 10
-1.729392231982375
 20
-2.078009078721
 30
0.0
 10
-1.753636752381681
 20
-2.093729022297389
 30
0.0
 10
-1.753636752381681
 20
-2.128844582193222
 30
0.0
 10
-1.753636752381681
 20
-2.164163592609889
 30
0.0
 10
-1.729249816617792
 20
-2.179964916394611
 30
0.0
 10
-1.705079894742792
 20
-2.179964916394611
 30
0.0
 10
-1.688084994569181
 20
-2.179964916394611
 30
0.0
 10
-1.667509365228903
 20
-2.171257234102945
 30
0.0
 10
-1.660748026253208
 20
-2.146788918130722
 30
0.0
 10
-1.660748026253208
 20
-2.146788918130722
 30
0.0
 10
-1.641772874343486
 20
-2.152024378200167
 30
0.0
 10
-1.641772874343486
 20
-2.152024378200167
 30
0.0
 10
-1.649775261496264
 20
-2.180955042262667
 30
0.0
 10
-1.674623351774042
 20
-2.199658926811278
 30
0.0
 10
-1.705079894742792
 20
-2.199658926811278
 30
0.0
  0
HATCH
  5
8C
330
87
100
AcDbEntity
  8
_U+5F6B_U+523B_U+30D1_U+30B9
 62
     7
420
 16777215
100
AcDbHatch
 10
0.0
 20
0.0
 30
0.0
210
0.0
220
0.0
230
1.0
  2
SOLID
 70
     1
 71
     0
 91
        1
 92
        1
 93
        1
 72
     4
 94
        3
 73
     0
 74
     1
 95
       35
 96
       31
 40
0.0
 40
0.0
 40
0.0
 40
0.0
 40
1.0
 40
1.0
 40
1.0
 40
2.0
 40
2.0
 40
2.0
 40
3.0
 40
3.0
 40
3.0
 40
4.0
 40
4.0
 40
4.0
 40
5.0
 40
5.0
 40
5.0
 40
6.0
 40
6.0
 40
6.0
 40
7.0
 40
7.0
 40
7.0
 40
8.0
 40
8.0
 40
8.0
 40
9.0
 40
9.0
 40
9.0
 40
10.0
 40
10.0
 40
10.0
 40
10.0
 10
-1.705079894742792
 20
-2.199658926811278
 10
-1.737943935541403
 20
-2.199658926811278
 10
-1.773317199430292
 20
-2.1774963834085
 10
-1.773317199430292
 20
-2.128844582193222
 10
-1.773317199430292
 20
-2.082539243651556
 10
-1.739130730246264
 20
-2.058315068304334
 10
-1.705364725471958
 20
-2.058315068304334
 10
-1.674718295350431
 20
-2.058315068304334
 10
-1.649754916444181
 20
-2.077046079589056
 10
-1.641772874343486
 20
-2.106030997123778
 10
-1.641772874343486
 20
-2.106030997123778
 10
-1.660748026253208
 20
-2.111266457193222
 10
-1.660748026253208
 20
-2.111266457193222
 10
-1.667509365228903
 20
-2.086743887748778
 10
-1.688227409933764
 20
-2.078009078721
 10
-1.705364725471958
 20
-2.078009078721
 10
-1.729392231982375
 20
-2.078009078721
 10
-1.753636752381681
 20
-2.093729022297389
 10
-1.753636752381681
 20
-2.128844582193222
 10
-1.753636752381681
 20
-2.164163592609889
 10
-1.729249816617792
 20
-2.179964916394611
 10
-1.705079894742792
 20
-2.179964916394611
 10
-1.688084994569181
 20
-2.179964916394611
 10
-1.667509365228903
 20
-2.171257234102945
 10
-1.660748026253208
 20
-2.146788918130722
 10
-1.660748026253208
 20
-2.146788918130722
 10
-1.641772874343486
 20
-2.152024378200167
 10
-1.641772874343486
 20
-2.152024378200167
 10
-1.649775261496264
 20
-2.180955042262667
 10
-1.674623351774042
 20
-2.199658926811278
 10
-1.705079894742792
 20
-2.199658926811278
 97
        0
 97
        0
 75
     2
 76
     1
 98
        0
  0
SPLINE
  5
8D
330
87
100
AcDbEntity
  8
_U+5F6B_U+523B_U+30D1_U+30B9
370
     0
100
AcDbSpline
210
0.0
220
0.0
230
1.0
 70
    11
 71
     3
 72
    23
 73
    19
 74
     0
 42
0.0000000001
 43
0.0000000001
 12
1.0
 22
0.0
 32
0.0
 13
1.0
 23
0.0
 33
0.0
 40
0.0
 40
0.0
 40
0.0
 40
0.0
 40
1.0
 40
1.0
 40
1.0
 40
2.0
 40
2.0
 40
2.0
 40
3.0
 40
3.0
 40
3.0
 40
4.0
 40
4.0
 40
4.0
 40
5.0
 40
5.0
 40
5.0
 40
6.0
 40
6.0
 40
6.0
 40
6.0
 10
-1.513110764968486
 20
-2.199658926811278
 30
0.0
 10
-1.513429504117792
 20
-2.199658926811278
 30
0.0
 10
-1.513755024951125
 20
-2.199658926811278
 30
0.0
 10
-1.514073764100431
 20
-2.199658926811278
 30
0.0
 10
-1.549107943787931
 20
-2.199319842609889
 30
0.0
 10
-1.584555806201125
 20
-2.174987160318222
 30
0.0
 10
-1.584555806201125
 20
-2.129142976290445
 30
0.0
 10
-1.584555806201125
 20
-2.082647750596
 30
0.0
 10
-1.548606099169875
 20
-2.058315068304334
 30
0.0
 10
-1.513090419916403
 20
-2.058315068304334
 30
0.0
 10
-1.47785278970807
 20
-2.058315068304334
 30
0.0
 10
-1.442181131721958
 20
-2.082647750596
 30
0.0
 10
-1.442181131721958
 20
-2.129142976290445
 30
0.0
 10
-1.442181131721958
 20
-2.149284577852945
 30
0.0
 10
-1.449030632590014
 20
-2.166686379068222
 30
0.0
 10
-1.461997212451125
 20
-2.179503761880722
 30
0.0
 10
-1.474997700732375
 20
-2.192348271429334
 30
0.0
 10
-1.493579514968486
 20
-2.199658926811278
 30
0.0
 10
-1.513110764968486
 20
-2.199658926811278
 30
0.0
  0
SPLINE
  5
8E
330
87
100
AcDbEntity
  8
_U+5F6B_U+523B_U+30D1_U+30B9
370
     0
100
AcDbSpline
210
0.0
220
0.0
230
1.0
 70
    11
 71
     3
 72
    26
 73
    22
 74
     0
 42
0.0000000001
 43
0.0000000001
 12
1.0
 22
0.0
 32
0.0
 13
1.0
 23
0.0
 33
0.0
 40
0.0
 40
0.0
 40
0.0
 40
0.0
 40
1.0
 40
1.0
 40
1.0
 40
2.0
 40
2.0
 40
2.0
 40
3.0
 40
3.0
 40
3.0
 40
4.0
 40
4.0
 40
4.0
 40
5.0
 40
5.0
 40
5.0
 40
6.0
 40
6.0
 40
6.0
 40
7.0
 40
7.0
 40
7.0
 40
7.0
 10
-1.513090419916403
 20
-2.078009078721
 30
0.0
 10
-1.538867600905986
 20
-2.078009078721
 30
0.0
 10
-1.564875359152514
 20
-2.093810402505722
 30
0.0
 10
-1.564875359152514
 20
-2.129142976290445
 30
0.0
 10
-1.564875359152514
 20
-2.163919451984889
 30
0.0
 10
-1.53925415689557
 20
-2.179734339137667
 30
0.0
 10
-1.513856750211542
 20
-2.179964916394611
 30
0.0
 10
-1.513856750211542
 20
-2.179964916394611
 30
0.0
 10
-1.513829623475431
 20
-2.179964916394611
 30
0.0
 10
-1.513829623475431
 20
-2.179964916394611
 30
0.0
 10
-1.513592264534458
 20
-2.179978479762667
 30
0.0
 10
-1.513348123909458
 20
-2.179978479762667
 30
0.0
 10
-1.513103983284458
 20
-2.179978479762667
 30
0.0
 10
-1.498720031461542
 20
-2.179978479762667
 30
0.0
 10
-1.485170226774042
 20
-2.174715892957111
 30
0.0
 10
-1.475831847867792
 20
-2.165492802679334
 30
0.0
 10
-1.466696919482375
 20
-2.156473162922389
 30
0.0
 10
-1.46186157877057
 20
-2.143899920734889
 30
0.0
 10
-1.46186157877057
 20
-2.129142976290445
 30
0.0
 10
-1.46186157877057
 20
-2.094013853026556
 30
0.0
 10
-1.488418653423347
 20
-2.078009078721
 30
0.0
 10
-1.513090419916403
 20
-2.078009078721
 30
0.0
  0
HATCH
  5
8F
330
87
100
AcDbEntity
  8
_U+5F6B_U+523B_U+30D1_U+30B9
 62
     7
420
 16777215
100
AcDbHatch
 10
0.0
 20
0.0
 30
0.0
210
0.0
220
0.0
230
1.0
  2
SOLID
 70
     1
 71
     0
 91
        2
 92
        1
 93
        1
 72
     4
 94
        3
 73
     0
 74
     1
 95
       23
 96
       19
 40
0.0
 40
0.0
 40
0.0
 40
0.0
 40
1.0
 40
1.0
 40
1.0
 40
2.0
 40
2.0
 40
2.0
 40
3.0
 40
3.0
 40
3.0
 40
4.0
 40
4.0
 40
4.0
 40
5.0
 40
5.0
 40
5.0
 40
6.0
 40
6.0
 40
6.0
 40
6.0
 10
-1.513110764968486
 20
-2.199658926811278
 10
-1.513429504117792
 20
-2.199658926811278
 10
-1.513755024951125
 20
-2.199658926811278
 10
-1.514073764100431
 20
-2.199658926811278
 10
-1.549107943787931
 20
-2.199319842609889
 10
-1.584555806201125
 20
-2.174987160318222
 10
-1.584555806201125
 20
-2.129142976290445
 10
-1.584555806201125
 20
-2.082647750596
 10
-1.548606099169875
 20
-2.058315068304334
 10
-1.513090419916403
 20
-2.058315068304334
 10
-1.47785278970807
 20
-2.058315068304334
 10
-1.442181131721958
 20
-2.082647750596
 10
-1.442181131721958
 20
-2.129142976290445
 10
-1.442181131721958
 20
-2.149284577852945
 10
-1.449030632590014
 20
-2.166686379068222
 10
-1.461997212451125
 20
-2.179503761880722
 10
-1.474997700732375
 20
-2.192348271429334
 10
-1.493579514968486
 20
-2.199658926811278
 10
-1.513110764968486
 20
-2.199658926811278
 97
        0
 97
        0
 92
        1
 93
        1
 72
     4
 94
        3
 73
     0
 74
     1
 95
       26
 96
       22
 40
0.0
 40
0.0
 40
0.0
 40
0.0
 40
1.0
 40
1.0
 40
1.0
 40
2.0
 40
2.0
 40
2.0
 40
3.0
 40
3.0
 40
3.0
 40
4.0
 40
4.0
 40
4.0
 40
5.0
 40
5.0
 40
5.0
 40
6.0
 40
6.0
 40
6.0
 40
7.0
 40
7.0
 40
7.0
 40
7.0
 10
-1.513090419916403
 20
-2.078009078721
 10
-1.538867600905986
 20
-2.078009078721
 10
-1.564875359152514
 20
-2.093810402505722
 10
-1.564875359152514
 20
-2.129142976290445
 10
-1.564875359152514
 20
-2.163919451984889
 10
-1.53925415689557
 20
-2.179734339137667
 10
-1.513856750211542
 20
-2.179964916394611
 10
-1.513856750211542
 20
-2.179964916394611
 10
-1.513829623475431
 20
-2.179964916394611
 10
-1.513829623475431
 20
-2.179964916394611
 10
-1.513592264534458
 20
-2.179978479762667
 10
-1.513348123909458
 20
-2.179978479762667
 10
-1.513103983284458
 20
-2.179978479762667
 10
-1.498720031461542
 20
-2.179978479762667
 10
-1.485170226774042
 20
-2.174715892957111
 10
-1.475831847867792
 20
-2.165492802679334
 10
-1.466696919482375
 20
-2.156473162922389
 10
-1.46186157877057
 20
-2.143899920734889
 10
-1.46186157877057
 20
-2.129142976290445
 10
-1.46186157877057
 20
-2.094013853026556
 10
-1.488418653423347
 20
-2.078009078721
 10
-1.513090419916403
 20
-2.078009078721
 97
        0
 97
        0
 75
     2
 76
     1
 98
        0
  0
SPLINE
  5
90
330
87
100
AcDbEntity
  8
_U+5F6B_U+523B_U+30D1_U+30B9
370
     0
100
AcDbSpline
210
0.0
220
0.0
230
1.0
 70
    11
 71
     3
 72
    29
 73
    25
 74
     0
 42
0.0000000001
 43
0.0000000001
 12
1.0
 22
0.0
 32
0.0
 13
1.0
 23
0.0
 33
0.0
 40
0.0
 40
0.0
 40
0.0
 40
0.0
 40
1.0
 40
1.0
 40
1.0
 40
2.0
 40
2.0
 40
2.0
 40
3.0
 40
3.0
 40
3.0
 40
4.0
 40
4.0
 40
4.0
 40
5.0
 40
5.0
 40
5.0
 40
6.0
 40
6.0
 40
6.0
 40
7.0
 40
7.0
 40
7.0
 40
8.0
 40
8.0
 40
8.0
 40
8.0
 10
-1.356969271912931
 20
-2.192307581325167
 30
0.0
 10
-1.356969271912931
 20
-2.192307581325167
 30
0.0
 10
-1.376649718961542
 20
-2.192307581325167
 30
0.0
 10
-1.376649718961542
 20
-2.192307581325167
 30
0.0
 10
-1.376649718961542
 20
-2.192307581325167
 30
0.0
 10
-1.376649718961542
 20
-2.121845884276556
 30
0.0
 10
-1.376649718961542
 20
-2.121845884276556
 30
0.0
 10
-1.376649718961542
 20
-2.100904043998778
 30
0.0
 10
-1.36737915689557
 20
-2.081969582193222
 30
0.0
 10
-1.35120484048932
 20
-2.069871057887667
 30
0.0
 10
-1.335288228076125
 20
-2.057989547471
 30
0.0
 10
-1.314916049256681
 20
-2.054476635144611
 30
0.0
 10
-1.295303419048347
 20
-2.060268193304334
 30
0.0
 10
-1.295303419048347
 20
-2.060268193304334
 30
0.0
 10
-1.300877963319181
 20
-2.079148401637667
 30
0.0
 10
-1.300877963319181
 20
-2.079148401637667
 30
0.0
 10
-1.314495584846958
 20
-2.075106517957111
 30
0.0
 10
-1.328533670784458
 20
-2.077493670734889
 30
0.0
 10
-1.339418273649042
 20
-2.085645254936278
 30
0.0
 10
-1.350567362190708
 20
-2.093973162922389
 30
0.0
 10
-1.356969271912931
 20
-2.107170320040445
 30
0.0
 10
-1.356969271912931
 20
-2.121845884276556
 30
0.0
 10
-1.356969271912931
 20
-2.121845884276556
 30
0.0
 10
-1.356969271912931
 20
-2.192307581325167
 30
0.0
 10
-1.356969271912931
 20
-2.192307581325167
 30
0.0
  0
HATCH
  5
91
330
87
100
AcDbEntity
  8
_U+5F6B_U+523B_U+30D1_U+30B9
 62
     7
420
 16777215
100
AcDbHatch
 10
0.0
 20
0.0
 30
0.0
210
0.0
220
0.0
230
1.0
  2
SOLID
 70
     1
 71
     0
 91
        1
 92
        1
 93
        1
 72
     4
 94
        3
 73
     0
 74
     1
 95
       29
 96
       25
 40
0.0
 40
0.0
 40
0.0
 40
0.0
 40
1.0
 40
1.0
 40
1.0
 40
2.0
 40
2.0
 40
2.0
 40
3.0
 40
3.0
 40
3.0
 40
4.0
 40
4.0
 40
4.0
 40
5.0
 40
5.0
 40
5.0
 40
6.0
 40
6.0
 40
6.0
 40
7.0
 40
7.0
 40
7.0
 40
8.0
 40
8.0
 40
8.0
 40
8.0
 10
-1.356969271912931
 20
-2.192307581325167
 10
-1.356969271912931
 20
-2.192307581325167
 10
-1.376649718961542
 20
-2.192307581325167
 10
-1.376649718961542
 20
-2.192307581325167
 10
-1.376649718961542
 20
-2.192307581325167
 10
-1.376649718961542
 20
-2.121845884276556
 10
-1.376649718961542
 20
-2.121845884276556
 10
-1.376649718961542
 20
-2.100904043998778
 10
-1.36737915689557
 20
-2.081969582193222
 10
-1.35120484048932
 20
-2.069871057887667
 10
-1.335288228076125
 20
-2.057989547471
 10
-1.314916049256681
 20
-2.054476635144611
 10
-1.295303419048347
 20
-2.060268193304334
 10
-1.295303419048347
 20
-2.060268193304334
 10
-1.300877963319181
 20
-2.079148401637667
 10
-1.300877963319181
 20
-2.079148401637667
 10
-1.314495584846958
 20
-2.075106517957111
 10
-1.328533670784458
 20
-2.077493670734889
 10
-1.339418273649042
 20
-2.085645254936278
 10
-1.350567362190708
 20
-2.093973162922389
 10
-1.356969271912931
 20
-2.107170320040445
 10
-1.356969271912931
 20
-2.121845884276556
 10
-1.356969271912931
 20
-2.121845884276556
 10
-1.356969271912931
 20
-2.192307581325167
 10
-1.356969271912931
 20
-2.192307581325167
 97
        0
 97
        0
 75
     2
 76
     1
 98
        0
  0
SPLINE
  5
92
330
87
100
AcDbEntity
  8
_U+5F6B_U+523B_U+30D1_U+30B9
370
     0
100
AcDbSpline
210
0.0
220
0.0
230
1.0
 70
    11
 71
     3
 72
    41
 73
    37
 74
     0
 42
0.0000000001
 43
0.0000000001
 12
1.0
 22
0.0
 32
0.0
 13
1.0
 23
0.0
 33
0.0
 40
0.0
 40
0.0
 40
0.0
 40
0.0
 40
1.0
 40
1.0
 40
1.0
 40
2.0
 40
2.0
 40
2.0
 40
3.0
 40
3.0
 40
3.0
 40
4.0
 40
4.0
 40
4.0
 40
5.0
 40
5.0
 40
5.0
 40
6.0
 40
6.0
 40
6.0
 40
7.0
 40
7.0
 40
7.0
 40
8.0
 40
8.0
 40
8.0
 40
9.0
 40
9.0
 40
9.0
 40
10.0
 40
10.0
 40
10.0
 40
11.0
 40
11.0
 40
11.0
 40
12.0
 40
12.0
 40
12.0
 40
12.0
 10
-1.140789530159458
 20
-2.192307581325167
 30
0.0
 10
-1.140789530159458
 20
-2.192307581325167
 30
0.0
 10
-1.16046997720807
 20
-2.192307581325167
 30
0.0
 10
-1.16046997720807
 20
-2.192307581325167
 30
0.0
 10
-1.16046997720807
 20
-2.192307581325167
 30
0.0
 10
-1.16046997720807
 20
-2.122876700248778
 30
0.0
 10
-1.16046997720807
 20
-2.122876700248778
 30
0.0
 10
-1.16046997720807
 20
-2.089971969346
 30
0.0
 10
-1.169265821392097
 20
-2.078714373859889
 30
0.0
 10
-1.195314269742792
 20
-2.078293909450167
 30
0.0
 10
-1.207514519308764
 20
-2.077819191568222
 30
0.0
 10
-1.217388651253208
 20
-2.081562681151556
 30
0.0
 10
-1.224665398215014
 20
-2.088683449380722
 30
0.0
 10
-1.232484679899042
 20
-2.096360315700167
 30
0.0
 10
-1.236791049256681
 20
-2.108024812227945
 30
0.0
 10
-1.236791049256681
 20
-2.121547490179334
 30
0.0
 10
-1.236791049256681
 20
-2.121547490179334
 30
0.0
 10
-1.236791049256681
 20
-2.192307581325167
 30
0.0
 10
-1.236791049256681
 20
-2.192307581325167
 30
0.0
 10
-1.236791049256681
 20
-2.192307581325167
 30
0.0
 10
-1.256471496305292
 20
-2.192307581325167
 30
0.0
 10
-1.256471496305292
 20
-2.192307581325167
 30
0.0
 10
-1.256471496305292
 20
-2.192307581325167
 30
0.0
 10
-1.256471496305292
 20
-2.121547490179334
 30
0.0
 10
-1.256471496305292
 20
-2.121547490179334
 30
0.0
 10
-1.256471496305292
 20
-2.102694408582111
 30
0.0
 10
-1.250076368267097
 20
-2.086038592609889
 30
0.0
 10
-1.238452561843486
 20
-2.074631800075167
 30
0.0
 10
-1.227418761930292
 20
-2.063808232366834
 30
0.0
 10
-1.212261698128208
 20
-2.058572772297389
 30
0.0
 10
-1.194961622173347
 20
-2.0585998990335
 30
0.0
 10
-1.146404764534458
 20
-2.059400137748778
 30
0.0
 10
-1.140789530159458
 20
-2.095668583929334
 30
0.0
 10
-1.140789530159458
 20
-2.122876700248778
 30
0.0
 10
-1.140789530159458
 20
-2.122876700248778
 30
0.0
 10
-1.140789530159458
 20
-2.192307581325167
 30
0.0
 10
-1.140789530159458
 20
-2.192307581325167
 30
0.0
  0
HATCH
  5
93
330
87
100
AcDbEntity
  8
_U+5F6B_U+523B_U+30D1_U+30B9
 62
     7
420
 16777215
100
AcDbHatch
 10
0.0
 20
0.0
 30
0.0
210
0.0
220
0.0
230
1.0
  2
SOLID
 70
     1
 71
     0
 91
        1
 92
        1
 93
        1
 72
     4
 94
        3
 73
     0
 74
     1
 95
       41
 96
       37
 40
0.0
 40
0.0
 40
0.0
 40
0.0
 40
1.0
 40
1.0
 40
1.0
 40
2.0
 40
2.0
 40
2.0
 40
3.0
 40
3.0
 40
3.0
 40
4.0
 40
4.0
 40
4.0
 40
5.0
 40
5.0
 40
5.0
 40
6.0
 40
6.0
 40
6.0
 40
7.0
 40
7.0
 40
7.0
 40
8.0
 40
8.0
 40
8.0
 40
9.0
 40
9.0
 40
9.0
 40
10.0
 40
10.0
 40
10.0
 40
11.0
 40
11.0
 40
11.0
 40
12.0
 40
12.0
 40
12.0
 40
12.0
 10
-1.140789530159458
 20
-2.192307581325167
 10
-1.140789530159458
 20
-2.192307581325167
 10
-1.16046997720807
 20
-2.192307581325167
 10
-1.16046997720807
 20
-2.192307581325167
 10
-1.16046997720807
 20
-2.192307581325167
 10
-1.16046997720807
 20
-2.122876700248778
 10
-1.16046997720807
 20
-2.122876700248778
 10
-1.16046997720807
 20
-2.089971969346
 10
-1.169265821392097
 20
-2.078714373859889
 10
-1.195314269742792
 20
-2.078293909450167
 10
-1.207514519308764
 20
-2.077819191568222
 10
-1.217388651253208
 20
-2.081562681151556
 10
-1.224665398215014
 20
-2.088683449380722
 10
-1.232484679899042
 20
-2.096360315700167
 10
-1.236791049256681
 20
-2.108024812227945
 10
-1.236791049256681
 20
-2.121547490179334
 10
-1.236791049256681
 20
-2.121547490179334
 10
-1.236791049256681
 20
-2.192307581325167
 10
-1.236791049256681
 20
-2.192307581325167
 10
-1.236791049256681
 20
-2.192307581325167
 10
-1.256471496305292
 20
-2.192307581325167
 10
-1.256471496305292
 20
-2.192307581325167
 10
-1.256471496305292
 20
-2.192307581325167
 10
-1.256471496305292
 20
-2.121547490179334
 10
-1.256471496305292
 20
-2.121547490179334
 10
-1.256471496305292
 20
-2.102694408582111
 10
-1.250076368267097
 20
-2.086038592609889
 10
-1.238452561843486
 20
-2.074631800075167
 10
-1.227418761930292
 20
-2.063808232366834
 10
-1.212261698128208
 20
-2.058572772297389
 10
-1.194961622173347
 20
-2.0585998990335
 10
-1.146404764534458
 20
-2.059400137748778
 10
-1.140789530159458
 20
-2.095668583929334
 10
-1.140789530159458
 20
-2.122876700248778
 10
-1.140789530159458
 20
-2.122876700248778
 10
-1.140789530159458
 20
-2.192307581325167
 10
-1.140789530159458
 20
-2.192307581325167
 97
        0
 97
        0
 75
     2
 76
     1
 98
        0
  0
ENDBLK
  5
8A
330
87
100
AcDbEntity
  8
0
100
AcDbBlockEnd
  0
BLOCK
  5
9A
330
98
100
AcDbEntity
  8
0
100
AcDbBlockBegin
  2
block 10
 70
     0
 10
0.0
 20
0.0
 30
0.0
  3
block 10
  1

  0
INSERT
  5
9D
330
98
100
AcDbEntity
  8
_U+5207_U+65AD_U+30D1_U+30B9
100
AcDbBlockReference
  2
block 11
 10
0.0
 20
0.0
 30
0.0
  0
INSERT
  5
A2
330
98
100
AcDbEntity
  8
_U+5207_U+65AD_U+30D1_U+30B9
100
AcDbBlockReference
  2
block 12
 10
0.0
 20
0.0
 30
0.0
  0
INSERT
  5
A7
330
98
100
AcDbEntity
  8
_U+5207_U+65AD_U+30D1_U+30B9
100
AcDbBlockReference
  2
block 13
 10
0.0
 20
0.0
 30
0.0
  0
INSERT
  5
AC
330
98
100
AcDbEntity
  8
_U+5207_U+65AD_U+30D1_U+30B9
100
AcDbBlockReference
  2
block 14
 10
0.0
 20
0.0
 30
0.0
  0
INSERT
  5
B1
330
98
100
AcDbEntity
  8
_U+5207_U+65AD_U+30D1_U+30B9
100
AcDbBlockReference
  2
block 15
 10
0.0
 20
0.0
 30
0.0
  0
SPLINE
  5
B5
330
98
100
AcDbEntity
  8
_U+5207_U+65AD_U+30D1_U+30B9
 62
     1
420
 16711680
370
     9
100
AcDbSpline
210
0.0
220
0.0
230
1.0
 70
    11
 71
     3
 72
   110
 73
   106
 74
     0
 42
0.0000000001
 43
0.0000000001
 12
1.0
 22
0.0
 32
0.0
 13
1.0
 23
0.0
 33
0.0
 40
0.0
 40
0.0
 40
0.0
 40
0.0
 40
1.0
 40
1.0
 40
1.0
 40
2.0
 40
2.0
 40
2.0
 40
3.0
 40
3.0
 40
3.0
 40
4.0
 40
4.0
 40
4.0
 40
5.0
 40
5.0
 40
5.0
 40
6.0
 40
6.0
 40
6.0
 40
7.0
 40
7.0
 40
7.0
 40
8.0
 40
8.0
 40
8.0
 40
9.0
 40
9.0
 40
9.0
 40
10.0
 40
10.0
 40
10.0
 40
11.0
 40
11.0
 40
11.0
 40
12.0
 40
12.0
 40
12.0
 40
13.0
 40
13.0
 40
13.0
 40
14.0
 40
14.0
 40
14.0
 40
15.0
 40
15.0
 40
15.0
 40
16.0
 40
16.0
 40
16.0
 40
17.0
 40
17.0
 40
17.0
 40
18.0
 40
18.0
 40
18.0
 40
19.0
 40
19.0
 40
19.0
 40
20.0
 40
20.0
 40
20.0
 40
21.0
 40
21.0
 40
21.0
 40
22.0
 40
22.0
 40
22.0
 40
23.0
 40
23.0
 40
23.0
 40
24.0
 40
24.0
 40
24.0
 40
25.0
 40
25.0
 40
25.0
 40
26.0
 40
26.0
 40
26.0
 40
27.0
 40
27.0
 40
27.0
 40
28.0
 40
28.0
 40
28.0
 40
29.0
 40
29.0
 40
29.0
 40
30.0
 40
30.0
 40
30.0
 40
31.0
 40
31.0
 40
31.0
 40
32.0
 40
32.0
 40
32.0
 40
33.0
 40
33.0
 40
33.0
 40
34.0
 40
34.0
 40
34.0
 40
35.0
 40
35.0
 40
35.0
 40
35.0
 10
-2.07359090608011
 20
0.2193789488865655
 30
0.0
 10
-2.095495745489832
 20
0.2193789488865655
 30
0.0
 10
-2.117081845750249
 20
0.2296464185046211
 30
0.0
 10
-2.13065877717386
 20
0.2488521476712877
 30
0.0
 10
-2.130957171271082
 20
0.2492861754490655
 30
0.0
 10
-2.13181844514261
 20
0.2505475686782322
 30
0.0
 10
-2.132096494187749
 20
0.2509815964560099
 30
0.0
 10
-2.132415233337055
 20
0.2514834410740655
 30
0.0
 10
-2.132720409118305
 20
0.2519852856921211
 30
0.0
 10
-2.133012021531499
 20
0.2525006936782322
 30
0.0
 10
-2.133012021531499
 20
0.2525006936782322
 30
0.0
 10
-2.654164094014138
 20
1.159578059129621
 30
0.0
 10
-2.654164094014138
 20
1.159578059129621
 30
0.0
 10
-2.673430858337055
 20
1.190977256178232
 30
0.0
 10
-2.684946157816221
 20
1.228005250969899
 30
0.0
 10
-2.686960317972471
 20
1.265792794372677
 30
0.0
 10
-2.68699422639261
 20
1.266416709303232
 30
0.0
 10
-2.687014571444693
 20
1.267054187601843
 30
0.0
 10
-2.687014571444693
 20
1.267678102532399
 30
0.0
 10
-2.687014571444693
 20
1.267678102532399
 30
0.0
 10
-2.687007789760666
 20
3.588967165032399
 30
0.0
 10
-2.687007789760666
 20
3.588967165032399
 30
0.0
 10
-2.687007789760666
 20
3.619362672844899
 30
0.0
 10
-2.662281769795388
 20
3.644075129442121
 30
0.0
 10
-2.631893043666916
 20
3.644075129442121
 30
0.0
 10
-2.631893043666916
 20
3.644075129442121
 30
0.0
 10
-1.869991188198166
 20
3.644075129442121
 30
0.0
 10
-1.869991188198166
 20
3.644075129442121
 30
0.0
 10
-1.869991188198166
 20
3.644075129442121
 30
0.0
 10
-1.869991188198166
 20
3.67786147926851
 30
0.0
 10
-1.869991188198166
 20
3.67786147926851
 30
0.0
 10
-1.869991188198166
 20
3.70825698708101
 30
0.0
 10
-1.845265168232888
 20
3.732983007046287
 30
0.0
 10
-1.814869660420388
 20
3.732983007046287
 30
0.0
 10
-1.814869660420388
 20
3.732983007046287
 30
0.0
 10
-1.121910404778027
 20
3.732983007046287
 30
0.0
 10
-1.121910404778027
 20
3.732983007046287
 30
0.0
 10
-1.121910404778027
 20
3.732983007046287
 30
0.0
 10
-1.121910404778027
 20
3.776304404615732
 30
0.0
 10
-1.121910404778027
 20
3.776304404615732
 30
0.0
 10
-1.121910404778027
 20
3.806699912428232
 30
0.0
 10
-1.097184384812749
 20
3.831412369025454
 30
0.0
 10
-1.066788877000249
 20
3.831412369025454
 30
0.0
 10
-1.066788877000249
 20
3.831412369025454
 30
0.0
 10
-0.3699922239376545
 20
3.831412369025505
 30
0.0
 10
-0.3699922239376545
 20
3.831412369025505
 30
0.0
 10
-0.3699922239376545
 20
3.831412369025505
 30
0.0
 10
-0.3699922239376545
 20
3.864886761386616
 30
0.0
 10
-0.3699922239376545
 20
3.864886761386616
 30
0.0
 10
-0.3699922239376545
 20
3.895282269199116
 30
0.0
 10
-0.3452662039723767
 20
3.919994725796287
 30
0.0
 10
-0.3148706961598767
 20
3.919994725796287
 30
0.0
 10
-0.3148706961598767
 20
3.919994725796287
 30
0.0
 10
0.3467596929422017
 20
3.919994725796287
 30
0.0
 10
0.3467596929422017
 20
3.919994725796287
 30
0.0
 10
0.3771552007547017
 20
3.919994725796287
 30
0.0
 10
0.4018812207199794
 20
3.895282269199065
 30
0.0
 10
0.4018812207199794
 20
3.864886761386565
 30
0.0
 10
0.4018812207199794
 20
3.864886761386565
 30
0.0
 10
0.4018812207199794
 20
3.831412369025454
 30
0.0
 10
0.4018812207199794
 20
3.831412369025454
 30
0.0
 10
0.4018812207199794
 20
3.831412369025454
 30
0.0
 10
1.098718121697642
 20
3.831412369025454
 30
0.0
 10
1.098718121697642
 20
3.831412369025454
 30
0.0
 10
1.129113629510142
 20
3.831412369025454
 30
0.0
 10
1.15383964947542
 20
3.806699912428232
 30
0.0
 10
1.15383964947542
 20
3.776304404615732
 30
0.0
 10
1.15383964947542
 20
3.776304404615732
 30
0.0
 10
1.15383964947542
 20
3.644387086907399
 30
0.0
 10
1.15383964947542
 20
3.644387086907399
 30
0.0
 10
1.15383964947542
 20
3.644387086907399
 30
0.0
 10
2.594893251905963
 20
3.644387086907399
 30
0.0
 10
2.594893251905963
 20
3.644387086907399
 30
0.0
 10
2.625281978034435
 20
3.644387086907399
 30
0.0
 10
2.650007997999713
 20
3.619674630310176
 30
0.0
 10
2.650007997999713
 20
3.589279122497676
 30
0.0
 10
2.650007997999713
 20
3.589279122497676
 30
0.0
 10
2.650007997999713
 20
1.413931900275454
 30
0.0
 10
2.650007997999713
 20
1.413931900275454
 30
0.0
 10
2.650007997999713
 20
1.383536392462954
 30
0.0
 10
2.625281978034435
 20
1.358810372497677
 30
0.0
 10
2.594893251905963
 20
1.358810372497677
 30
0.0
 10
2.594893251905963
 20
1.358810372497677
 30
0.0
 10
0.4376802527740564
 20
1.358810372497677
 30
0.0
 10
0.4376802527740564
 20
1.358810372497677
 30
0.0
 10
0.3852985253435008
 20
1.287019465379621
 30
0.0
 10
0.0288464311594731
 20
0.7985076381226766
 30
0.0
 10
0.0288464311594731
 20
0.7985076381226766
 30
0.0
 10
0.0272188269928064
 20
0.7962832457615655
 30
0.0
 10
0.025340300517112
 20
0.7942623039212877
 30
0.0
 10
0.0232515418365564
 20
0.7924719393379543
 30
0.0
 10
0.0140827050310008
 20
0.7846323126018433
 30
0.0
 10
0.0029539615414175
 20
0.7797630634698988
 30
0.0
 10
-0.0089953657155269
 20
0.778352473192121
 30
0.0
 10
-0.0089953657155269
 20
0.778352473192121
 30
0.0
 10
-1.456932377434277
 20
0.5631153855185099
 30
0.0
 10
-1.456932377434277
 20
0.5631153855185099
 30
0.0
 10
-1.457434222052332
 20
0.5630204419421211
 30
0.0
 10
-1.458098827087055
 20
0.5628712448935099
 30
0.0
 10
-1.458838030646082
 20
0.5626813577407321
 30
0.0
 10
-1.458838030646082
 20
0.5626813577407321
 30
0.0
 10
-2.035003123962055
 20
0.2310570087823988
 30
0.0
 10
-2.035003123962055
 20
0.2310570087823988
 30
0.0
 10
-2.046830380906499
 20
0.2231766919421211
 30
0.0
 10
-2.060271678649555
 20
0.2193789488865655
 30
0.0
 10
-2.07359090608011
 20
0.2193789488865655
 30
0.0
  0
ENDBLK
  5
9B
330
98
100
AcDbEntity
  8
0
100
AcDbBlockEnd
  0
BLOCK
  5
9E
330
9C
100
AcDbEntity
  8
0
100
AcDbBlockBegin
  2
block 11
 70
     0
 10
0.0
 20
0.0
 30
0.0
  3
block 11
  1

  0
SPLINE
  5
A0
330
9C
100
AcDbEntity
  8
_U+5207_U+65AD_U+30D1_U+30B9
 62
     1
420
 16711680
370
     9
100
AcDbSpline
210
0.0
220
0.0
230
1.0
 70
    11
 71
     3
 72
    20
 73
    16
 74
     0
 42
0.0000000001
 43
0.0000000001
 12
1.0
 22
0.0
 32
0.0
 13
1.0
 23
0.0
 33
0.0
 40
0.0
 40
0.0
 40
0.0
 40
0.0
 40
1.0
 40
1.0
 40
1.0
 40
2.0
 40
2.0
 40
2.0
 40
3.0
 40
3.0
 40
3.0
 40
4.0
 40
4.0
 40
4.0
 40
5.0
 40
5.0
 40
5.0
 40
5.0
 10
0.2268722401182433
 20
1.453472956643307
 30
0.0
 10
0.2268722401193044
 20
1.477392496620925
 30
0.0
 10
0.2074816217331595
 20
1.496783115009041
 30
0.0
 10
0.183562081755541
 20
1.496783115010152
 30
0.0
 10
0.1596425417780741
 20
1.496783115011213
 30
0.0
 10
0.1402519233900092
 20
1.477392496624816
 30
0.0
 10
0.1402519233889481
 20
1.453472956647197
 30
0.0
 10
0.1402519233878871
 20
1.429553416669629
 30
0.0
 10
0.1596425417741835
 20
1.410162798281969
 30
0.0
 10
0.1835620817516504
 20
1.410162798280908
 30
0.0
 10
0.2074816217292942
 20
1.410162798279796
 30
0.0
 10
0.2268722401171822
 20
1.429553416665739
 30
0.0
 10
0.2268722401182433
 20
1.453472956643307
 30
0.0
 10
0.2268722401182433
 20
1.453472956643307
 30
0.0
 10
0.2268722401182433
 20
1.453472956643307
 30
0.0
 10
0.2268722401182433
 20
1.453472956643307
 30
0.0
  0
ENDBLK
  5
9F
330
9C
100
AcDbEntity
  8
0
100
AcDbBlockEnd
  0
BLOCK
  5
A3
330
A1
100
AcDbEntity
  8
0
100
AcDbBlockBegin
  2
block 12
 70
     0
 10
0.0
 20
0.0
 30
0.0
  3
block 12
  1

  0
SPLINE
  5
A5
330
A1
100
AcDbEntity
  8
_U+5207_U+65AD_U+30D1_U+30B9
 62
     1
420
 16711680
370
     9
100
AcDbSpline
210
0.0
220
0.0
230
1.0
 70
    11
 71
     3
 72
    20
 73
    16
 74
     0
 42
0.0000000001
 43
0.0000000001
 12
1.0
 22
0.0
 32
0.0
 13
1.0
 23
0.0
 33
0.0
 40
0.0
 40
0.0
 40
0.0
 40
0.0
 40
1.0
 40
1.0
 40
1.0
 40
2.0
 40
2.0
 40
2.0
 40
3.0
 40
3.0
 40
3.0
 40
4.0
 40
4.0
 40
4.0
 40
5.0
 40
5.0
 40
5.0
 40
5.0
 10
-1.063611265664336
 20
3.018326236560672
 30
0.0
 10
-1.06361126566325
 20
3.042245776538291
 30
0.0
 10
-1.083001884049445
 20
3.061636394925952
 30
0.0
 10
-1.106921424027039
 20
3.061636394927013
 30
0.0
 10
-1.130840964004531
 20
3.061636394928124
 30
0.0
 10
-1.150231582392444
 20
3.042245776542182
 30
0.0
 10
-1.150231582393531
 20
3.018326236564563
 30
0.0
 10
-1.150231582394566
 20
2.994406696586995
 30
0.0
 10
-1.130840964008421
 20
2.97501607819888
 30
0.0
 10
-1.106921424030955
 20
2.975016078197768
 30
0.0
 10
-1.083001884053336
 20
2.975016078196707
 30
0.0
 10
-1.063611265665372
 20
2.994406696583105
 30
0.0
 10
-1.063611265664336
 20
3.018326236560672
 30
0.0
 10
-1.063611265664336
 20
3.018326236560672
 30
0.0
 10
-1.063611265664336
 20
3.018326236560672
 30
0.0
 10
-1.063611265664336
 20
3.018326236560672
 30
0.0
  0
ENDBLK
  5
A4
330
A1
100
AcDbEntity
  8
0
100
AcDbBlockEnd
  0
BLOCK
  5
A8
330
A6
100
AcDbEntity
  8
0
100
AcDbBlockBegin
  2
block 13
 70
     0
 10
0.0
 20
0.0
 30
0.0
  3
block 13
  1

  0
SPLINE
  5
AA
330
A6
100
AcDbEntity
  8
_U+5207_U+65AD_U+30D1_U+30B9
 62
     1
420
 16711680
370
     9
100
AcDbSpline
210
0.0
220
0.0
230
1.0
 70
    11
 71
     3
 72
    20
 73
    16
 74
     0
 42
0.0000000001
 43
0.0000000001
 12
1.0
 22
0.0
 32
0.0
 13
1.0
 23
0.0
 33
0.0
 40
0.0
 40
0.0
 40
0.0
 40
0.0
 40
1.0
 40
1.0
 40
1.0
 40
2.0
 40
2.0
 40
2.0
 40
3.0
 40
3.0
 40
3.0
 40
4.0
 40
4.0
 40
4.0
 40
5.0
 40
5.0
 40
5.0
 40
5.0
 10
1.929373869221952
 20
2.875712113596263
 30
0.0
 10
1.929373869223014
 20
2.89963165357373
 30
0.0
 10
1.909983250836717
 20
2.919022271961896
 30
0.0
 10
1.88606371085925
 20
2.919022271962957
 30
0.0
 10
1.862144170881619
 20
2.919022271964018
 30
0.0
 10
1.842753552493718
 20
2.899631653577621
 30
0.0
 10
1.842753552492657
 20
2.875712113600154
 30
0.0
 10
1.842753552491596
 20
2.851792573622737
 30
0.0
 10
1.862144170877741
 20
2.832401955234773
 30
0.0
 10
1.88606371085536
 20
2.832401955233713
 30
0.0
 10
1.909983250832839
 20
2.832401955232652
 30
0.0
 10
1.929373869220891
 20
2.851792573618847
 30
0.0
 10
1.929373869221952
 20
2.875712113596263
 30
0.0
 10
1.929373869221952
 20
2.875712113596263
 30
0.0
 10
1.929373869221952
 20
2.875712113596263
 30
0.0
 10
1.929373869221952
 20
2.875712113596263
 30
0.0
  0
ENDBLK
  5
A9
330
A6
100
AcDbEntity
  8
0
100
AcDbBlockEnd
  0
BLOCK
  5
AD
330
AB
100
AcDbEntity
  8
0
100
AcDbBlockBegin
  2
block 14
 70
     0
 10
0.0
 20
0.0
 30
0.0
  3
block 14
  1

  0
SPLINE
  5
AF
330
AB
100
AcDbEntity
  8
_U+5207_U+65AD_U+30D1_U+30B9
 62
     1
420
 16711680
370
     9
100
AcDbSpline
210
0.0
220
0.0
230
1.0
 70
    11
 71
     3
 72
    20
 73
    16
 74
     0
 42
0.0000000001
 43
0.0000000001
 12
1.0
 22
0.0
 32
0.0
 13
1.0
 23
0.0
 33
0.0
 40
0.0
 40
0.0
 40
0.0
 40
0.0
 40
1.0
 40
1.0
 40
1.0
 40
2.0
 40
2.0
 40
2.0
 40
3.0
 40
3.0
 40
3.0
 40
4.0
 40
4.0
 40
4.0
 40
5.0
 40
5.0
 40
5.0
 40
5.0
 10
1.929720145134575
 20
2.127084333045028
 30
0.0
 10
1.929720145135623
 20
2.151003873022597
 30
0.0
 10
1.910329526749428
 20
2.17039449141056
 30
0.0
 10
1.88640998677181
 20
2.170394491411672
 30
0.0
 10
1.862490446794393
 20
2.170394491412733
 30
0.0
 10
1.843099828406328
 20
2.151003873026487
 30
0.0
 10
1.843099828405267
 20
2.127084333048919
 30
0.0
 10
1.843099828404156
 20
2.103164793071301
 30
0.0
 10
1.862490446790503
 20
2.083774174683488
 30
0.0
 10
1.886409986767919
 20
2.083774174682427
 30
0.0
 10
1.910329526745537
 20
2.083774174681316
 30
0.0
 10
1.929720145133438
 20
2.10316479306741
 30
0.0
 10
1.929720145134575
 20
2.127084333045028
 30
0.0
 10
1.929720145134575
 20
2.127084333045028
 30
0.0
 10
1.929720145134575
 20
2.127084333045028
 30
0.0
 10
1.929720145134575
 20
2.127084333045028
 30
0.0
  0
ENDBLK
  5
AE
330
AB
100
AcDbEntity
  8
0
100
AcDbBlockEnd
  0
BLOCK
  5
B2
330
B0
100
AcDbEntity
  8
0
100
AcDbBlockBegin
  2
block 15
 70
     0
 10
0.0
 20
0.0
 30
0.0
  3
block 15
  1

  0
SPLINE
  5
B4
330
B0
100
AcDbEntity
  8
_U+5207_U+65AD_U+30D1_U+30B9
 62
     1
420
 16711680
370
     9
100
AcDbSpline
210
0.0
220
0.0
230
1.0
 70
    11
 71
     3
 72
    20
 73
    16
 74
     0
 42
0.0000000001
 43
0.0000000001
 12
1.0
 22
0.0
 32
0.0
 13
1.0
 23
0.0
 33
0.0
 40
0.0
 40
0.0
 40
0.0
 40
0.0
 40
1.0
 40
1.0
 40
1.0
 40
2.0
 40
2.0
 40
2.0
 40
3.0
 40
3.0
 40
3.0
 40
4.0
 40
4.0
 40
4.0
 40
5.0
 40
5.0
 40
5.0
 40
5.0
 10
-1.604622990623296
 20
1.148177302142863
 30
0.0
 10
-1.604622990622235
 20
1.172096842120482
 30
0.0
 10
-1.62401360900838
 20
1.191487460508597
 30
0.0
 10
-1.647933148985973
 20
1.191487460509658
 30
0.0
 10
-1.671852688963491
 20
1.191487460510719
 30
0.0
 10
-1.69124330735148
 20
1.172096842124322
 30
0.0
 10
-1.691243307352541
 20
1.148177302146703
 30
0.0
 10
-1.691243307353627
 20
1.124257762169438
 30
0.0
 10
-1.671852688967369
 20
1.104867143781424
 30
0.0
 10
-1.647933148989864
 20
1.104867143780363
 30
0.0
 10
-1.624013609012283
 20
1.104867143779302
 30
0.0
 10
-1.604622990624383
 20
1.124257762165598
 30
0.0
 10
-1.604622990623296
 20
1.148177302142863
 30
0.0
 10
-1.604622990623296
 20
1.148177302142863
 30
0.0
 10
-1.604622990623296
 20
1.148177302142863
 30
0.0
 10
-1.604622990623296
 20
1.148177302142863
 30
0.0
  0
ENDBLK
  5
B3
330
B0
100
AcDbEntity
  8
0
100
AcDbBlockEnd
  0
BLOCK
  5
B8
330
B6
100
AcDbEntity
  8
0
100
AcDbBlockBegin
  2
block 16
 70
     0
 10
0.0
 20
0.0
 30
0.0
  3
block 16
  1

  0
INSERT
  5
BB
330
B6
100
AcDbEntity
  8
_U+5207_U+65AD_U+30D1_U+30B9
100
AcDbBlockReference
  2
block 17
 10
0.0
 20
0.0
 30
0.0
  0
INSERT
  5
C0
330
B6
100
AcDbEntity
  8
_U+5207_U+65AD_U+30D1_U+30B9
100
AcDbBlockReference
  2
block 18
 10
0.0
 20
0.0
 30
0.0
  0
INSERT
  5
C5
330
B6
100
AcDbEntity
  8
_U+5207_U+65AD_U+30D1_U+30B9
100
AcDbBlockReference
  2
block 19
 10
0.0
 20
0.0
 30
0.0
  0
INSERT
  5
CA
330
B6
100
AcDbEntity
  8
_U+5207_U+65AD_U+30D1_U+30B9
100
AcDbBlockReference
  2
block 20
 10
0.0
 20
0.0
 30
0.0
  0
INSERT
  5
CF
330
B6
100
AcDbEntity
  8
_U+5207_U+65AD_U+30D1_U+30B9
100
AcDbBlockReference
  2
block 21
 10
0.0
 20
0.0
 30
0.0
  0
SPLINE
  5
D3
330
B6
100
AcDbEntity
  8
_U+5207_U+65AD_U+30D1_U+30B9
 62
     1
420
 16711680
370
     9
100
AcDbSpline
210
0.0
220
0.0
230
1.0
 70
    11
 71
     3
 72
   110
 73
   106
 74
     0
 42
0.0000000001
 43
0.0000000001
 12
1.0
 22
0.0
 32
0.0
 13
1.0
 23
0.0
 33
0.0
 40
0.0
 40
0.0
 40
0.0
 40
0.0
 40
1.0
 40
1.0
 40
1.0
 40
2.0
 40
2.0
 40
2.0
 40
3.0
 40
3.0
 40
3.0
 40
4.0
 40
4.0
 40
4.0
 40
5.0
 40
5.0
 40
5.0
 40
6.0
 40
6.0
 40
6.0
 40
7.0
 40
7.0
 40
7.0
 40
8.0
 40
8.0
 40
8.0
 40
9.0
 40
9.0
 40
9.0
 40
10.0
 40
10.0
 40
10.0
 40
11.0
 40
11.0
 40
11.0
 40
12.0
 40
12.0
 40
12.0
 40
13.0
 40
13.0
 40
13.0
 40
14.0
 40
14.0
 40
14.0
 40
15.0
 40
15.0
 40
15.0
 40
16.0
 40
16.0
 40
16.0
 40
17.0
 40
17.0
 40
17.0
 40
18.0
 40
18.0
 40
18.0
 40
19.0
 40
19.0
 40
19.0
 40
20.0
 40
20.0
 40
20.0
 40
21.0
 40
21.0
 40
21.0
 40
22.0
 40
22.0
 40
22.0
 40
23.0
 40
23.0
 40
23.0
 40
24.0
 40
24.0
 40
24.0
 40
25.0
 40
25.0
 40
25.0
 40
26.0
 40
26.0
 40
26.0
 40
27.0
 40
27.0
 40
27.0
 40
28.0
 40
28.0
 40
28.0
 40
29.0
 40
29.0
 40
29.0
 40
30.0
 40
30.0
 40
30.0
 40
31.0
 40
31.0
 40
31.0
 40
32.0
 40
32.0
 40
32.0
 40
33.0
 40
33.0
 40
33.0
 40
34.0
 40
34.0
 40
34.0
 40
35.0
 40
35.0
 40
35.0
 40
35.0
 10
2.008110499876769
 20
-3.73344320594611
 30
0.0
 10
2.008110499876769
 20
-3.73344320594611
 30
0.0
 10
1.431945406575639
 20
-3.401818856961906
 30
0.0
 10
1.431945406575639
 20
-3.401818856961906
 30
0.0
 10
1.431206203016611
 20
-3.401628969809078
 30
0.0
 10
1.43054159798194
 20
-3.401479772760442
 30
0.0
 10
1.430039753363884
 20
-3.401384829184028
 30
0.0
 10
1.430039753363884
 20
-3.401384829184028
 30
0.0
 10
-0.0178972583452151
 20
-3.186147741445413
 30
0.0
 10
-0.0178972583452151
 20
-3.186147741445413
 30
0.0
 10
-0.029846585602109
 20
-3.184737151167105
 30
0.0
 10
-0.0409753290914397
 20
-3.179867902034655
 30
0.0
 10
-0.0501441658966415
 20
-3.172028275298139
 30
0.0
 10
-0.0522329245771466
 20
-3.170237910714705
 30
0.0
 10
-0.0541114510527399
 20
-3.168216968874352
 30
0.0
 10
-0.0557390552193056
 20
-3.165992576513165
 30
0.0
 10
-0.0557390552193056
 20
-3.165992576513165
 30
0.0
 10
-0.4121911493814044
 20
-2.677480749240203
 30
0.0
 10
-0.4645728768087262
 20
-2.605689842119798
 30
0.0
 10
-0.4645728768087262
 20
-2.605689842119798
 30
0.0
 10
-2.621785875940671
 20
-2.605689842022962
 30
0.0
 10
-2.621785875940671
 20
-2.605689842022962
 30
0.0
 10
-2.652174602069143
 20
-2.605689842021598
 30
0.0
 10
-2.676900622033309
 20
-2.580963822055208
 30
0.0
 10
-2.676900622031944
 20
-2.550568314242708
 30
0.0
 10
-2.676900622031944
 20
-2.550568314242708
 30
0.0
 10
-2.676900621934275
 20
-0.3752210920204864
 30
0.0
 10
-2.676900621934275
 20
-0.3752210920204864
 30
0.0
 10
-2.676900621932911
 20
-0.3448255842079864
 30
0.0
 10
-2.652174601966534
 20
-0.3201131276118758
 30
0.0
 10
-2.621785875838062
 20
-0.3201131276132401
 30
0.0
 10
-2.621785875838062
 20
-0.3201131276132401
 30
0.0
 10
-1.180732273407494
 20
-0.3201131276779405
 30
0.0
 10
-1.180732273407494
 20
-0.3201131276779405
 30
0.0
 10
-1.180732273407494
 20
-0.3201131276779405
 30
0.0
 10
-1.180732273401582
 20
-0.1881958099696072
 30
0.0
 10
-1.180732273401582
 20
-0.1881958099696072
 30
0.0
 10
-1.180732273400218
 20
-0.1578003021571072
 30
0.0
 10
-1.156006253433828
 20
-0.1330878455609966
 30
0.0
 10
-1.125610745621328
 20
-0.1330878455623608
 30
0.0
 10
-1.125610745621328
 20
-0.1330878455623608
 30
0.0
 10
-0.4286281360283763
 20
-0.1330878455934605
 30
0.0
 10
-0.4286281360283763
 20
-0.1330878455934605
 30
0.0
 10
-0.4286281360283763
 20
-0.1330878455934605
 30
0.0
 10
-0.4286281360268605
 20
-0.0996134532323494
 30
0.0
 10
-0.4286281360268605
 20
-0.0996134532323494
 30
0.0
 10
-0.4286281360254962
 20
-0.0692179454198494
 30
0.0
 10
-0.4039021160591068
 20
-0.0445054888237387
 30
0.0
 10
-0.3735066082466068
 20
-0.044505488825103
 30
0.0
 10
-0.3735066082466068
 20
-0.044505488825103
 30
0.0
 10
0.2876773531835902
 20
-0.044505488825103
 30
0.0
 10
0.2876773531835902
 20
-0.044505488825103
 30
0.0
 10
0.3180728609960902
 20
-0.0445054888264672
 30
0.0
 10
0.3427988809602564
 20
-0.0692179454247758
 30
0.0
 10
0.3427988809588922
 20
-0.0996134532372758
 30
0.0
 10
0.3427988809588922
 20
-0.0996134532372758
 30
0.0
 10
0.3427988809573763
 20
-0.1330878455983869
 30
0.0
 10
0.3427988809573763
 20
-0.1330878455983869
 30
0.0
 10
0.3427988809573763
 20
-0.1330878455983869
 30
0.0
 10
1.039896253076588
 20
-0.1330878456595757
 30
0.0
 10
1.039896253076588
 20
-0.1330878456595757
 30
0.0
 10
1.070291760889088
 20
-0.1330878456609399
 30
0.0
 10
1.095017780853254
 20
-0.1578003022592737
 30
0.0
 10
1.09501778085189
 20
-0.1881958100717737
 30
0.0
 10
1.09501778085189
 20
-0.1881958100717737
 30
0.0
 10
1.09501778084992
 20
-0.2315172076412182
 30
0.0
 10
1.09501778084992
 20
-0.2315172076412182
 30
0.0
 10
1.09501778084992
 20
-0.2315172076412182
 30
0.0
 10
1.787977036492281
 20
-0.2315172076723178
 30
0.0
 10
1.787977036492281
 20
-0.2315172076723178
 30
0.0
 10
1.818372544304781
 20
-0.2315172076736821
 30
0.0
 10
1.843098564268947
 20
-0.2562432276400715
 30
0.0
 10
1.843098564267583
 20
-0.2866387354525715
 30
0.0
 10
1.843098564267583
 20
-0.2866387354525715
 30
0.0
 10
1.843098564266067
 20
-0.3204250852789604
 30
0.0
 10
1.843098564266067
 20
-0.3204250852789604
 30
0.0
 10
1.843098564266067
 20
-0.3204250852789604
 30
0.0
 10
2.605000419734829
 20
-0.3204250853131674
 30
0.0
 10
2.605000419734829
 20
-0.3204250853131674
 30
0.0
 10
2.635389145863301
 20
-0.3204250853145317
 30
0.0
 10
2.660115165827468
 20
-0.3451375419128656
 30
0.0
 10
2.660115165826103
 20
-0.3755330497253656
 30
0.0
 10
2.660115165826103
 20
-0.3755330497253656
 30
0.0
 10
2.660121947405944
 20
-2.696822112225365
 30
0.0
 10
2.660121947405944
 20
-2.696822112225365
 30
0.0
 10
2.660121947405893
 20
-2.697446027155921
 30
0.0
 10
2.66010160235381
 20
-2.698083505454532
 30
0.0
 10
2.66006769393362
 20
-2.698707420385088
 30
0.0
 10
2.658053533775652
 20
-2.73649496378779
 30
0.0
 10
2.646538234294869
 20
-2.773522958578926
 30
0.0
 10
2.627271469970538
 20
-2.804922155626678
 30
0.0
 10
2.627271469970538
 20
-2.804922155626678
 30
0.0
 10
2.106119397447173
 20
-3.711999521054672
 30
0.0
 10
2.106119397447173
 20
-3.711999521054672
 30
0.0
 10
2.105827785033928
 20
-3.712514929040758
 30
0.0
 10
2.105522609252678
 20
-3.713016773658814
 30
0.0
 10
2.105203870103322
 20
-3.713518618276844
 30
0.0
 10
2.104925821058183
 20
-3.713952646054622
 30
0.0
 10
2.104064547186605
 20
-3.715214039283738
 30
0.0
 10
2.103766153089333
 20
-3.715648067061516
 30
0.0
 10
2.090189221664862
 20
-3.734853796227551
 30
0.0
 10
2.068603121403991
 20
-3.745121265844646
 30
0.0
 10
2.046698281994269
 20
-3.745121265843661
 30
0.0
 10
2.033379054563713
 20
-3.745121265843055
 30
0.0
 10
2.01993775682086
 20
-3.741323522786918
 30
0.0
 10
2.008110499876769
 20
-3.73344320594611
 30
0.0
  0
ENDBLK
  5
B9
330
B6
100
AcDbEntity
  8
0
100
AcDbBlockEnd
  0
BLOCK
  5
BC
330
BA
100
AcDbEntity
  8
0
100
AcDbBlockBegin
  2
block 17
 70
     0
 10
0.0
 20
0.0
 30
0.0
  3
block 17
  1

  0
SPLINE
  5
BE
330
BA
100
AcDbEntity
  8
_U+5207_U+65AD_U+30D1_U+30B9
 62
     1
420
 16711680
370
     9
100
AcDbSpline
210
0.0
220
0.0
230
1.0
 70
    11
 71
     3
 72
    20
 73
    16
 74
     0
 42
0.0000000001
 43
0.0000000001
 12
1.0
 22
0.0
 32
0.0
 13
1.0
 23
0.0
 33
0.0
 40
0.0
 40
0.0
 40
0.0
 40
0.0
 40
1.0
 40
1.0
 40
1.0
 40
2.0
 40
2.0
 40
2.0
 40
3.0
 40
3.0
 40
3.0
 40
4.0
 40
4.0
 40
4.0
 40
5.0
 40
5.0
 40
5.0
 40
5.0
 10
-0.253764864148694
 20
-2.511027257983642
 30
0.0
 10
-0.2537648641486435
 20
-2.487107718006023
 30
0.0
 10
-0.2343742457616397
 20
-2.467717099618767
 30
0.0
 10
-0.2104547057840212
 20
-2.467717099618767
 30
0.0
 10
-0.1865351658065543
 20
-2.467717099618767
 30
0.0
 10
-0.1671445474193484
 20
-2.487107718006023
 30
0.0
 10
-0.1671445474193989
 20
-2.511027257983642
 30
0.0
 10
-0.1671445474193989
 20
-2.53494679796121
 30
0.0
 10
-0.1865351658065543
 20
-2.554337416348011
 30
0.0
 10
-0.2104547057840212
 20
-2.554337416348011
 30
0.0
 10
-0.2343742457616397
 20
-2.554337416348011
 30
0.0
 10
-0.253764864148694
 20
-2.53494679796121
 30
0.0
 10
-0.253764864148694
 20
-2.511027257983642
 30
0.0
 10
-0.253764864148694
 20
-2.511027257983642
 30
0.0
 10
-0.253764864148694
 20
-2.511027257983642
 30
0.0
 10
-0.253764864148694
 20
-2.511027257983642
 30
0.0
  0
ENDBLK
  5
BD
330
BA
100
AcDbEntity
  8
0
100
AcDbBlockEnd
  0
BLOCK
  5
C1
330
BF
100
AcDbEntity
  8
0
100
AcDbBlockBegin
  2
block 18
 70
     0
 10
0.0
 20
0.0
 30
0.0
  3
block 18
  1

  0
SPLINE
  5
C3
330
BF
100
AcDbEntity
  8
_U+5207_U+65AD_U+30D1_U+30B9
 62
     1
420
 16711680
370
     9
100
AcDbSpline
210
0.0
220
0.0
230
1.0
 70
    11
 71
     3
 72
    20
 73
    16
 74
     0
 42
0.0000000001
 43
0.0000000001
 12
1.0
 22
0.0
 32
0.0
 13
1.0
 23
0.0
 33
0.0
 40
0.0
 40
0.0
 40
0.0
 40
0.0
 40
1.0
 40
1.0
 40
1.0
 40
2.0
 40
2.0
 40
2.0
 40
3.0
 40
3.0
 40
3.0
 40
4.0
 40
4.0
 40
4.0
 40
5.0
 40
5.0
 40
5.0
 40
5.0
 10
1.036718641704144
 20
-0.946173978124231
 30
0.0
 10
1.036718641704144
 20
-0.9222544381466125
 30
0.0
 10
1.056109260091198
 20
-0.9028638197598108
 30
0.0
 10
1.080028800068817
 20
-0.9028638197598108
 30
0.0
 10
1.103948340046284
 20
-0.9028638197598108
 30
0.0
 10
1.123338958433338
 20
-0.9222544381466125
 30
0.0
 10
1.123338958433338
 20
-0.946173978124231
 30
0.0
 10
1.123338958433338
 20
-0.970093518101799
 30
0.0
 10
1.103948340046284
 20
-0.9894841364890554
 30
0.0
 10
1.080028800068817
 20
-0.9894841364890554
 30
0.0
 10
1.056109260091198
 20
-0.9894841364890554
 30
0.0
 10
1.036718641704144
 20
-0.970093518101799
 30
0.0
 10
1.036718641704144
 20
-0.946173978124231
 30
0.0
 10
1.036718641704144
 20
-0.946173978124231
 30
0.0
 10
1.036718641704144
 20
-0.946173978124231
 30
0.0
 10
1.036718641704144
 20
-0.946173978124231
 30
0.0
  0
ENDBLK
  5
C2
330
BF
100
AcDbEntity
  8
0
100
AcDbBlockEnd
  0
BLOCK
  5
C6
330
C4
100
AcDbEntity
  8
0
100
AcDbBlockBegin
  2
block 19
 70
     0
 10
0.0
 20
0.0
 30
0.0
  3
block 19
  1

  0
SPLINE
  5
C8
330
C4
100
AcDbEntity
  8
_U+5207_U+65AD_U+30D1_U+30B9
 62
     1
420
 16711680
370
     9
100
AcDbSpline
210
0.0
220
0.0
230
1.0
 70
    11
 71
     3
 72
    20
 73
    16
 74
     0
 42
0.0000000001
 43
0.0000000001
 12
1.0
 22
0.0
 32
0.0
 13
1.0
 23
0.0
 33
0.0
 40
0.0
 40
0.0
 40
0.0
 40
0.0
 40
1.0
 40
1.0
 40
1.0
 40
2.0
 40
2.0
 40
2.0
 40
3.0
 40
3.0
 40
3.0
 40
4.0
 40
4.0
 40
4.0
 40
5.0
 40
5.0
 40
5.0
 40
5.0
 10
-1.956266493188537
 20
-1.088788100954237
 30
0.0
 10
-1.956266493188537
 20
-1.06486856097677
 30
0.0
 10
-1.936875874801368
 20
-1.045477942589514
 30
0.0
 10
-1.912956334823889
 20
-1.045477942589514
 30
0.0
 10
-1.889036794846258
 20
-1.045477942589514
 30
0.0
 10
-1.869646176459241
 20
-1.06486856097677
 30
0.0
 10
-1.869646176459241
 20
-1.088788100954237
 30
0.0
 10
-1.869646176459241
 20
-1.112707640931654
 30
0.0
 10
-1.889036794846258
 20
-1.132098259318759
 30
0.0
 10
-1.912956334823889
 20
-1.132098259318759
 30
0.0
 10
-1.936875874801368
 20
-1.132098259318759
 30
0.0
 10
-1.956266493188537
 20
-1.112707640931654
 30
0.0
 10
-1.956266493188537
 20
-1.088788100954237
 30
0.0
 10
-1.956266493188537
 20
-1.088788100954237
 30
0.0
 10
-1.956266493188537
 20
-1.088788100954237
 30
0.0
 10
-1.956266493188537
 20
-1.088788100954237
 30
0.0
  0
ENDBLK
  5
C7
330
C4
100
AcDbEntity
  8
0
100
AcDbBlockEnd
  0
BLOCK
  5
CB
330
C9
100
AcDbEntity
  8
0
100
AcDbBlockBegin
  2
block 20
 70
     0
 10
0.0
 20
0.0
 30
0.0
  3
block 20
  1

  0
SPLINE
  5
CD
330
C9
100
AcDbEntity
  8
_U+5207_U+65AD_U+30D1_U+30B9
 62
     1
420
 16711680
370
     9
100
AcDbSpline
210
0.0
220
0.0
230
1.0
 70
    11
 71
     3
 72
    20
 73
    16
 74
     0
 42
0.0000000001
 43
0.0000000001
 12
1.0
 22
0.0
 32
0.0
 13
1.0
 23
0.0
 33
0.0
 40
0.0
 40
0.0
 40
0.0
 40
0.0
 40
1.0
 40
1.0
 40
1.0
 40
2.0
 40
2.0
 40
2.0
 40
3.0
 40
3.0
 40
3.0
 40
4.0
 40
4.0
 40
4.0
 40
5.0
 40
5.0
 40
5.0
 40
5.0
 10
-1.956612769134747
 20
-1.837415881505472
 30
0.0
 10
-1.956612769134747
 20
-1.813496341527904
 30
0.0
 10
-1.937222150747693
 20
-1.794105723140799
 30
0.0
 10
-1.913302610770074
 20
-1.794105723140799
 30
0.0
 10
-1.889383070792658
 20
-1.794105723140799
 30
0.0
 10
-1.869992452405465
 20
-1.813496341527904
 30
0.0
 10
-1.869992452405465
 20
-1.837415881505472
 30
0.0
 10
-1.869992452405427
 20
-1.861335421483091
 30
0.0
 10
-1.889383070792658
 20
-1.880726039870044
 30
0.0
 10
-1.913302610770074
 20
-1.880726039870044
 30
0.0
 10
-1.937222150747693
 20
-1.880726039870044
 30
0.0
 10
-1.956612769134722
 20
-1.861335421483091
 30
0.0
 10
-1.956612769134747
 20
-1.837415881505472
 30
0.0
 10
-1.956612769134747
 20
-1.837415881505472
 30
0.0
 10
-1.956612769134747
 20
-1.837415881505472
 30
0.0
 10
-1.956612769134747
 20
-1.837415881505472
 30
0.0
  0
ENDBLK
  5
CC
330
C9
100
AcDbEntity
  8
0
100
AcDbBlockEnd
  0
BLOCK
  5
D0
330
CE
100
AcDbEntity
  8
0
100
AcDbBlockBegin
  2
block 21
 70
     0
 10
0.0
 20
0.0
 30
0.0
  3
block 21
  1

  0
SPLINE
  5
D2
330
CE
100
AcDbEntity
  8
_U+5207_U+65AD_U+30D1_U+30B9
 62
     1
420
 16711680
370
     9
100
AcDbSpline
210
0.0
220
0.0
230
1.0
 70
    11
 71
     3
 72
    20
 73
    16
 74
     0
 42
0.0000000001
 43
0.0000000001
 12
1.0
 22
0.0
 32
0.0
 13
1.0
 23
0.0
 33
0.0
 40
0.0
 40
0.0
 40
0.0
 40
0.0
 40
1.0
 40
1.0
 40
1.0
 40
2.0
 40
2.0
 40
2.0
 40
3.0
 40
3.0
 40
3.0
 40
4.0
 40
4.0
 40
4.0
 40
5.0
 40
5.0
 40
5.0
 40
5.0
 10
1.577730366579153
 20
-2.816322912566344
 30
0.0
 10
1.577730366579153
 20
-2.792403372588726
 30
0.0
 10
1.597120984966157
 20
-2.773012754201469
 30
0.0
 10
1.621040524943775
 20
-2.773012754201495
 30
0.0
 10
1.644960064921293
 20
-2.773012754201469
 30
0.0
 10
1.664350683308397
 20
-2.792403372588751
 30
0.0
 10
1.664350683308397
 20
-2.81632291256637
 30
0.0
 10
1.664350683308397
 20
-2.840242452543634
 30
0.0
 10
1.644960064921293
 20
-2.859633070930764
 30
0.0
 10
1.621040524943775
 20
-2.85963307093079
 30
0.0
 10
1.597120984966157
 20
-2.859633070930764
 30
0.0
 10
1.577730366579153
 20
-2.840242452543609
 30
0.0
 10
1.577730366579153
 20
-2.816322912566344
 30
0.0
 10
1.577730366579153
 20
-2.816322912566344
 30
0.0
 10
1.577730366579153
 20
-2.816322912566344
 30
0.0
 10
1.577730366579153
 20
-2.816322912566344
 30
0.0
  0
ENDBLK
  5
D1
330
CE
100
AcDbEntity
  8
0
100
AcDbBlockEnd
  0
BLOCK
  5
D6
330
D4
100
AcDbEntity
  8
0
100
AcDbBlockBegin
  2
block 22
 70
     0
 10
0.0
 20
0.0
 30
0.0
  3
block 22
  1

  0
SPLINE
  5
D8
330
D4
100
AcDbEntity
  8
_U+5207_U+65AD_U+30D1_U+30B9
 62
     1
420
 16711680
370
     9
100
AcDbSpline
210
0.0
220
0.0
230
1.0
 70
    11
 71
     3
 72
    20
 73
    16
 74
     0
 42
0.0000000001
 43
0.0000000001
 12
1.0
 22
0.0
 32
0.0
 13
1.0
 23
0.0
 33
0.0
 40
0.0
 40
0.0
 40
0.0
 40
0.0
 40
1.0
 40
1.0
 40
1.0
 40
2.0
 40
2.0
 40
2.0
 40
3.0
 40
3.0
 40
3.0
 40
4.0
 40
4.0
 40
4.0
 40
5.0
 40
5.0
 40
5.0
 40
5.0
 10
0.7375154241442993
 20
0.96594436463354
 30
0.0
 10
0.7614349641216019
 20
0.965944379328726
 30
0.0
 10
0.7808255944214958
 20
0.9465537728544353
 30
0.0
 10
0.7808256091166816
 20
0.9226342328769179
 30
0.0
 10
0.7808256238118423
 20
0.8987146928995015
 30
0.0
 10
0.7614350173375517
 20
0.8793240625995571
 30
0.0
 10
0.7375154773602869
 20
0.8793240479043459
 30
0.0
 10
0.7135959373826937
 20
0.8793240332091601
 30
0.0
 10
0.6942053070827746
 20
0.8987146396835265
 30
0.0
 10
0.6942052923875887
 20
0.9226341796609177
 30
0.0
 10
0.6942052776924027
 20
0.946553719638435
 30
0.0
 10
0.7135958841666934
 20
0.9659443499383542
 30
0.0
 10
0.7375154241442993
 20
0.96594436463354
 30
0.0
 10
0.7375154241442993
 20
0.96594436463354
 30
0.0
 10
0.7375154241442993
 20
0.96594436463354
 30
0.0
 10
0.7375154241442993
 20
0.96594436463354
 30
0.0
  0
SPLINE
  5
D9
330
D4
100
AcDbEntity
  8
_U+5207_U+65AD_U+30D1_U+30B9
 62
     1
420
 16711680
370
     9
100
AcDbSpline
210
0.0
220
0.0
230
1.0
 70
    11
 71
     3
 72
    20
 73
    16
 74
     0
 42
0.0000000001
 43
0.0000000001
 12
1.0
 22
0.0
 32
0.0
 13
1.0
 23
0.0
 33
0.0
 40
0.0
 40
0.0
 40
0.0
 40
0.0
 40
1.0
 40
1.0
 40
1.0
 40
2.0
 40
2.0
 40
2.0
 40
3.0
 40
3.0
 40
3.0
 40
4.0
 40
4.0
 40
4.0
 40
5.0
 40
5.0
 40
5.0
 40
5.0
 10
0.4028463693412681
 20
0.3950375260382467
 30
0.0
 10
0.4267659093188361
 20
0.3950375407334579
 30
0.0
 10
0.4461565396184268
 20
0.375646934259041
 30
0.0
 10
0.4461565543136127
 20
0.3517273942817509
 30
0.0
 10
0.4461565690088112
 20
0.3278078543041829
 30
0.0
 10
0.4267659625348111
 20
0.3084172240041628
 30
0.0
 10
0.4028464225572558
 20
0.3084172093090021
 30
0.0
 10
0.378926882579473
 20
0.3084171946137404
 30
0.0
 10
0.3595362522795792
 20
0.3278078010881826
 30
0.0
 10
0.3595362375843933
 20
0.3517273410657506
 30
0.0
 10
0.3595362228892074
 20
0.3756468810430659
 30
0.0
 10
0.378926829363498
 20
0.3950375113430356
 30
0.0
 10
0.4028463693412681
 20
0.3950375260382467
 30
0.0
 10
0.4028463693412681
 20
0.3950375260382467
 30
0.0
 10
0.4028463693412681
 20
0.3950375260382467
 30
0.0
 10
0.4028463693412681
 20
0.3950375260382467
 30
0.0
  0
SPLINE
  5
DA
330
D4
100
AcDbEntity
  8
_U+5207_U+65AD_U+30D1_U+30B9
 62
     1
420
 16711680
370
     9
100
AcDbSpline
210
0.0
220
0.0
230
1.0
 70
    11
 71
     3
 72
    32
 73
    28
 74
     0
 42
0.0000000001
 43
0.0000000001
 12
1.0
 22
0.0
 32
0.0
 13
1.0
 23
0.0
 33
0.0
 40
0.0
 40
0.0
 40
0.0
 40
0.0
 40
1.0
 40
1.0
 40
1.0
 40
2.0
 40
2.0
 40
2.0
 40
3.0
 40
3.0
 40
3.0
 40
4.0
 40
4.0
 40
4.0
 40
5.0
 40
5.0
 40
5.0
 40
6.0
 40
6.0
 40
6.0
 40
7.0
 40
7.0
 40
7.0
 40
8.0
 40
8.0
 40
8.0
 40
9.0
 40
9.0
 40
9.0
 40
9.0
 10
2.626454809579248
 20
1.06339213440914
 30
0.0
 10
2.637330287479749
 20
1.063384495664397
 30
0.0
 10
2.646146561216609
 20
1.054573611541653
 30
0.0
 10
2.64616085045087
 20
1.04369814034587
 30
0.0
 10
2.64616085045087
 20
1.04369814034587
 30
0.0
 10
2.64616085045087
 20
0.269265384356888
 30
0.0
 10
2.64616085045087
 20
0.269265384356888
 30
0.0
 10
2.64616085045087
 20
0.2388244926339414
 30
0.0
 10
2.621483631937609
 20
0.21414727412068
 30
0.0
 10
2.591042740214637
 20
0.21414727412068
 30
0.0
 10
2.591042740214637
 20
0.21414727412068
 30
0.0
 10
0.2524366226416027
 20
0.21414727412068
 30
0.0
 10
0.2524366226416027
 20
0.21414727412068
 30
0.0
 10
0.2499206889098736
 20
0.2145382038668484
 30
0.0
 10
0.2474618654689493
 20
0.2152347105031064
 30
0.0
 10
0.2451146770877888
 20
0.2162213488932896
 30
0.0
 10
0.2291814556671549
 20
0.2229188632702011
 30
0.0
 10
0.2216944358090889
 20
0.2412646994394739
 30
0.0
 10
0.2283919501859499
 20
0.257197920859931
 30
0.0
 10
0.2283919501859499
 20
0.257197920859931
 30
0.0
 10
0.6798398630717833
 20
1.038238965135936
 30
0.0
 10
0.6798398630717833
 20
1.038238965135936
 30
0.0
 10
0.6916750277529975
 20
1.051809214399706
 30
0.0
 10
0.7018482556674144
 20
1.061035851242423
 30
0.0
 10
0.7224290006681838
 20
1.06339213440914
 30
0.0
 10
0.7224290006681838
 20
1.06339213440914
 30
0.0
 10
2.626454809579248
 20
1.06339213440914
 30
0.0
 10
2.626454809579248
 20
1.06339213440914
 30
0.0
  0
ENDBLK
  5
D7
330
D4
100
AcDbEntity
  8
0
100
AcDbBlockEnd
  0
BLOCK
  5
DD
330
DB
100
AcDbEntity
  8
0
100
AcDbBlockBegin
  2
block 23
 70
     0
 10
0.0
 20
0.0
 30
0.0
  3
block 23
  1

  0
INSERT
  5
E0
330
DB
100
AcDbEntity
  8
_U+5207_U+65AD_U+30D1_U+30B9
100
AcDbBlockReference
  2
block 24
 10
0.0
 20
0.0
 30
0.0
  0
INSERT
  5
E5
330
DB
100
AcDbEntity
  8
_U+5207_U+65AD_U+30D1_U+30B9
100
AcDbBlockReference
  2
block 25
 10
0.0
 20
0.0
 30
0.0
  0
INSERT
  5
EA
330
DB
100
AcDbEntity
  8
_U+5207_U+65AD_U+30D1_U+30B9
100
AcDbBlockReference
  2
block 26
 10
0.0
 20
0.0
 30
0.0
  0
ENDBLK
  5
DE
330
DB
100
AcDbEntity
  8
0
100
AcDbBlockEnd
  0
BLOCK
  5
E1
330
DF
100
AcDbEntity
  8
0
100
AcDbBlockBegin
  2
block 24
 70
     0
 10
0.0
 20
0.0
 30
0.0
  3
block 24
  1

  0
SPLINE
  5
E3
330
DF
100
AcDbEntity
  8
_U+5207_U+65AD_U+30D1_U+30B9
 62
     1
420
 16711680
370
     9
100
AcDbSpline
210
0.0
220
0.0
230
1.0
 70
    11
 71
     3
 72
    20
 73
    16
 74
     0
 42
0.0000000001
 43
0.0000000001
 12
1.0
 22
0.0
 32
0.0
 13
1.0
 23
0.0
 33
0.0
 40
0.0
 40
0.0
 40
0.0
 40
0.0
 40
1.0
 40
1.0
 40
1.0
 40
2.0
 40
2.0
 40
2.0
 40
3.0
 40
3.0
 40
3.0
 40
4.0
 40
4.0
 40
4.0
 40
5.0
 40
5.0
 40
5.0
 40
5.0
 10
-0.7477864802752947
 20
-2.970471905110116
 30
0.0
 10
-0.7717060202525595
 20
-2.970471890413894
 30
0.0
 10
-0.7910966505533376
 20
-2.989862496887276
 30
0.0
 10
-0.7910966652496098
 20
-3.013782036864793
 30
0.0
 10
-0.7910966799458315
 20
-3.03770157684221
 30
0.0
 10
-0.7717060734723998
 20
-3.057092207143038
 30
0.0
 10
-0.747786533495135
 20
-3.05709222183931
 30
0.0
 10
-0.7238669935175671
 20
-3.057092236535583
 30
0.0
 10
-0.704476363216789
 20
-3.0377016300621
 30
0.0
 10
-0.7044763485205168
 20
-3.013782090084684
 30
0.0
 10
-0.7044763338242445
 20
-2.989862550107167
 30
0.0
 10
-0.7238669402976762
 20
-2.970471919806389
 30
0.0
 10
-0.7477864802752947
 20
-2.970471905110116
 30
0.0
 10
-0.7477864802752947
 20
-2.970471905110116
 30
0.0
 10
-0.7477864802752947
 20
-2.970471905110116
 30
0.0
 10
-0.7477864802752947
 20
-2.970471905110116
 30
0.0
  0
ENDBLK
  5
E2
330
DF
100
AcDbEntity
  8
0
100
AcDbBlockEnd
  0
BLOCK
  5
E6
330
E4
100
AcDbEntity
  8
0
100
AcDbBlockBegin
  2
block 25
 70
     0
 10
0.0
 20
0.0
 30
0.0
  3
block 25
  1

  0
SPLINE
  5
E8
330
E4
100
AcDbEntity
  8
_U+5207_U+65AD_U+30D1_U+30B9
 62
     1
420
 16711680
370
     9
100
AcDbSpline
210
0.0
220
0.0
230
1.0
 70
    11
 71
     3
 72
    20
 73
    16
 74
     0
 42
0.0000000001
 43
0.0000000001
 12
1.0
 22
0.0
 32
0.0
 13
1.0
 23
0.0
 33
0.0
 40
0.0
 40
0.0
 40
0.0
 40
0.0
 40
1.0
 40
1.0
 40
1.0
 40
2.0
 40
2.0
 40
2.0
 40
3.0
 40
3.0
 40
3.0
 40
4.0
 40
4.0
 40
4.0
 40
5.0
 40
5.0
 40
5.0
 40
5.0
 10
-0.4131174254978936
 20
-3.541378743720442
 30
0.0
 10
-0.4370369654754616
 20
-3.541378729024169
 30
0.0
 10
-0.456427595775886
 20
-3.560769335497702
 30
0.0
 10
-0.4564276104721582
 20
-3.584688875475017
 30
0.0
 10
-0.4564276251684305
 20
-3.608608415452585
 30
0.0
 10
-0.437037018695302
 20
-3.627999045753465
 30
0.0
 10
-0.413117478717734
 20
-3.627999060449686
 30
0.0
 10
-0.3891979387399639
 20
-3.627999075146009
 30
0.0
 10
-0.3698073084391859
 20
-3.608608468672476
 30
0.0
 10
-0.3698072937429641
 20
-3.584688928694908
 30
0.0
 10
-0.3698072790466919
 20
-3.560769388717593
 30
0.0
 10
-0.3891978855201235
 20
-3.541378758416714
 30
0.0
 10
-0.4131174254978936
 20
-3.541378743720442
 30
0.0
 10
-0.4131174254978936
 20
-3.541378743720442
 30
0.0
 10
-0.4131174254978936
 20
-3.541378743720442
 30
0.0
 10
-0.4131174254978936
 20
-3.541378743720442
 30
0.0
  0
ENDBLK
  5
E7
330
E4
100
AcDbEntity
  8
0
100
AcDbBlockEnd
  0
BLOCK
  5
EB
330
E9
100
AcDbEntity
  8
0
100
AcDbBlockBegin
  2
block 26
 70
     0
 10
0.0
 20
0.0
 30
0.0
  3
block 26
  1

  0
SPLINE
  5
ED
330
E9
100
AcDbEntity
  8
_U+5207_U+65AD_U+30D1_U+30B9
 62
     1
420
 16711680
370
     9
100
AcDbSpline
210
0.0
220
0.0
230
1.0
 70
    11
 71
     3
 72
    32
 73
    28
 74
     0
 42
0.0000000001
 43
0.0000000001
 12
1.0
 22
0.0
 32
0.0
 13
1.0
 23
0.0
 33
0.0
 40
0.0
 40
0.0
 40
0.0
 40
0.0
 40
1.0
 40
1.0
 40
1.0
 40
2.0
 40
2.0
 40
2.0
 40
3.0
 40
3.0
 40
3.0
 40
4.0
 40
4.0
 40
4.0
 40
5.0
 40
5.0
 40
5.0
 40
6.0
 40
6.0
 40
6.0
 40
7.0
 40
7.0
 40
7.0
 40
8.0
 40
8.0
 40
8.0
 40
9.0
 40
9.0
 40
9.0
 40
9.0
 10
-2.636725865705848
 20
-2.873024135249731
 30
0.0
 10
-2.647601343606349
 20
-2.873031773993969
 30
0.0
 10
-2.656417617343613
 20
-2.881842658116309
 30
0.0
 10
-2.656431906578329
 20
-2.892718129312116
 30
0.0
 10
-2.656431906578329
 20
-2.892718129312116
 30
0.0
 10
-2.656431906613092
 20
-3.667150885301099
 30
0.0
 10
-2.656431906613092
 20
-3.667150885301099
 30
0.0
 10
-2.656431906614456
 20
-3.69759177702402
 30
0.0
 10
-2.631754688102306
 20
-3.722268995538393
 30
0.0
 10
-2.601313796379334
 20
-3.722268995539757
 30
0.0
 10
-2.601313796379334
 20
-3.722268995539757
 30
0.0
 10
-0.2627076788063252
 20
-3.722268995644754
 30
0.0
 10
-0.2627076788063252
 20
-3.722268995644754
 30
0.0
 10
-0.2601917450745709
 20
-3.721878065898737
 30
0.0
 10
-0.2577329216336466
 20
-3.72118155926258
 30
0.0
 10
-0.2553857332524356
 20
-3.720194920872473
 30
0.0
 10
-0.2394525118314732
 20
-3.713497406496268
 30
0.0
 10
-0.2319654919725988
 20
-3.695151570327349
 30
0.0
 10
-0.2386630063487524
 20
-3.679218348906589
 30
0.0
 10
-0.2386630063487524
 20
-3.679218348906589
 30
0.0
 10
-0.6901109191995071
 20
-2.898177304610322
 30
0.0
 10
-0.6901109191995071
 20
-2.898177304610322
 30
0.0
 10
-0.7019460838801402
 20
-2.884607055346047
 30
0.0
 10
-0.7121193117941276
 20
-2.875380418502826
 30
0.0
 10
-0.7327000567947708
 20
-2.873024135335223
 30
0.0
 10
-0.7327000567947708
 20
-2.873024135335223
 30
0.0
 10
-2.636725865705848
 20
-2.873024135249731
 30
0.0
 10
-2.636725865705848
 20
-2.873024135249731
 30
0.0
  0
ENDBLK
  5
EC
330
E9
100
AcDbEntity
  8
0
100
AcDbBlockEnd
  0
ENDSEC
  0
SECTION
  2
ENTITIES
  0
INSERT
  5
42
330
1F
100
AcDbEntity
  8
_U+5F6B_U+523B_U+30D1_U+30B9
100
AcDbBlockReference
  2
block 2
 10
0.0
 20
0.0
 30
0.0
  0
INSERT
  5
6D
330
1F
100
AcDbEntity
  8
_U+5F6B_U+523B_U+30D1_U+30B9
100
AcDbBlockReference
  2
block 6
 10
0.0
 20
0.0
 30
0.0
  0
INSERT
  5
99
330
1F
100
AcDbEntity
  8
_U+5207_U+65AD_U+30D1_U+30B9
100
AcDbBlockReference
  2
block 10
 10
0.0
 20
0.0
 30
0.0
  0
INSERT
  5
B7
330
1F
100
AcDbEntity
  8
_U+5207_U+65AD_U+30D1_U+30B9
100
AcDbBlockReference
  2
block 16
 10
0.0
 20
0.0
 30
0.0
  0
INSERT
  5
D5
330
1F
100
AcDbEntity
  8
_U+5207_U+65AD_U+30D1_U+30B9
100
AcDbBlockReference
  2
block 22
 10
0.0
 20
0.0
 30
0.0
  0
INSERT
  5
DC
330
1F
100
AcDbEntity
  8
_U+5207_U+65AD_U+30D1_U+30B9
100
AcDbBlockReference
  2
block 23
 10
0.0
 20
0.0
 30
0.0
  0
ENDSEC
  0
SECTION
  2
OBJECTS
  0
DICTIONARY
  5
C
330
0
100
AcDbDictionary
281
     1
  3
ACAD_GROUP
350
D
  3
ACAD_LAYOUT
350
1A
  3
ACAD_MATERIAL
350
3B
  3
ACAD_MLEADERSTYLE
350
EF
  3
ACAD_MLINESTYLE
350
17
  3
ACAD_PLOTSETTINGS
350
19
  3
ACAD_PLOTSTYLENAME
350
E
  3
ACAD_TABLESTYLE
350
EE
  3
ACAD_VISUALSTYLE
350
2A
  0
SUN
  5
3F
330
29
100
AcDbSun
 90
        1
290
     0
 63
     7
421
 16777215
 40
1.0
291
     1
 91
  2455826
 92
 54000000
292
     0
 70
     2
 71
   256
280
     1
  0
DICTIONARY
  5
D
102
{ACAD_REACTORS
330
C
102
}
330
C
100
AcDbDictionary
281
     1
  0
DICTIONARY
  5
1A
102
{ACAD_REACTORS
330
C
102
}
330
C
100
AcDbDictionary
281
     1
  3
Layout1
350
1E
  3
Layout2
350
26
  3
Model
350
22
  0
DICTIONARY
  5
3B
102
{ACAD_REACTORS
330
C
102
}
330
C
100
AcDbDictionary
281
     1
  3
ByBlock
350
3D
  3
ByLayer
350
3C
  3
Global
350
3E
  0
DICTIONARY
  5
EF
102
{ACAD_REACTORS
330
C
102
}
330
C
100
AcDbDictionary
281
     1
  0
DICTIONARY
  5
17
102
{ACAD_REACTORS
330
C
102
}
330
C
100
AcDbDictionary
281
     1
  3
Standard
350
18
  0
DICTIONARY
  5
19
102
{ACAD_REACTORS
330
C
102
}
330
C
100
AcDbDictionary
281
     1
  0
ACDBDICTIONARYWDFLT
  5
E
102
{ACAD_REACTORS
330
C
102
}
330
C
100
AcDbDictionary
281
     1
  3
Normal
350
F
100
AcDbDictionaryWithDefault
340
F
  0
DICTIONARY
  5
EE
102
{ACAD_REACTORS
330
C
102
}
330
C
100
AcDbDictionary
281
     1
  0
DICTIONARY
  5
2A
102
{ACAD_REACTORS
330
C
102
}
330
C
100
AcDbDictionary
281
     1
  3
2dWireframe
350
2F
  3
3D Hidden
350
31
  3
3dWireframe
350
30
  3
Basic
350
32
  3
Brighten
350
36
  3
ColorChange
350
3A
  3
Conceptual
350
34
  3
Dim
350
35
  3
Facepattern
350
39
  3
Flat
350
2B
  3
FlatWithEdges
350
2C
  3
Gouraud
350
2D
  3
GouraudWithEdges
350
2E
  3
Linepattern
350
38
  3
Realistic
350
33
  3
Thicken
350
37
  0
LAYOUT
  5
1E
102
{ACAD_REACTORS
330
1A
102
}
330
1A
100
AcDbPlotSettings
  1

  2
none_device
  4

  6

 40
0.0
 41
0.0
 42
0.0
 43
0.0
 44
0.0
 45
0.0
 46
0.0
 47
0.0
 48
0.0
 49
0.0
140
0.0
141
0.0
142
1.0
143
1.0
 70
   688
 72
     0
 73
     0
 74
     5
  7

 75
    16
 76
     0
 77
     2
 78
   300
147
1.0
148
0.0
149
0.0
100
AcDbLayout
  1
Layout1
 70
     1
 71
     1
 10
0.0
 20
0.0
 11
12.0
 21
9.0
 12
0.0
 22
0.0
 32
0.0
 14
1.000000000000000E+20
 24
1.000000000000000E+20
 34
1.000000000000000E+20
 15
-1.000000000000000E+20
 25
-1.000000000000000E+20
 35
-1.000000000000000E+20
146
0.0
 13
0.0
 23
0.0
 33
0.0
 16
1.0
 26
0.0
 36
0.0
 17
0.0
 27
1.0
 37
0.0
 76
     0
330
1B
  0
LAYOUT
  5
26
102
{ACAD_REACTORS
330
1A
102
}
330
1A
100
AcDbPlotSettings
  1

  2
none_device
  4

  6

 40
0.0
 41
0.0
 42
0.0
 43
0.0
 44
0.0
 45
0.0
 46
0.0
 47
0.0
 48
0.0
 49
0.0
140
0.0
141
0.0
142
1.0
143
1.0
 70
   688
 72
     0
 73
     0
 74
     5
  7

 75
    16
 76
     0
 77
     2
 78
   300
147
1.0
148
0.0
149
0.0
100
AcDbLayout
  1
Layout2
 70
     1
 71
     2
 10
0.0
 20
0.0
 11
0.0
 21
0.0
 12
0.0
 22
0.0
 32
0.0
 14
0.0
 24
0.0
 34
0.0
 15
0.0
 25
0.0
 35
0.0
146
0.0
 13
0.0
 23
0.0
 33
0.0
 16
1.0
 26
0.0
 36
0.0
 17
0.0
 27
1.0
 37
0.0
 76
     0
330
23
  0
LAYOUT
  5
22
102
{ACAD_REACTORS
330
1A
102
}
330
1A
100
AcDbPlotSettings
  1

  2
none_device
  4

  6

 40
0.0
 41
0.0
 42
0.0
 43
0.0
 44
0.0
 45
0.0
 46
0.0
 47
0.0
 48
0.0
 49
0.0
140
0.0
141
0.0
142
1.0
143
1.0
 70
  1712
 72
     0
 73
     0
 74
     0
  7

 75
     0
 76
     0
 77
     2
 78
   300
147
1.0
148
0.0
149
0.0
100
AcDbLayout
  1
Model
 70
     1
 71
     0
 10
0.0
 20
0.0
 11
12.0
 21
9.0
 12
0.0
 22
0.0
 32
0.0
 14
1.000000000000000E+20
 24
1.000000000000000E+20
 34
1.000000000000000E+20
 15
-1.000000000000000E+20
 25
-1.000000000000000E+20
 35
-1.000000000000000E+20
146
0.0
 13
0.0
 23
0.0
 33
0.0
 16
1.0
 26
0.0
 36
0.0
 17
0.0
 27
1.0
 37
0.0
 76
     0
330
1F
331
29
  0
MATERIAL
  5
3D
102
{ACAD_REACTORS
330
3B
102
}
330
3B
100
AcDbMaterial
  1
ByBlock
 72
     1
 94
      127
  0
MATERIAL
  5
3C
102
{ACAD_REACTORS
330
3B
102
}
330
3B
100
AcDbMaterial
  1
ByLayer
 72
     1
 94
      127
  0
MATERIAL
  5
3E
102
{ACAD_REACTORS
330
3B
102
}
330
3B
100
AcDbMaterial
  1
Global
 72
     1
 94
      127
  0
MLINESTYLE
  5
18
102
{ACAD_REACTORS
330
17
102
}
330
17
100
AcDbMlineStyle
  2
Standard
 70
     0
  3

 62
   256
 51
90.0
 52
90.0
 71
     2
 49
0.5
 62
   256
  6
BYLAYER
 49
-0.5
 62
   256
  6
BYLAYER
  0
ACDBPLACEHOLDER
  5
F
102
{ACAD_REACTORS
330
E
102
}
330
E
  0
VISUALSTYLE
  5
2F
102
{ACAD_REACTORS
330
2A
102
}
330
2A
100
AcDbVisualStyle
  2
2dWireframe
 70
     4
177
     2
291
     0
 71
     0
176
     1
 72
     2
176
     1
 73
     0
176
     1
 90
        0
176
     1
 40
-0.6
176
     1
 41
-30.0
176
     1
 62
     5
 63
     7
421
 16777215
176
     1
 74
     1
176
     1
 91
        4
176
     1
 64
     7
176
     1
 65
   257
176
     1
 75
     1
176
     1
175
     1
176
     1
 42
1.0
176
     1
 92
        0
176
     1
 66
   257
176
     1
 43
1.0
176
     1
 76
     1
176
     1
 77
     6
176
     1
 78
     2
176
     1
 67
     7
176
     1
 79
     5
176
     1
170
     0
176
     1
171
     0
176
     1
290
     0
176
     1
 93
        1
176
     1
 44
0.0
176
     1
173
     0
176
     1
  0
VISUALSTYLE
  5
31
102
{ACAD_REACTORS
330
2A
102
}
330
2A
100
AcDbVisualStyle
  2
3D Hidden
 70
     6
177
     2
291
     0
 71
     1
176
     1
 72
     2
176
     1
 73
     2
176
     1
 90
        0
176
     1
 40
-0.6
176
     1
 41
-30.0
176
     1
 62
     5
 63
     7
421
 16777215
176
     1
 74
     2
176
     1
 91
        2
176
     1
 64
     7
176
     1
 65
   257
176
     1
 75
     2
176
     1
175
     1
176
     1
 42
40.0
176
     1
 92
        0
176
     1
 66
   257
176
     1
 43
1.0
176
     1
 76
     1
176
     1
 77
     6
176
     1
 78
     2
176
     1
 67
     7
176
     1
 79
     3
176
     1
170
     0
176
     1
171
     0
176
     1
290
     0
176
     1
 93
        1
176
     1
 44
0.0
176
     1
173
     0
176
     1
  0
VISUALSTYLE
  5
30
102
{ACAD_REACTORS
330
2A
102
}
330
2A
100
AcDbVisualStyle
  2
3dWireframe
 70
     5
177
     2
291
     0
 71
     0
176
     1
 72
     2
176
     1
 73
     0
176
     1
 90
        0
176
     1
 40
-0.6
176
     1
 41
-30.0
176
     1
 62
     5
 63
     7
421
 16777215
176
     1
 74
     1
176
     1
 91
        4
176
     1
 64
     7
176
     1
 65
   257
176
     1
 75
     1
176
     1
175
     1
176
     1
 42
1.0
176
     1
 92
        0
176
     1
 66
   257
176
     1
 43
1.0
176
     1
 76
     1
176
     1
 77
     6
176
     1
 78
     2
176
     1
 67
     7
176
     1
 79
     5
176
     1
170
     0
176
     1
171
     0
176
     1
290
     0
176
     1
 93
        1
176
     1
 44
0.0
176
     1
173
     0
176
     1
  0
VISUALSTYLE
  5
32
102
{ACAD_REACTORS
330
2A
102
}
330
2A
100
AcDbVisualStyle
  2
Basic
 70
     7
177
     2
291
     1
 71
     1
176
     1
 72
     0
176
     1
 73
     1
176
     1
 90
        0
176
     1
 40
-0.6
176
     1
 41
-30.0
176
     1
 62
     5
 63
     7
421
 16777215
176
     1
 74
     0
176
     1
 91
        4
176
     1
 64
     7
176
     1
 65
   257
176
     1
 75
     1
176
     1
175
     1
176
     1
 42
1.0
176
     1
 92
        8
176
     1
 66
     7
176
     1
 43
1.0
176
     1
 76
     1
176
     1
 77
     6
176
     1
 78
     2
176
     1
 67
     7
176
     1
 79
     5
176
     1
170
     0
176
     1
171
     0
176
     1
290
     0
176
     1
 93
        1
176
     1
 44
0.0
176
     1
173
     0
176
     1
  0
VISUALSTYLE
  5
36
102
{ACAD_REACTORS
330
2A
102
}
330
2A
100
AcDbVisualStyle
  2
Brighten
 70
    12
177
     2
291
     1
 71
     2
176
     1
 72
     2
176
     1
 73
     0
176
     1
 90
        0
176
     1
 40
-0.6
176
     1
 41
-30.0
176
     1
 62
     5
 63
     7
421
 16777215
176
     1
 74
     1
176
     1
 91
        4
176
     1
 64
     7
176
     1
 65
   257
176
     1
 75
     1
176
     1
175
     1
176
     1
 42
1.0
176
     1
 92
        8
176
     1
 66
     7
176
     1
 43
1.0
176
     1
 76
     1
176
     1
 77
     6
176
     1
 78
     2
176
     1
 67
     7
176
     1
 79
     5
176
     1
170
     0
176
     1
171
     0
176
     1
290
     0
176
     1
 93
        1
176
     1
 44
50.0
176
     1
173
     0
176
     1
  0
VISUALSTYLE
  5
3A
102
{ACAD_REACTORS
330
2A
102
}
330
2A
100
AcDbVisualStyle
  2
ColorChange
 70
    16
177
     2
291
     1
 71
     2
176
     1
 72
     2
176
     1
 73
     3
176
     1
 90
        0
176
     1
 40
-0.6
176
     1
 41
-30.0
176
     1
 62
     5
 63
     8
421
  8421504
176
     1
 74
     1
176
     1
 91
        4
176
     1
 64
     7
176
     1
 65
   257
176
     1
 75
     1
176
     1
175
     1
176
     1
 42
1.0
176
     1
 92
        8
176
     1
 66
     8
424
  8421504
176
     1
 43
1.0
176
     1
 76
     1
176
     1
 77
     6
176
     1
 78
     2
176
     1
 67
     7
176
     1
 79
     5
176
     1
170
     0
176
     1
171
     0
176
     1
290
     0
176
     1
 93
        1
176
     1
 44
0.0
176
     1
173
     0
176
     1
  0
VISUALSTYLE
  5
34
102
{ACAD_REACTORS
330
2A
102
}
330
2A
100
AcDbVisualStyle
  2
Conceptual
 70
     9
177
     2
291
     0
 71
     3
176
     1
 72
     2
176
     1
 73
     0
176
     1
 90
        0
176
     1
 40
-0.6
176
     1
 41
-30.0
176
     1
 62
     5
 63
     7
421
 16777215
176
     1
 74
     2
176
     1
 91
        2
176
     1
 64
     7
176
     1
 65
   257
176
     1
 75
     1
176
     1
175
     1
176
     1
 42
40.0
176
     1
 92
        8
176
     1
 66
     7
176
     1
 43
1.0
176
     1
 76
     1
176
     1
 77
     6
176
     1
 78
     2
176
     1
 67
     7
176
     1
 79
     3
176
     1
170
     0
176
     1
171
     0
176
     1
290
     0
176
     1
 93
        1
176
     1
 44
0.0
176
     1
173
     0
176
     1
  0
VISUALSTYLE
  5
35
102
{ACAD_REACTORS
330
2A
102
}
330
2A
100
AcDbVisualStyle
  2
Dim
 70
    11
177
     2
291
     1
 71
     2
176
     1
 72
     2
176
     1
 73
     0
176
     1
 90
        0
176
     1
 40
-0.6
176
     1
 41
-30.0
176
     1
 62
     5
 63
     7
421
 16777215
176
     1
 74
     1
176
     1
 91
        4
176
     1
 64
     7
176
     1
 65
   257
176
     1
 75
     1
176
     1
175
     1
176
     1
 42
1.0
176
     1
 92
        8
176
     1
 66
     7
176
     1
 43
1.0
176
     1
 76
     1
176
     1
 77
     6
176
     1
 78
     2
176
     1
 67
     7
176
     1
 79
     5
176
     1
170
     0
176
     1
171
     0
176
     1
290
     0
176
     1
 93
        1
176
     1
 44
-50.0
176
     1
173
     0
176
     1
  0
VISUALSTYLE
  5
39
102
{ACAD_REACTORS
330
2A
102
}
330
2A
100
AcDbVisualStyle
  2
Facepattern
 70
    15
177
     2
291
     1
 71
     2
176
     1
 72
     2
176
     1
 73
     0
176
     1
 90
        0
176
     1
 40
-0.6
176
     1
 41
-30.0
176
     1
 62
     5
 63
     7
421
 16777215
176
     1
 74
     1
176
     1
 91
        4
176
     1
 64
     7
176
     1
 65
   257
176
     1
 75
     1
176
     1
175
     1
176
     1
 42
1.0
176
     1
 92
        8
176
     1
 66
     7
176
     1
 43
1.0
176
     1
 76
     1
176
     1
 77
     6
176
     1
 78
     2
176
     1
 67
     7
176
     1
 79
     5
176
     1
170
     0
176
     1
171
     0
176
     1
290
     0
176
     1
 93
        1
176
     1
 44
0.0
176
     1
173
     0
176
     1
  0
VISUALSTYLE
  5
2B
102
{ACAD_REACTORS
330
2A
102
}
330
2A
100
AcDbVisualStyle
  2
Flat
 70
     0
177
     2
291
     1
 71
     2
176
     1
 72
     1
176
     1
 73
     1
176
     1
 90
        2
176
     1
 40
-0.6
176
     1
 41
30.0
176
     1
 62
     5
 63
     7
421
 16777215
176
     1
 74
     0
176
     1
 91
        4
176
     1
 64
     7
176
     1
 65
   257
176
     1
 75
     1
176
     1
175
     1
176
     1
 42
1.0
176
     1
 92
        8
176
     1
 66
     7
176
     1
 43
1.0
176
     1
 76
     1
176
     1
 77
     6
176
     1
 78
     2
176
     1
 67
     7
176
     1
 79
     5
176
     1
170
     0
176
     1
171
     0
176
     1
290
     0
176
     1
 93
       13
176
     1
 44
0.0
176
     1
173
     0
176
     1
  0
VISUALSTYLE
  5
2C
102
{ACAD_REACTORS
330
2A
102
}
330
2A
100
AcDbVisualStyle
  2
FlatWithEdges
 70
     1
177
     2
291
     1
 71
     2
176
     1
 72
     1
176
     1
 73
     1
176
     1
 90
        2
176
     1
 40
-0.6
176
     1
 41
30.0
176
     1
 62
     5
 63
     7
421
 16777215
176
     1
 74
     1
176
     1
 91
        4
176
     1
 64
     7
176
     1
 65
   257
176
     1
 75
     1
176
     1
175
     1
176
     1
 42
1.0
176
     1
 92
        0
176
     1
 66
   257
176
     1
 43
1.0
176
     1
 76
     1
176
     1
 77
     6
176
     1
 78
     2
176
     1
 67
     7
176
     1
 79
     5
176
     1
170
     0
176
     1
171
     0
176
     1
290
     0
176
     1
 93
       13
176
     1
 44
0.0
176
     1
173
     0
176
     1
  0
VISUALSTYLE
  5
2D
102
{ACAD_REACTORS
330
2A
102
}
330
2A
100
AcDbVisualStyle
  2
Gouraud
 70
     2
177
     2
291
     1
 71
     2
176
     1
 72
     2
176
     1
 73
     1
176
     1
 90
        2
176
     1
 40
-0.6
176
     1
 41
30.0
176
     1
 62
     5
 63
     7
421
 16777215
176
     1
 74
     0
176
     1
 91
        4
176
     1
 64
     7
176
     1
 65
   257
176
     1
 75
     1
176
     1
175
     1
176
     1
 42
1.0
176
     1
 92
        0
176
     1
 66
     7
176
     1
 43
1.0
176
     1
 76
     1
176
     1
 77
     6
176
     1
 78
     2
176
     1
 67
     7
176
     1
 79
     5
176
     1
170
     0
176
     1
171
     0
176
     1
290
     0
176
     1
 93
       13
176
     1
 44
0.0
176
     1
173
     0
176
     1
  0
VISUALSTYLE
  5
2E
102
{ACAD_REACTORS
330
2A
102
}
330
2A
100
AcDbVisualStyle
  2
GouraudWithEdges
 70
     3
177
     2
291
     1
 71
     2
176
     1
 72
     2
176
     1
 73
     1
176
     1
 90
        2
176
     1
 40
-0.6
176
     1
 41
30.0
176
     1
 62
     5
 63
     7
421
 16777215
176
     1
 74
     1
176
     1
 91
        4
176
     1
 64
     7
176
     1
 65
   257
176
     1
 75
     1
176
     1
175
     1
176
     1
 42
1.0
176
     1
 92
        0
176
     1
 66
   257
176
     1
 43
1.0
176
     1
 76
     1
176
     1
 77
     6
176
     1
 78
     2
176
     1
 67
     7
176
     1
 79
     5
176
     1
170
     0
176
     1
171
     0
176
     1
290
     0
176
     1
 93
       13
176
     1
 44
0.0
176
     1
173
     0
176
     1
  0
VISUALSTYLE
  5
38
102
{ACAD_REACTORS
330
2A
102
}
330
2A
100
AcDbVisualStyle
  2
Linepattern
 70
    14
177
     2
291
     1
 71
     2
176
     1
 72
     2
176
     1
 73
     0
176
     1
 90
        0
176
     1
 40
-0.6
176
     1
 41
-30.0
176
     1
 62
     5
 63
     7
421
 16777215
176
     1
 74
     1
176
     1
 91
        4
176
     1
 64
     7
176
     1
 65
   257
176
     1
 75
     7
176
     1
175
     7
176
     1
 42
1.0
176
     1
 92
        8
176
     1
 66
     7
176
     1
 43
1.0
176
     1
 76
     1
176
     1
 77
     6
176
     1
 78
     2
176
     1
 67
     7
176
     1
 79
     5
176
     1
170
     0
176
     1
171
     0
176
     1
290
     0
176
     1
 93
        1
176
     1
 44
0.0
176
     1
173
     0
176
     1
  0
VISUALSTYLE
  5
33
102
{ACAD_REACTORS
330
2A
102
}
330
2A
100
AcDbVisualStyle
  2
Realistic
 70
     8
177
     2
291
     0
 71
     2
176
     1
 72
     2
176
     1
 73
     0
176
     1
 90
        0
176
     1
 40
-0.6
176
     1
 41
-30.0
176
     1
 62
     5
 63
     7
421
 16777215
176
     1
 74
     1
176
     1
 91
        0
176
     1
 64
     7
176
     1
 65
   257
176
     1
 75
     1
176
     1
175
     1
176
     1
 42
1.0
176
     1
 92
        8
176
     1
 66
     8
424
  7895160
176
     1
 43
1.0
176
     1
 76
     1
176
     1
 77
     6
176
     1
 78
     2
176
     1
 67
     7
176
     1
 79
     5
176
     1
170
     0
176
     1
171
     0
176
     1
290
     0
176
     1
 93
       13
176
     1
 44
0.0
176
     1
173
     0
176
     1
  0
VISUALSTYLE
  5
37
102
{ACAD_REACTORS
330
2A
102
}
330
2A
100
AcDbVisualStyle
  2
Thicken
 70
    13
177
     2
291
     1
 71
     2
176
     1
 72
     2
176
     1
 73
     0
176
     1
 90
        0
176
     1
 40
-0.6
176
     1
 41
-30.0
176
     1
 62
     5
 63
     7
421
 16777215
176
     1
 74
     1
176
     1
 91
        4
176
     1
 64
     7
176
     1
 65
   257
176
     1
 75
     1
176
     1
175
     1
176
     1
 42
1.0
176
     1
 92
       12
176
     1
 66
     7
176
     1
 43
1.0
176
     1
 76
     1
176
     1
 77
     6
176
     1
 78
     2
176
     1
 67
     7
176
     1
 79
     5
176
     1
170
     0
176
     1
171
     0
176
     1
290
     0
176
     1
 93
        1
176
     1
 44
0.0
176
     1
173
     0
176
     1
  0
ENDSEC
  0
EOF
