  0
SECTION
  2
HEADER
  9
$ACADVER
  1
AC1024
  9
$ACADMAINTVER
 70
     6
  9
$DWGCODEPAGE
  3
UNDEFINED
  9
$INSBASE
 10
0.0
 20
0.0
 30
0.0
  9
$EXTMIN
 10
1.000000000000000E+20
 20
1.000000000000000E+20
 30
1.000000000000000E+20
  9
$EXTMAX
 10
-1.000000000000000E+20
 20
-1.000000000000000E+20
 30
-1.000000000000000E+20
  9
$LIMMIN
 10
0.0
 20
0.0
  9
$LIMMAX
 10
12.0
 20
9.0
  9
$ORTHOMODE
 70
     0
  9
$REGENMODE
 70
     1
  9
$FILLMODE
 70
     1
  9
$QTEXTMODE
 70
     0
  9
$MIRRTEXT
 70
     1
  9
$LTSCALE
 40
1.0
  9
$ATTMODE
 70
     1
  9
$TEXTSIZE
 40
0.2
  9
$TRACEWID
 40
0.05
  9
$TEXTSTYLE
  7
Standard
  9
$CLAYER
  8
0
  9
$CELTYPE
  6
ByLayer
  9
$CECOLOR
 62
   256
  9
$CELTSCALE
 40
1.0
  9
$DISPSILH
 70
     0
  9
$DIMSCALE
 40
1.0
  9
$DIMASZ
 40
0.18
  9
$DIMEXO
 40
0.0625
  9
$DIMDLI
 40
0.38
  9
$DIMRND
 40
0.0
  9
$DIMDLE
 40
0.0
  9
$DIMEXE
 40
0.18
  9
$DIMTP
 40
0.0
  9
$DIMTM
 40
0.0
  9
$DIMTXT
 40
0.18
  9
$DIMCEN
 40
0.09
  9
$DIMTSZ
 40
0.0
  9
$DIMTOL
 70
     0
  9
$DIMLIM
 70
     0
  9
$DIMTIH
 70
     1
  9
$DIMTOH
 70
     1
  9
$DIMSE1
 70
     0
  9
$DIMSE2
 70
     0
  9
$DIMTAD
 70
     0
  9
$DIMZIN
 70
     0
  9
$DIMBLK
  1

  9
$DIMASO
 70
     1
  9
$DIMSHO
 70
     1
  9
$DIMPOST
  1

  9
$DIMAPOST
  1

  9
$DIMALT
 70
     0
  9
$DIMALTD
 70
     2
  9
$DIMALTF
 40
25.4
  9
$DIMLFAC
 40
1.0
  9
$DIMTOFL
 70
     0
  9
$DIMTVP
 40
0.0
  9
$DIMTIX
 70
     0
  9
$DIMSOXD
 70
     0
  9
$DIMSAH
 70
     0
  9
$DIMBLK1
  1

  9
$DIMBLK2
  1

  9
$DIMSTYLE
  2
Standard
  9
$DIMCLRD
 70
     0
  9
$DIMCLRE
 70
     0
  9
$DIMCLRT
 70
     0
  9
$DIMTFAC
 40
1.0
  9
$DIMGAP
 40
0.09
  9
$DIMJUST
 70
     0
  9
$DIMSD1
 70
     0
  9
$DIMSD2
 70
     0
  9
$DIMTOLJ
 70
     1
  9
$DIMTZIN
 70
     0
  9
$DIMALTZ
 70
     0
  9
$DIMALTTZ
 70
     0
  9
$DIMUPT
 70
     0
  9
$DIMDEC
 70
     4
  9
$DIMTDEC
 70
     4
  9
$DIMALTU
 70
     2
  9
$DIMALTTD
 70
     2
  9
$DIMTXSTY
  7
Standard
  9
$DIMAUNIT
 70
     0
  9
$DIMADEC
 70
     0
  9
$DIMALTRND
 40
0.0
  9
$DIMAZIN
 70
     0
  9
$DIMDSEP
 70
    46
  9
$DIMATFIT
 70
     3
  9
$DIMFRAC
 70
     0
  9
$DIMLDRBLK
  1

  9
$DIMLUNIT
 70
     2
  9
$DIMLWD
 70
    -2
  9
$DIMLWE
 70
    -2
  9
$DIMTMOVE
 70
     0
  9
$DIMFXL
 40
1.0
  9
$DIMFXLON
 70
     0
  9
$DIMJOGANG
 40
0.7853981633974483
  9
$DIMTFILL
 70
     0
  9
$DIMTFILLCLR
 70
     0
  9
$DIMARCSYM
 70
     0
  9
$DIMLTYPE
  6

  9
$DIMLTEX1
  6

  9
$DIMLTEX2
  6

  9
$DIMTXTDIRECTION
 70
     0
  9
$LUNITS
 70
     2
  9
$LUPREC
 70
     4
  9
$SKETCHINC
 40
0.1
  9
$FILLETRAD
 40
0.5
  9
$AUNITS
 70
     0
  9
$AUPREC
 70
     0
  9
$MENU
  1
.
  9
$ELEVATION
 40
0.0
  9
$PELEVATION
 40
0.0
  9
$THICKNESS
 40
0.0
  9
$LIMCHECK
 70
     0
  9
$CHAMFERA
 40
0.5
  9
$CHAMFERB
 40
0.5
  9
$CHAMFERC
 40
1.0
  9
$CHAMFERD
 40
0.0
  9
$SKPOLY
 70
     0
  9
$TDCREATE
 40
2458484.843842581
  9
$TDUCREATE
 40
2458484.468842593
  9
$TDUPDATE
 40
2458484.843842581
  9
$TDUUPDATE
 40
2458484.468842593
  9
$TDINDWG
 40
0.0000000116
  9
$TDUSRTIMER
 40
0.0000000116
  9
$USRTIMER
 70
     1
  9
$ANGBASE
 50
0.0
  9
$ANGDIR
 70
     0
  9
$PDMODE
 70
     0
  9
$PDSIZE
 40
0.0
  9
$PLINEWID
 40
0.0
  9
$SPLFRAME
 70
     0
  9
$SPLINETYPE
 70
     6
  9
$SPLINESEGS
 70
     8
  9
$HANDSEED
  5
2DC
  9
$SURFTAB1
 70
     6
  9
$SURFTAB2
 70
     6
  9
$SURFTYPE
 70
     6
  9
$SURFU
 70
     6
  9
$SURFV
 70
     6
  9
$UCSBASE
  2

  9
$UCSNAME
  2

  9
$UCSORG
 10
0.0
 20
0.0
 30
0.0
  9
$UCSXDIR
 10
1.0
 20
0.0
 30
0.0
  9
$UCSYDIR
 10
0.0
 20
1.0
 30
0.0
  9
$UCSORTHOREF
  2

  9
$UCSORTHOVIEW
 70
     0
  9
$UCSORGTOP
 10
0.0
 20
0.0
 30
0.0
  9
$UCSORGBOTTOM
 10
0.0
 20
0.0
 30
0.0
  9
$UCSORGLEFT
 10
0.0
 20
0.0
 30
0.0
  9
$UCSORGRIGHT
 10
0.0
 20
0.0
 30
0.0
  9
$UCSORGFRONT
 10
0.0
 20
0.0
 30
0.0
  9
$UCSORGBACK
 10
0.0
 20
0.0
 30
0.0
  9
$PUCSBASE
  2

  9
$PUCSNAME
  2

  9
$PUCSORG
 10
0.0
 20
0.0
 30
0.0
  9
$PUCSXDIR
 10
1.0
 20
0.0
 30
0.0
  9
$PUCSYDIR
 10
0.0
 20
1.0
 30
0.0
  9
$PUCSORTHOREF
  2

  9
$PUCSORTHOVIEW
 70
     0
  9
$PUCSORGTOP
 10
0.0
 20
0.0
 30
0.0
  9
$PUCSORGBOTTOM
 10
0.0
 20
0.0
 30
0.0
  9
$PUCSORGLEFT
 10
0.0
 20
0.0
 30
0.0
  9
$PUCSORGRIGHT
 10
0.0
 20
0.0
 30
0.0
  9
$PUCSORGFRONT
 10
0.0
 20
0.0
 30
0.0
  9
$PUCSORGBACK
 10
0.0
 20
0.0
 30
0.0
  9
$USERI1
 70
     0
  9
$USERI2
 70
     0
  9
$USERI3
 70
     0
  9
$USERI4
 70
     0
  9
$USERI5
 70
     0
  9
$USERR1
 40
0.0
  9
$USERR2
 40
0.0
  9
$USERR3
 40
0.0
  9
$USERR4
 40
0.0
  9
$USERR5
 40
0.0
  9
$WORLDVIEW
 70
     1
  9
$SHADEDGE
 70
     3
  9
$SHADEDIF
 70
    70
  9
$TILEMODE
 70
     1
  9
$MAXACTVP
 70
    64
  9
$PINSBASE
 10
0.0
 20
0.0
 30
0.0
  9
$PLIMCHECK
 70
     0
  9
$PEXTMIN
 10
1.000000000000000E+20
 20
1.000000000000000E+20
 30
1.000000000000000E+20
  9
$PEXTMAX
 10
-1.000000000000000E+20
 20
-1.000000000000000E+20
 30
-1.000000000000000E+20
  9
$PLIMMIN
 10
0.0
 20
0.0
  9
$PLIMMAX
 10
12.0
 20
9.0
  9
$UNITMODE
 70
     0
  9
$VISRETAIN
 70
     1
  9
$PLINEGEN
 70
     0
  9
$PSLTSCALE
 70
     1
  9
$TREEDEPTH
 70
  3020
  9
$CMLSTYLE
  2
Standard
  9
$CMLJUST
 70
     0
  9
$CMLSCALE
 40
1.0
  9
$PROXYGRAPHICS
 70
     1
  9
$MEASUREMENT
 70
     0
  9
$CELWEIGHT
370
    -1
  9
$ENDCAPS
280
     0
  9
$JOINSTYLE
280
     0
  9
$LWDISPLAY
290
     1
  9
$INSUNITS
 70
     1
  9
$HYPERLINKBASE
  1

  9
$STYLESHEET
  1

  9
$XEDIT
290
     1
  9
$CEPSNTYPE
380
     0
  9
$PSTYLEMODE
290
     1
  9
$FINGERPRINTGUID
  2
{D6B071B7-9A9F-AE4D-3B42-D6E354F1440B}
  9
$VERSIONGUID
  2
{FAEB1C32-E019-11D5-929B-00C0DF256EC4}
  9
$EXTNAMES
290
     1
  9
$PSVPSCALE
 40
0.0
  9
$OLESTARTUP
290
     0
  9
$SORTENTS
280
   127
  9
$INDEXCTL
280
     0
  9
$HIDETEXT
280
     1
  9
$XCLIPFRAME
280
     2
  9
$HALOGAP
280
     0
  9
$OBSCOLOR
 70
   257
  9
$OBSLTYPE
280
     0
  9
$INTERSECTIONDISPLAY
280
     0
  9
$INTERSECTIONCOLOR
 70
   257
  9
$DIMASSOC
280
     2
  9
$PROJECTNAME
  1

  9
$CAMERADISPLAY
290
     0
  9
$LENSLENGTH
 40
50.0
  9
$CAMERAHEIGHT
 40
0.0
  9
$STEPSPERSEC
 40
2.0
  9
$STEPSIZE
 40
6.0
  9
$3DDWFPREC
 40
2.0
  9
$PSOLWIDTH
 40
0.25
  9
$PSOLHEIGHT
 40
4.0
  9
$LOFTANG1
 40
1.570796326794897
  9
$LOFTANG2
 40
1.570796326794897
  9
$LOFTMAG1
 40
0.0
  9
$LOFTMAG2
 40
0.0
  9
$LOFTPARAM
 70
     7
  9
$LOFTNORMALS
280
     1
  9
$LATITUDE
 40
37.795
  9
$LONGITUDE
 40
-122.394
  9
$NORTHDIRECTION
 40
0.0
  9
$TIMEZONE
 70
 -8000
  9
$LIGHTGLYPHDISPLAY
280
     1
  9
$TILEMODELIGHTSYNCH
280
     1
  9
$CMATERIAL
347
3C
  9
$SOLIDHIST
280
     1
  9
$SHOWHIST
280
     1
  9
$DWFFRAME
280
     2
  9
$DGNFRAME
280
     2
  9
$REALWORLDSCALE
290
     1
  9
$INTERFERECOLOR
 62
   256
  9
$CSHADOW
280
     0
  9
$SHADOWPLANELOCATION
 40
0.0
  0
ENDSEC
  0
SECTION
  2
CLASSES
  0
CLASS
  1
ACDBDICTIONARYWDFLT
  2
AcDbDictionaryWithDefault
  3
ObjectDBX Classes
 90
        0
 91
        4
280
     0
281
     0
  0
CLASS
  1
VISUALSTYLE
  2
AcDbVisualStyle
  3
ObjectDBX Classes
 90
     4095
 91
        4
280
     0
281
     0
  0
CLASS
  1
MATERIAL
  2
AcDbMaterial
  3
ObjectDBX Classes
 90
     1153
 91
        4
280
     0
281
     0
  0
CLASS
  1
SUN
  2
AcDbSun
  3
SCENEOE
 90
     1024
 91
        4
280
     0
281
     0
  0
ENDSEC
  0
SECTION
  2
TABLES
  0
TABLE
  2
VPORT
  5
8
330
0
100
AcDbSymbolTable
 70
     1
  0
VPORT
  5
29
330
8
100
AcDbSymbolTableRecord
100
AcDbViewportTableRecord
  2
*Active
 70
     0
 10
0.0
 20
0.0
 11
1.0
 21
1.0
 12
0.0
 22
0.0
 13
0.0
 23
0.0
 14
0.5
 24
0.5
 15
0.5
 25
0.5
 16
0.0
 26
0.0
 36
1.0
 17
-0.0000000000003126
 27
0.0
 37
0.0
 40
209.9999999474998
 41
1.414285714285718
 42
50.0
 43
0.0
 44
0.0
 50
0.0
 51
0.0
 71
     0
 72
   100
 73
     1
 74
     3
 75
     0
 76
     0
 77
     0
 78
     0
281
     0
 65
     1
110
0.0
120
0.0
130
0.0
111
1.0
121
0.0
131
0.0
112
0.0
122
1.0
132
0.0
 79
     0
146
0.0
 60
     3
 61
     5
292
     1
282
     1
141
0.0
142
0.0
 63
   250
361
3F
  0
ENDTAB
  0
TABLE
  2
LTYPE
  5
5
330
0
100
AcDbSymbolTable
 70
     1
  0
LTYPE
  5
14
330
5
100
AcDbSymbolTableRecord
100
AcDbLinetypeTableRecord
  2
ByBlock
 70
     0
  3

 72
    65
 73
     0
 40
0.0
  0
LTYPE
  5
15
330
5
100
AcDbSymbolTableRecord
100
AcDbLinetypeTableRecord
  2
ByLayer
 70
     0
  3

 72
    65
 73
     0
 40
0.0
  0
LTYPE
  5
16
330
5
100
AcDbSymbolTableRecord
100
AcDbLinetypeTableRecord
  2
Continuous
 70
     0
  3
Solid line
 72
    65
 73
     0
 40
0.0
  0
ENDTAB
  0
TABLE
  2
LAYER
  5
2
330
0
100
AcDbSymbolTable
 70
     3
  0
LAYER
  5
10
330
2
100
AcDbSymbolTableRecord
100
AcDbLayerTableRecord
  2
0
 70
     0
 62
     7
  6
Continuous
370
    -3
390
F
347
3E
  0
LAYER
  5
40
330
2
100
AcDbSymbolTableRecord
100
AcDbLayerTableRecord
  2
_U+5F6B_U+523B_U+30D1_U+30B9
 70
     0
 62
     7
  6
Continuous
370
    -3
390
F
347
3E
  0
LAYER
  5
65
330
2
100
AcDbSymbolTableRecord
100
AcDbLayerTableRecord
  2
_U+5207_U+65AD_U+30D1_U+30B9
 70
     0
 62
     7
  6
Continuous
370
    -3
390
F
347
3E
  0
ENDTAB
  0
TABLE
  2
STYLE
  5
3
330
0
100
AcDbSymbolTable
 70
     1
  0
STYLE
  5
11
330
3
100
AcDbSymbolTableRecord
100
AcDbTextStyleTableRecord
  2
Standard
 70
     0
 40
0.0
 41
1.0
 50
0.0
 71
     0
 42
0.2
  3
txt
  4

  0
ENDTAB
  0
TABLE
  2
VIEW
  5
6
330
0
100
AcDbSymbolTable
 70
     0
  0
ENDTAB
  0
TABLE
  2
UCS
  5
7
330
0
100
AcDbSymbolTable
 70
     0
  0
ENDTAB
  0
TABLE
  2
APPID
  5
9
330
0
100
AcDbSymbolTable
 70
     1
  0
APPID
  5
12
330
9
100
AcDbSymbolTableRecord
100
AcDbRegAppTableRecord
  2
ACAD
 70
     0
  0
ENDTAB
  0
TABLE
  2
DIMSTYLE
  5
A
330
0
100
AcDbSymbolTable
 70
     1
100
AcDbDimStyleTable
  0
DIMSTYLE
105
27
330
A
100
AcDbSymbolTableRecord
100
AcDbDimStyleTableRecord
  2
Standard
 70
     0
178
     0
340
11
  0
ENDTAB
  0
TABLE
  2
BLOCK_RECORD
  5
1
330
0
100
AcDbSymbolTable
 70
    79
  0
BLOCK_RECORD
  5
1F
330
1
100
AcDbSymbolTableRecord
100
AcDbBlockTableRecord
  2
*Model_Space
340
22
 70
     0
280
     1
281
     0
  0
BLOCK_RECORD
  5
1B
330
1
100
AcDbSymbolTableRecord
100
AcDbBlockTableRecord
  2
*Paper_Space
340
1E
 70
     0
280
     1
281
     0
  0
BLOCK_RECORD
  5
23
330
1
100
AcDbSymbolTableRecord
100
AcDbBlockTableRecord
  2
*Paper_Space0
340
26
 70
     0
280
     1
281
     0
  0
BLOCK_RECORD
  5
43
330
1
100
AcDbSymbolTableRecord
100
AcDbBlockTableRecord
  2
block 2
340
0
102
{BLKREFS
331
44
102
}
 70
     0
280
     1
281
     0
  0
BLOCK_RECORD
  5
55
330
1
100
AcDbSymbolTableRecord
100
AcDbBlockTableRecord
  2
block 3
340
0
102
{BLKREFS
331
56
102
}
 70
     0
280
     1
281
     0
  0
BLOCK_RECORD
  5
66
330
1
100
AcDbSymbolTableRecord
100
AcDbBlockTableRecord
  2
block 4
340
0
102
{BLKREFS
331
67
102
}
 70
     0
280
     1
281
     0
  0
BLOCK_RECORD
  5
6B
330
1
100
AcDbSymbolTableRecord
100
AcDbBlockTableRecord
  2
block 5
340
0
102
{BLKREFS
331
6C
102
}
 70
     0
280
     1
281
     0
  0
BLOCK_RECORD
  5
70
330
1
100
AcDbSymbolTableRecord
100
AcDbBlockTableRecord
  2
block 6
340
0
102
{BLKREFS
331
71
102
}
 70
     0
280
     1
281
     0
  0
BLOCK_RECORD
  5
75
330
1
100
AcDbSymbolTableRecord
100
AcDbBlockTableRecord
  2
block 7
340
0
102
{BLKREFS
331
76
102
}
 70
     0
280
     1
281
     0
  0
BLOCK_RECORD
  5
7A
330
1
100
AcDbSymbolTableRecord
100
AcDbBlockTableRecord
  2
block 8
340
0
102
{BLKREFS
331
7B
102
}
 70
     0
280
     1
281
     0
  0
BLOCK_RECORD
  5
7F
330
1
100
AcDbSymbolTableRecord
100
AcDbBlockTableRecord
  2
block 9
340
0
102
{BLKREFS
331
80
102
}
 70
     0
280
     1
281
     0
  0
BLOCK_RECORD
  5
84
330
1
100
AcDbSymbolTableRecord
100
AcDbBlockTableRecord
  2
block 10
340
0
102
{BLKREFS
331
85
102
}
 70
     0
280
     1
281
     0
  0
BLOCK_RECORD
  5
88
330
1
100
AcDbSymbolTableRecord
100
AcDbBlockTableRecord
  2
block 11
340
0
102
{BLKREFS
331
89
102
}
 70
     0
280
     1
281
     0
  0
BLOCK_RECORD
  5
8D
330
1
100
AcDbSymbolTableRecord
100
AcDbBlockTableRecord
  2
block 12
340
0
102
{BLKREFS
331
8E
102
}
 70
     0
280
     1
281
     0
  0
BLOCK_RECORD
  5
92
330
1
100
AcDbSymbolTableRecord
100
AcDbBlockTableRecord
  2
block 13
340
0
102
{BLKREFS
331
93
102
}
 70
     0
280
     1
281
     0
  0
BLOCK_RECORD
  5
97
330
1
100
AcDbSymbolTableRecord
100
AcDbBlockTableRecord
  2
block 14
340
0
102
{BLKREFS
331
98
102
}
 70
     0
280
     1
281
     0
  0
BLOCK_RECORD
  5
9C
330
1
100
AcDbSymbolTableRecord
100
AcDbBlockTableRecord
  2
block 15
340
0
102
{BLKREFS
331
9D
102
}
 70
     0
280
     1
281
     0
  0
BLOCK_RECORD
  5
A1
330
1
100
AcDbSymbolTableRecord
100
AcDbBlockTableRecord
  2
block 16
340
0
102
{BLKREFS
331
A2
102
}
 70
     0
280
     1
281
     0
  0
BLOCK_RECORD
  5
A6
330
1
100
AcDbSymbolTableRecord
100
AcDbBlockTableRecord
  2
block 17
340
0
102
{BLKREFS
331
A7
102
}
 70
     0
280
     1
281
     0
  0
BLOCK_RECORD
  5
B1
330
1
100
AcDbSymbolTableRecord
100
AcDbBlockTableRecord
  2
block 18
340
0
102
{BLKREFS
331
B2
102
}
 70
     0
280
     1
281
     0
  0
BLOCK_RECORD
  5
BC
330
1
100
AcDbSymbolTableRecord
100
AcDbBlockTableRecord
  2
block 19
340
0
102
{BLKREFS
331
BD
102
}
 70
     0
280
     1
281
     0
  0
BLOCK_RECORD
  5
C7
330
1
100
AcDbSymbolTableRecord
100
AcDbBlockTableRecord
  2
block 20
340
0
102
{BLKREFS
331
C8
102
}
 70
     0
280
     1
281
     0
  0
BLOCK_RECORD
  5
D2
330
1
100
AcDbSymbolTableRecord
100
AcDbBlockTableRecord
  2
block 21
340
0
102
{BLKREFS
331
D3
102
}
 70
     0
280
     1
281
     0
  0
BLOCK_RECORD
  5
DD
330
1
100
AcDbSymbolTableRecord
100
AcDbBlockTableRecord
  2
block 22
340
0
102
{BLKREFS
331
DE
102
}
 70
     0
280
     1
281
     0
  0
BLOCK_RECORD
  5
E8
330
1
100
AcDbSymbolTableRecord
100
AcDbBlockTableRecord
  2
block 23
340
0
102
{BLKREFS
331
E9
102
}
 70
     0
280
     1
281
     0
  0
BLOCK_RECORD
  5
F3
330
1
100
AcDbSymbolTableRecord
100
AcDbBlockTableRecord
  2
block 24
340
0
102
{BLKREFS
331
F4
102
}
 70
     0
280
     1
281
     0
  0
BLOCK_RECORD
  5
FE
330
1
100
AcDbSymbolTableRecord
100
AcDbBlockTableRecord
  2
block 25
340
0
102
{BLKREFS
331
FF
102
}
 70
     0
280
     1
281
     0
  0
BLOCK_RECORD
  5
109
330
1
100
AcDbSymbolTableRecord
100
AcDbBlockTableRecord
  2
block 26
340
0
102
{BLKREFS
331
10A
102
}
 70
     0
280
     1
281
     0
  0
BLOCK_RECORD
  5
114
330
1
100
AcDbSymbolTableRecord
100
AcDbBlockTableRecord
  2
block 27
340
0
102
{BLKREFS
331
115
102
}
 70
     0
280
     1
281
     0
  0
BLOCK_RECORD
  5
11F
330
1
100
AcDbSymbolTableRecord
100
AcDbBlockTableRecord
  2
block 28
340
0
102
{BLKREFS
331
120
102
}
 70
     0
280
     1
281
     0
  0
BLOCK_RECORD
  5
12A
330
1
100
AcDbSymbolTableRecord
100
AcDbBlockTableRecord
  2
block 29
340
0
102
{BLKREFS
331
12B
102
}
 70
     0
280
     1
281
     0
  0
BLOCK_RECORD
  5
135
330
1
100
AcDbSymbolTableRecord
100
AcDbBlockTableRecord
  2
block 30
340
0
102
{BLKREFS
331
136
102
}
 70
     0
280
     1
281
     0
  0
BLOCK_RECORD
  5
140
330
1
100
AcDbSymbolTableRecord
100
AcDbBlockTableRecord
  2
block 31
340
0
102
{BLKREFS
331
141
102
}
 70
     0
280
     1
281
     0
  0
BLOCK_RECORD
  5
14B
330
1
100
AcDbSymbolTableRecord
100
AcDbBlockTableRecord
  2
block 32
340
0
102
{BLKREFS
331
14C
102
}
 70
     0
280
     1
281
     0
  0
BLOCK_RECORD
  5
156
330
1
100
AcDbSymbolTableRecord
100
AcDbBlockTableRecord
  2
block 33
340
0
102
{BLKREFS
331
157
102
}
 70
     0
280
     1
281
     0
  0
BLOCK_RECORD
  5
161
330
1
100
AcDbSymbolTableRecord
100
AcDbBlockTableRecord
  2
block 34
340
0
102
{BLKREFS
331
162
102
}
 70
     0
280
     1
281
     0
  0
BLOCK_RECORD
  5
16C
330
1
100
AcDbSymbolTableRecord
100
AcDbBlockTableRecord
  2
block 35
340
0
102
{BLKREFS
331
16D
102
}
 70
     0
280
     1
281
     0
  0
BLOCK_RECORD
  5
177
330
1
100
AcDbSymbolTableRecord
100
AcDbBlockTableRecord
  2
block 36
340
0
102
{BLKREFS
331
178
102
}
 70
     0
280
     1
281
     0
  0
BLOCK_RECORD
  5
182
330
1
100
AcDbSymbolTableRecord
100
AcDbBlockTableRecord
  2
block 37
340
0
102
{BLKREFS
331
183
102
}
 70
     0
280
     1
281
     0
  0
BLOCK_RECORD
  5
18D
330
1
100
AcDbSymbolTableRecord
100
AcDbBlockTableRecord
  2
block 38
340
0
102
{BLKREFS
331
18E
102
}
 70
     0
280
     1
281
     0
  0
BLOCK_RECORD
  5
192
330
1
100
AcDbSymbolTableRecord
100
AcDbBlockTableRecord
  2
block 39
340
0
102
{BLKREFS
331
193
102
}
 70
     0
280
     1
281
     0
  0
BLOCK_RECORD
  5
197
330
1
100
AcDbSymbolTableRecord
100
AcDbBlockTableRecord
  2
block 40
340
0
102
{BLKREFS
331
198
102
}
 70
     0
280
     1
281
     0
  0
BLOCK_RECORD
  5
19C
330
1
100
AcDbSymbolTableRecord
100
AcDbBlockTableRecord
  2
block 41
340
0
102
{BLKREFS
331
19D
102
}
 70
     0
280
     1
281
     0
  0
BLOCK_RECORD
  5
1A1
330
1
100
AcDbSymbolTableRecord
100
AcDbBlockTableRecord
  2
block 42
340
0
102
{BLKREFS
331
1A2
102
}
 70
     0
280
     1
281
     0
  0
BLOCK_RECORD
  5
1A6
330
1
100
AcDbSymbolTableRecord
100
AcDbBlockTableRecord
  2
block 43
340
0
102
{BLKREFS
331
1A7
102
}
 70
     0
280
     1
281
     0
  0
BLOCK_RECORD
  5
1AB
330
1
100
AcDbSymbolTableRecord
100
AcDbBlockTableRecord
  2
block 44
340
0
102
{BLKREFS
331
1AC
102
}
 70
     0
280
     1
281
     0
  0
BLOCK_RECORD
  5
1AF
330
1
100
AcDbSymbolTableRecord
100
AcDbBlockTableRecord
  2
block 45
340
0
102
{BLKREFS
331
1B0
102
}
 70
     0
280
     1
281
     0
  0
BLOCK_RECORD
  5
1B4
330
1
100
AcDbSymbolTableRecord
100
AcDbBlockTableRecord
  2
block 46
340
0
102
{BLKREFS
331
1B5
102
}
 70
     0
280
     1
281
     0
  0
BLOCK_RECORD
  5
1B9
330
1
100
AcDbSymbolTableRecord
100
AcDbBlockTableRecord
  2
block 47
340
0
102
{BLKREFS
331
1BA
102
}
 70
     0
280
     1
281
     0
  0
BLOCK_RECORD
  5
1BE
330
1
100
AcDbSymbolTableRecord
100
AcDbBlockTableRecord
  2
block 48
340
0
102
{BLKREFS
331
1BF
102
}
 70
     0
280
     1
281
     0
  0
BLOCK_RECORD
  5
1C3
330
1
100
AcDbSymbolTableRecord
100
AcDbBlockTableRecord
  2
block 49
340
0
102
{BLKREFS
331
1C4
102
}
 70
     0
280
     1
281
     0
  0
BLOCK_RECORD
  5
1C8
330
1
100
AcDbSymbolTableRecord
100
AcDbBlockTableRecord
  2
block 50
340
0
102
{BLKREFS
331
1C9
102
}
 70
     0
280
     1
281
     0
  0
BLOCK_RECORD
  5
1CD
330
1
100
AcDbSymbolTableRecord
100
AcDbBlockTableRecord
  2
block 51
340
0
102
{BLKREFS
331
1CE
102
}
 70
     0
280
     1
281
     0
  0
BLOCK_RECORD
  5
1D8
330
1
100
AcDbSymbolTableRecord
100
AcDbBlockTableRecord
  2
block 52
340
0
102
{BLKREFS
331
1D9
102
}
 70
     0
280
     1
281
     0
  0
BLOCK_RECORD
  5
1E3
330
1
100
AcDbSymbolTableRecord
100
AcDbBlockTableRecord
  2
block 53
340
0
102
{BLKREFS
331
1E4
102
}
 70
     0
280
     1
281
     0
  0
BLOCK_RECORD
  5
1EE
330
1
100
AcDbSymbolTableRecord
100
AcDbBlockTableRecord
  2
block 54
340
0
102
{BLKREFS
331
1EF
102
}
 70
     0
280
     1
281
     0
  0
BLOCK_RECORD
  5
1F9
330
1
100
AcDbSymbolTableRecord
100
AcDbBlockTableRecord
  2
block 55
340
0
102
{BLKREFS
331
1FA
102
}
 70
     0
280
     1
281
     0
  0
BLOCK_RECORD
  5
204
330
1
100
AcDbSymbolTableRecord
100
AcDbBlockTableRecord
  2
block 56
340
0
102
{BLKREFS
331
205
102
}
 70
     0
280
     1
281
     0
  0
BLOCK_RECORD
  5
20F
330
1
100
AcDbSymbolTableRecord
100
AcDbBlockTableRecord
  2
block 57
340
0
102
{BLKREFS
331
210
102
}
 70
     0
280
     1
281
     0
  0
BLOCK_RECORD
  5
21A
330
1
100
AcDbSymbolTableRecord
100
AcDbBlockTableRecord
  2
block 58
340
0
102
{BLKREFS
331
21B
102
}
 70
     0
280
     1
281
     0
  0
BLOCK_RECORD
  5
225
330
1
100
AcDbSymbolTableRecord
100
AcDbBlockTableRecord
  2
block 59
340
0
102
{BLKREFS
331
226
102
}
 70
     0
280
     1
281
     0
  0
BLOCK_RECORD
  5
230
330
1
100
AcDbSymbolTableRecord
100
AcDbBlockTableRecord
  2
block 60
340
0
102
{BLKREFS
331
231
102
}
 70
     0
280
     1
281
     0
  0
BLOCK_RECORD
  5
23B
330
1
100
AcDbSymbolTableRecord
100
AcDbBlockTableRecord
  2
block 61
340
0
102
{BLKREFS
331
23C
102
}
 70
     0
280
     1
281
     0
  0
BLOCK_RECORD
  5
246
330
1
100
AcDbSymbolTableRecord
100
AcDbBlockTableRecord
  2
block 62
340
0
102
{BLKREFS
331
247
102
}
 70
     0
280
     1
281
     0
  0
BLOCK_RECORD
  5
251
330
1
100
AcDbSymbolTableRecord
100
AcDbBlockTableRecord
  2
block 63
340
0
102
{BLKREFS
331
252
102
}
 70
     0
280
     1
281
     0
  0
BLOCK_RECORD
  5
25C
330
1
100
AcDbSymbolTableRecord
100
AcDbBlockTableRecord
  2
block 64
340
0
102
{BLKREFS
331
25D
102
}
 70
     0
280
     1
281
     0
  0
BLOCK_RECORD
  5
267
330
1
100
AcDbSymbolTableRecord
100
AcDbBlockTableRecord
  2
block 65
340
0
102
{BLKREFS
331
268
102
}
 70
     0
280
     1
281
     0
  0
BLOCK_RECORD
  5
272
330
1
100
AcDbSymbolTableRecord
100
AcDbBlockTableRecord
  2
block 66
340
0
102
{BLKREFS
331
273
102
}
 70
     0
280
     1
281
     0
  0
BLOCK_RECORD
  5
27D
330
1
100
AcDbSymbolTableRecord
100
AcDbBlockTableRecord
  2
block 67
340
0
102
{BLKREFS
331
27E
102
}
 70
     0
280
     1
281
     0
  0
BLOCK_RECORD
  5
288
330
1
100
AcDbSymbolTableRecord
100
AcDbBlockTableRecord
  2
block 68
340
0
102
{BLKREFS
331
289
102
}
 70
     0
280
     1
281
     0
  0
BLOCK_RECORD
  5
293
330
1
100
AcDbSymbolTableRecord
100
AcDbBlockTableRecord
  2
block 69
340
0
102
{BLKREFS
331
294
102
}
 70
     0
280
     1
281
     0
  0
BLOCK_RECORD
  5
29E
330
1
100
AcDbSymbolTableRecord
100
AcDbBlockTableRecord
  2
block 70
340
0
102
{BLKREFS
331
29F
102
}
 70
     0
280
     1
281
     0
  0
BLOCK_RECORD
  5
2A9
330
1
100
AcDbSymbolTableRecord
100
AcDbBlockTableRecord
  2
block 71
340
0
102
{BLKREFS
331
2AA
102
}
 70
     0
280
     1
281
     0
  0
BLOCK_RECORD
  5
2B4
330
1
100
AcDbSymbolTableRecord
100
AcDbBlockTableRecord
  2
block 72
340
0
102
{BLKREFS
331
2B5
102
}
 70
     0
280
     1
281
     0
  0
BLOCK_RECORD
  5
2B8
330
1
100
AcDbSymbolTableRecord
100
AcDbBlockTableRecord
  2
block 73
340
0
102
{BLKREFS
331
2B9
102
}
 70
     0
280
     1
281
     0
  0
BLOCK_RECORD
  5
2BD
330
1
100
AcDbSymbolTableRecord
100
AcDbBlockTableRecord
  2
block 74
340
0
102
{BLKREFS
331
2BE
102
}
 70
     0
280
     1
281
     0
  0
BLOCK_RECORD
  5
2C2
330
1
100
AcDbSymbolTableRecord
100
AcDbBlockTableRecord
  2
block 75
340
0
102
{BLKREFS
331
2C3
102
}
 70
     0
280
     1
281
     0
  0
BLOCK_RECORD
  5
2C7
330
1
100
AcDbSymbolTableRecord
100
AcDbBlockTableRecord
  2
block 76
340
0
102
{BLKREFS
331
2C8
102
}
 70
     0
280
     1
281
     0
  0
BLOCK_RECORD
  5
2CB
330
1
100
AcDbSymbolTableRecord
100
AcDbBlockTableRecord
  2
block 77
340
0
102
{BLKREFS
331
2CC
102
}
 70
     0
280
     1
281
     0
  0
BLOCK_RECORD
  5
2D0
330
1
100
AcDbSymbolTableRecord
100
AcDbBlockTableRecord
  2
block 78
340
0
102
{BLKREFS
331
2D1
102
}
 70
     0
280
     1
281
     0
  0
BLOCK_RECORD
  5
2D5
330
1
100
AcDbSymbolTableRecord
100
AcDbBlockTableRecord
  2
block 79
340
0
102
{BLKREFS
331
2D6
102
}
 70
     0
280
     1
281
     0
  0
ENDTAB
  0
ENDSEC
  0
SECTION
  2
BLOCKS
  0
BLOCK
  5
20
330
1F
100
AcDbEntity
  8
0
100
AcDbBlockBegin
  2
*Model_Space
 70
     0
 10
0.0
 20
0.0
 30
0.0
  3
*Model_Space
  1

  0
ENDBLK
  5
21
330
1F
100
AcDbEntity
  8
0
100
AcDbBlockEnd
  0
BLOCK
  5
1C
330
1B
100
AcDbEntity
 67
     1
  8
0
100
AcDbBlockBegin
  2
*Paper_Space
 70
     0
 10
0.0
 20
0.0
 30
0.0
  3
*Paper_Space
  1

  0
ENDBLK
  5
1D
330
1B
100
AcDbEntity
 67
     1
  8
0
100
AcDbBlockEnd
  0
BLOCK
  5
24
330
23
100
AcDbEntity
  8
0
100
AcDbBlockBegin
  2
*Paper_Space0
 70
     0
 10
0.0
 20
0.0
 30
0.0
  3
*Paper_Space0
  1

  0
ENDBLK
  5
25
330
23
100
AcDbEntity
  8
0
100
AcDbBlockEnd
  0
BLOCK
  5
45
330
43
100
AcDbEntity
  8
0
100
AcDbBlockBegin
  2
block 2
 70
     0
 10
0.0
 20
0.0
 30
0.0
  3
block 2
  1

  0
SPLINE
  5
47
330
43
100
AcDbEntity
  8
_U+5F6B_U+523B_U+30D1_U+30B9
370
     0
100
AcDbSpline
210
0.0
220
0.0
230
1.0
 70
    11
 71
     3
 72
    35
 73
    31
 74
     0
 42
0.0000000001
 43
0.0000000001
 12
1.0
 22
0.0
 32
0.0
 13
1.0
 23
0.0
 33
0.0
 40
0.0
 40
0.0
 40
0.0
 40
0.0
 40
1.0
 40
1.0
 40
1.0
 40
2.0
 40
2.0
 40
2.0
 40
3.0
 40
3.0
 40
3.0
 40
4.0
 40
4.0
 40
4.0
 40
5.0
 40
5.0
 40
5.0
 40
6.0
 40
6.0
 40
6.0
 40
7.0
 40
7.0
 40
7.0
 40
8.0
 40
8.0
 40
8.0
 40
9.0
 40
9.0
 40
9.0
 40
10.0
 40
10.0
 40
10.0
 40
10.0
 10
-117.0762484596429
 20
41.03981386309082
 30
0.0
 10
-117.3191147480113
 20
39.73119142562319
 30
0.0
 10
-118.4381021826182
 20
39.09044934548673
 30
0.0
 10
-119.557019932633
 20
39.08183168428423
 30
0.0
 10
-120.8462932817388
 20
39.06254453778212
 30
0.0
 10
-122.1484892512828
 20
39.91439996056131
 30
0.0
 10
-122.1484892512828
 20
41.6351912738755
 30
0.0
 10
-122.1484892512828
 20
43.34774431987792
 30
0.0
 10
-120.8634589195524
 20
44.18870571811725
 30
0.0
 10
-119.5737287492336
 20
44.18870571811725
 30
0.0
 10
-118.4461933380149
 20
44.18870571811725
 30
0.0
 10
-117.3191147480113
 20
43.54002733723068
 30
0.0
 10
-117.0762484596429
 20
42.2199766266858
 30
0.0
 10
-117.0762484596429
 20
42.2199766266858
 30
0.0
 10
-117.9986479176603
 20
42.2199766266858
 30
0.0
 10
-117.9986479176603
 20
42.2199766266858
 30
0.0
 10
-118.2158005916036
 20
43.00824098795678
 30
0.0
 10
-118.8865612454012
 20
43.39235122483242
 30
0.0
 10
-119.565188515355
 20
43.39235122483242
 30
0.0
 10
-120.3982136128455
 20
43.39235122483242
 30
0.0
 10
-121.2480172115279
 20
42.8159579706021
 30
0.0
 10
-121.2480172115279
 20
41.6351912738755
 30
0.0
 10
-121.2480172115279
 20
40.44625599442754
 30
0.0
 10
-120.4063744528349
 20
39.86986376358077
 30
0.0
 10
-119.557019932633
 20
39.86986376358077
 30
0.0
 10
-118.8775631723016
 20
39.86986376358077
 30
0.0
 10
-118.2158005916036
 20
40.2544297982882
 30
0.0
 10
-117.9986479176603
 20
41.03981386309082
 30
0.0
 10
-117.9986479176603
 20
41.03981386309082
 30
0.0
 10
-117.0762484596429
 20
41.03981386309082
 30
0.0
 10
-117.0762484596429
 20
41.03981386309082
 30
0.0
  0
HATCH
  5
48
330
43
100
AcDbEntity
  8
_U+5F6B_U+523B_U+30D1_U+30B9
 62
     7
420
 16777215
100
AcDbHatch
 10
0.0
 20
0.0
 30
0.0
210
0.0
220
0.0
230
1.0
  2
SOLID
 70
     1
 71
     0
 91
        1
 92
        1
 93
        1
 72
     4
 94
        3
 73
     0
 74
     1
 95
       35
 96
       31
 40
0.0
 40
0.0
 40
0.0
 40
0.0
 40
1.0
 40
1.0
 40
1.0
 40
2.0
 40
2.0
 40
2.0
 40
3.0
 40
3.0
 40
3.0
 40
4.0
 40
4.0
 40
4.0
 40
5.0
 40
5.0
 40
5.0
 40
6.0
 40
6.0
 40
6.0
 40
7.0
 40
7.0
 40
7.0
 40
8.0
 40
8.0
 40
8.0
 40
9.0
 40
9.0
 40
9.0
 40
10.0
 40
10.0
 40
10.0
 40
10.0
 10
-117.0762484596429
 20
41.03981386309082
 10
-117.3191147480113
 20
39.73119142562319
 10
-118.4381021826182
 20
39.09044934548673
 10
-119.557019932633
 20
39.08183168428423
 10
-120.8462932817388
 20
39.06254453778212
 10
-122.1484892512828
 20
39.91439996056131
 10
-122.1484892512828
 20
41.6351912738755
 10
-122.1484892512828
 20
43.34774431987792
 10
-120.8634589195524
 20
44.18870571811725
 10
-119.5737287492336
 20
44.18870571811725
 10
-118.4461933380149
 20
44.18870571811725
 10
-117.3191147480113
 20
43.54002733723068
 10
-117.0762484596429
 20
42.2199766266858
 10
-117.0762484596429
 20
42.2199766266858
 10
-117.9986479176603
 20
42.2199766266858
 10
-117.9986479176603
 20
42.2199766266858
 10
-118.2158005916036
 20
43.00824098795678
 10
-118.8865612454012
 20
43.39235122483242
 10
-119.565188515355
 20
43.39235122483242
 10
-120.3982136128455
 20
43.39235122483242
 10
-121.2480172115279
 20
42.8159579706021
 10
-121.2480172115279
 20
41.6351912738755
 10
-121.2480172115279
 20
40.44625599442754
 10
-120.4063744528349
 20
39.86986376358077
 10
-119.557019932633
 20
39.86986376358077
 10
-118.8775631723016
 20
39.86986376358077
 10
-118.2158005916036
 20
40.2544297982882
 10
-117.9986479176603
 20
41.03981386309082
 10
-117.9986479176603
 20
41.03981386309082
 10
-117.0762484596429
 20
41.03981386309082
 10
-117.0762484596429
 20
41.03981386309082
 97
        0
 97
        0
 75
     2
 76
     1
 98
        0
  0
SPLINE
  5
49
330
43
100
AcDbEntity
  8
_U+5F6B_U+523B_U+30D1_U+30B9
370
     0
100
AcDbSpline
210
0.0
220
0.0
230
1.0
 70
    11
 71
     3
 72
    17
 73
    13
 74
     0
 42
0.0000000001
 43
0.0000000001
 12
1.0
 22
0.0
 32
0.0
 13
1.0
 23
0.0
 33
0.0
 40
0.0
 40
0.0
 40
0.0
 40
0.0
 40
1.0
 40
1.0
 40
1.0
 40
2.0
 40
2.0
 40
2.0
 40
3.0
 40
3.0
 40
3.0
 40
4.0
 40
4.0
 40
4.0
 40
4.0
 10
-114.0225534999366
 20
39.06254453778212
 30
0.0
 10
-115.3556042582444
 20
39.06254453778212
 30
0.0
 10
-116.6787520617643
 20
39.92475973656316
 30
0.0
 10
-116.6787520617643
 20
41.62687557923721
 30
0.0
 10
-116.6787520617643
 20
43.33722968922687
 30
0.0
 10
-115.3422945011844
 20
44.18870571811725
 30
0.0
 10
-113.9976761006144
 20
44.18870571811725
 30
0.0
 10
-112.6606908591713
 20
44.18870571811725
 30
0.0
 10
-111.3413292184825
 20
43.32861202802309
 30
0.0
 10
-111.3413292184825
 20
41.62687557923721
 30
0.0
 10
-111.3413292184825
 20
39.91439996056131
 30
0.0
 10
-112.6777802447191
 20
39.06254453778212
 30
0.0
 10
-114.0225534999366
 20
39.06254453778212
 30
0.0
  0
SPLINE
  5
4A
330
43
100
AcDbEntity
  8
_U+5F6B_U+523B_U+30D1_U+30B9
370
     0
100
AcDbSpline
210
0.0
220
0.0
230
1.0
 70
    11
 71
     3
 72
    17
 73
    13
 74
     0
 42
0.0000000001
 43
0.0000000001
 12
1.0
 22
0.0
 32
0.0
 13
1.0
 23
0.0
 33
0.0
 40
0.0
 40
0.0
 40
0.0
 40
0.0
 40
1.0
 40
1.0
 40
1.0
 40
2.0
 40
2.0
 40
2.0
 40
3.0
 40
3.0
 40
3.0
 40
4.0
 40
4.0
 40
4.0
 40
4.0
 10
-114.0225534999366
 20
39.86986376358077
 30
0.0
 10
-113.1267735560392
 20
39.8591245936901
 30
0.0
 10
-112.22939860926
 20
40.45525304952078
 30
0.0
 10
-112.22939860926
 20
41.62687557923721
 30
0.0
 10
-112.22939860926
 20
42.79939626591914
 30
0.0
 10
-113.1178461855392
 20
43.39235122483242
 30
0.0
 10
-113.9976761006144
 20
43.39235122483242
 30
0.0
 10
-114.8942148322908
 20
43.39235122483242
 30
0.0
 10
-115.7822133300879
 20
42.80756484863986
 30
0.0
 10
-115.7822133300879
 20
41.62687557923721
 30
0.0
 10
-115.7822133300879
 20
40.46342163224212
 30
0.0
 10
-114.9028402362268
 20
39.87840399745866
 30
0.0
 10
-114.0225534999366
 20
39.86986376358077
 30
0.0
  0
HATCH
  5
4B
330
43
100
AcDbEntity
  8
_U+5F6B_U+523B_U+30D1_U+30B9
 62
     7
420
 16777215
100
AcDbHatch
 10
0.0
 20
0.0
 30
0.0
210
0.0
220
0.0
230
1.0
  2
SOLID
 70
     1
 71
     0
 91
        2
 92
        1
 93
        1
 72
     4
 94
        3
 73
     0
 74
     1
 95
       17
 96
       13
 40
0.0
 40
0.0
 40
0.0
 40
0.0
 40
1.0
 40
1.0
 40
1.0
 40
2.0
 40
2.0
 40
2.0
 40
3.0
 40
3.0
 40
3.0
 40
4.0
 40
4.0
 40
4.0
 40
4.0
 10
-114.0225534999366
 20
39.06254453778212
 10
-115.3556042582444
 20
39.06254453778212
 10
-116.6787520617643
 20
39.92475973656316
 10
-116.6787520617643
 20
41.62687557923721
 10
-116.6787520617643
 20
43.33722968922687
 10
-115.3422945011844
 20
44.18870571811725
 10
-113.9976761006144
 20
44.18870571811725
 10
-112.6606908591713
 20
44.18870571811725
 10
-111.3413292184825
 20
43.32861202802309
 10
-111.3413292184825
 20
41.62687557923721
 10
-111.3413292184825
 20
39.91439996056131
 10
-112.6777802447191
 20
39.06254453778212
 10
-114.0225534999366
 20
39.06254453778212
 97
        0
 97
        0
 92
        1
 93
        1
 72
     4
 94
        3
 73
     0
 74
     1
 95
       17
 96
       13
 40
0.0
 40
0.0
 40
0.0
 40
0.0
 40
1.0
 40
1.0
 40
1.0
 40
2.0
 40
2.0
 40
2.0
 40
3.0
 40
3.0
 40
3.0
 40
4.0
 40
4.0
 40
4.0
 40
4.0
 10
-114.0225534999366
 20
39.86986376358077
 10
-113.1267735560392
 20
39.8591245936901
 10
-112.22939860926
 20
40.45525304952078
 10
-112.22939860926
 20
41.62687557923721
 10
-112.22939860926
 20
42.79939626591914
 10
-113.1178461855392
 20
43.39235122483242
 10
-113.9976761006144
 20
43.39235122483242
 10
-114.8942148322908
 20
43.39235122483242
 10
-115.7822133300879
 20
42.80756484863986
 10
-115.7822133300879
 20
41.62687557923721
 10
-115.7822133300879
 20
40.46342163224212
 10
-114.9028402362268
 20
39.87840399745866
 10
-114.0225534999366
 20
39.86986376358077
 97
        0
 97
        0
 75
     2
 76
     1
 98
        0
  0
SPLINE
  5
4C
330
43
100
AcDbEntity
  8
_U+5F6B_U+523B_U+30D1_U+30B9
370
     0
100
AcDbSpline
210
0.0
220
0.0
230
1.0
 70
    11
 71
     3
 72
    29
 73
    25
 74
     0
 42
0.0000000001
 43
0.0000000001
 12
1.0
 22
0.0
 32
0.0
 13
1.0
 23
0.0
 33
0.0
 40
0.0
 40
0.0
 40
0.0
 40
0.0
 40
1.0
 40
1.0
 40
1.0
 40
2.0
 40
2.0
 40
2.0
 40
3.0
 40
3.0
 40
3.0
 40
4.0
 40
4.0
 40
4.0
 40
5.0
 40
5.0
 40
5.0
 40
6.0
 40
6.0
 40
6.0
 40
7.0
 40
7.0
 40
7.0
 40
8.0
 40
8.0
 40
8.0
 40
8.0
 10
-109.7619368933304
 20
44.09690788233701
 30
0.0
 10
-109.7619368933304
 20
44.09690788233701
 30
0.0
 10
-109.7619368933304
 20
43.49518917368464
 30
0.0
 10
-109.7619368933304
 20
43.49518917368464
 30
0.0
 10
-109.2876171042063
 20
44.16080091041135
 30
0.0
 10
-108.5618830501027
 20
44.31724281931259
 30
0.0
 10
-107.7721165987397
 20
44.13569897184986
 30
0.0
 10
-107.7721165987397
 20
44.13569897184986
 30
0.0
 10
-107.7721165987397
 20
43.34774431987792
 30
0.0
 10
-107.7721165987397
 20
43.34774431987792
 30
0.0
 10
-108.7923532238389
 20
43.64898306809196
 30
0.0
 10
-109.7619368933304
 20
42.90760095173378
 30
0.0
 10
-109.7619368933304
 20
41.83805860647163
 30
0.0
 10
-109.7619368933304
 20
41.83805860647163
 30
0.0
 10
-109.7619368933304
 20
39.15479145204222
 30
0.0
 10
-109.7619368933304
 20
39.15479145204222
 30
0.0
 10
-109.7619368933304
 20
39.15479145204222
 30
0.0
 10
-110.6499276483963
 20
39.15479145204222
 30
0.0
 10
-110.6499276483963
 20
39.15479145204222
 30
0.0
 10
-110.6499276483963
 20
39.15479145204222
 30
0.0
 10
-110.6499276483963
 20
44.09690788233701
 30
0.0
 10
-110.6499276483963
 20
44.09690788233701
 30
0.0
 10
-110.6499276483963
 20
44.09690788233701
 30
0.0
 10
-109.7619368933304
 20
44.09690788233701
 30
0.0
 10
-109.7619368933304
 20
44.09690788233701
 30
0.0
  0
HATCH
  5
4D
330
43
100
AcDbEntity
  8
_U+5F6B_U+523B_U+30D1_U+30B9
 62
     7
420
 16777215
100
AcDbHatch
 10
0.0
 20
0.0
 30
0.0
210
0.0
220
0.0
230
1.0
  2
SOLID
 70
     1
 71
     0
 91
        1
 92
        1
 93
        1
 72
     4
 94
        3
 73
     0
 74
     1
 95
       29
 96
       25
 40
0.0
 40
0.0
 40
0.0
 40
0.0
 40
1.0
 40
1.0
 40
1.0
 40
2.0
 40
2.0
 40
2.0
 40
3.0
 40
3.0
 40
3.0
 40
4.0
 40
4.0
 40
4.0
 40
5.0
 40
5.0
 40
5.0
 40
6.0
 40
6.0
 40
6.0
 40
7.0
 40
7.0
 40
7.0
 40
8.0
 40
8.0
 40
8.0
 40
8.0
 10
-109.7619368933304
 20
44.09690788233701
 10
-109.7619368933304
 20
44.09690788233701
 10
-109.7619368933304
 20
43.49518917368464
 10
-109.7619368933304
 20
43.49518917368464
 10
-109.2876171042063
 20
44.16080091041135
 10
-108.5618830501027
 20
44.31724281931259
 10
-107.7721165987397
 20
44.13569897184986
 10
-107.7721165987397
 20
44.13569897184986
 10
-107.7721165987397
 20
43.34774431987792
 10
-107.7721165987397
 20
43.34774431987792
 10
-108.7923532238389
 20
43.64898306809196
 10
-109.7619368933304
 20
42.90760095173378
 10
-109.7619368933304
 20
41.83805860647163
 10
-109.7619368933304
 20
41.83805860647163
 10
-109.7619368933304
 20
39.15479145204222
 10
-109.7619368933304
 20
39.15479145204222
 10
-109.7619368933304
 20
39.15479145204222
 10
-110.6499276483963
 20
39.15479145204222
 10
-110.6499276483963
 20
39.15479145204222
 10
-110.6499276483963
 20
39.15479145204222
 10
-110.6499276483963
 20
44.09690788233701
 10
-110.6499276483963
 20
44.09690788233701
 10
-110.6499276483963
 20
44.09690788233701
 10
-109.7619368933304
 20
44.09690788233701
 10
-109.7619368933304
 20
44.09690788233701
 97
        0
 97
        0
 75
     2
 76
     1
 98
        0
  0
SPLINE
  5
4E
330
43
100
AcDbEntity
  8
_U+5F6B_U+523B_U+30D1_U+30B9
370
     0
100
AcDbSpline
210
0.0
220
0.0
230
1.0
 70
    11
 71
     3
 72
    41
 73
    37
 74
     0
 42
0.0000000001
 43
0.0000000001
 12
1.0
 22
0.0
 32
0.0
 13
1.0
 23
0.0
 33
0.0
 40
0.0
 40
0.0
 40
0.0
 40
0.0
 40
1.0
 40
1.0
 40
1.0
 40
2.0
 40
2.0
 40
2.0
 40
3.0
 40
3.0
 40
3.0
 40
4.0
 40
4.0
 40
4.0
 40
5.0
 40
5.0
 40
5.0
 40
6.0
 40
6.0
 40
6.0
 40
7.0
 40
7.0
 40
7.0
 40
8.0
 40
8.0
 40
8.0
 40
9.0
 40
9.0
 40
9.0
 40
10.0
 40
10.0
 40
10.0
 40
11.0
 40
11.0
 40
11.0
 40
12.0
 40
12.0
 40
12.0
 40
12.0
 10
-106.2820122556691
 20
44.10545690034514
 30
0.0
 10
-106.2820122556691
 20
44.10545690034514
 30
0.0
 10
-106.2820122556691
 20
43.49518917368464
 30
0.0
 10
-106.2820122556691
 20
43.49518917368464
 30
0.0
 10
-105.9184677395296
 20
44.02455204770744
 30
0.0
 10
-105.3892583614051
 20
44.18015774150516
 30
0.0
 10
-104.7617499697542
 20
44.18015774150516
 30
0.0
 10
-103.2540309103885
 20
44.18015774150516
 30
0.0
 10
-102.6136682241412
 20
43.23871116169204
 30
0.0
 10
-102.6136682241412
 20
41.81938313583214
 30
0.0
 10
-102.6136682241412
 20
41.81938313583214
 30
0.0
 10
-102.6136682241412
 20
39.15479145204222
 30
0.0
 10
-102.6136682241412
 20
39.15479145204222
 30
0.0
 10
-102.6136682241412
 20
39.15479145204222
 30
0.0
 10
-103.5021158004195
 20
39.15479145204222
 30
0.0
 10
-103.5021158004195
 20
39.15479145204222
 30
0.0
 10
-103.5021158004195
 20
39.15479145204222
 30
0.0
 10
-103.5021158004195
 20
41.80819488745968
 30
0.0
 10
-103.5021158004195
 20
41.80819488745968
 30
0.0
 10
-103.5021158004195
 20
42.73459733814831
 30
0.0
 10
-103.7407468141448
 20
43.36680020714231
 30
0.0
 10
-104.7913891495256
 20
43.38418936146108
 30
0.0
 10
-105.7518983366003
 20
43.40286483209864
 30
0.0
 10
-106.2820122556691
 20
42.71592186750817
 30
0.0
 10
-106.2820122556691
 20
41.84683112232334
 30
0.0
 10
-106.2820122556691
 20
41.84683112232334
 30
0.0
 10
-106.2820122556691
 20
39.15479145204222
 30
0.0
 10
-106.2820122556691
 20
39.15479145204222
 30
0.0
 10
-106.2820122556691
 20
39.15479145204222
 30
0.0
 10
-107.1828623758733
 20
39.15479145204222
 30
0.0
 10
-107.1828623758733
 20
39.15479145204222
 30
0.0
 10
-107.1828623758733
 20
39.15479145204222
 30
0.0
 10
-107.1828623758733
 20
44.10545690034514
 30
0.0
 10
-107.1828623758733
 20
44.10545690034514
 30
0.0
 10
-107.1828623758733
 20
44.10545690034514
 30
0.0
 10
-106.2820122556691
 20
44.10545690034514
 30
0.0
 10
-106.2820122556691
 20
44.10545690034514
 30
0.0
  0
HATCH
  5
4F
330
43
100
AcDbEntity
  8
_U+5F6B_U+523B_U+30D1_U+30B9
 62
     7
420
 16777215
100
AcDbHatch
 10
0.0
 20
0.0
 30
0.0
210
0.0
220
0.0
230
1.0
  2
SOLID
 70
     1
 71
     0
 91
        1
 92
        1
 93
        1
 72
     4
 94
        3
 73
     0
 74
     1
 95
       41
 96
       37
 40
0.0
 40
0.0
 40
0.0
 40
0.0
 40
1.0
 40
1.0
 40
1.0
 40
2.0
 40
2.0
 40
2.0
 40
3.0
 40
3.0
 40
3.0
 40
4.0
 40
4.0
 40
4.0
 40
5.0
 40
5.0
 40
5.0
 40
6.0
 40
6.0
 40
6.0
 40
7.0
 40
7.0
 40
7.0
 40
8.0
 40
8.0
 40
8.0
 40
9.0
 40
9.0
 40
9.0
 40
10.0
 40
10.0
 40
10.0
 40
11.0
 40
11.0
 40
11.0
 40
12.0
 40
12.0
 40
12.0
 40
12.0
 10
-106.2820122556691
 20
44.10545690034514
 10
-106.2820122556691
 20
44.10545690034514
 10
-106.2820122556691
 20
43.49518917368464
 10
-106.2820122556691
 20
43.49518917368464
 10
-105.9184677395296
 20
44.02455204770744
 10
-105.3892583614051
 20
44.18015774150516
 10
-104.7617499697542
 20
44.18015774150516
 10
-103.2540309103885
 20
44.18015774150516
 10
-102.6136682241412
 20
43.23871116169204
 10
-102.6136682241412
 20
41.81938313583214
 10
-102.6136682241412
 20
41.81938313583214
 10
-102.6136682241412
 20
39.15479145204222
 10
-102.6136682241412
 20
39.15479145204222
 10
-102.6136682241412
 20
39.15479145204222
 10
-103.5021158004195
 20
39.15479145204222
 10
-103.5021158004195
 20
39.15479145204222
 10
-103.5021158004195
 20
39.15479145204222
 10
-103.5021158004195
 20
41.80819488745968
 10
-103.5021158004195
 20
41.80819488745968
 10
-103.5021158004195
 20
42.73459733814831
 10
-103.7407468141448
 20
43.36680020714231
 10
-104.7913891495256
 20
43.38418936146108
 10
-105.7518983366003
 20
43.40286483209864
 10
-106.2820122556691
 20
42.71592186750817
 10
-106.2820122556691
 20
41.84683112232334
 10
-106.2820122556691
 20
41.84683112232334
 10
-106.2820122556691
 20
39.15479145204222
 10
-106.2820122556691
 20
39.15479145204222
 10
-106.2820122556691
 20
39.15479145204222
 10
-107.1828623758733
 20
39.15479145204222
 10
-107.1828623758733
 20
39.15479145204222
 10
-107.1828623758733
 20
39.15479145204222
 10
-107.1828623758733
 20
44.10545690034514
 10
-107.1828623758733
 20
44.10545690034514
 10
-107.1828623758733
 20
44.10545690034514
 10
-106.2820122556691
 20
44.10545690034514
 10
-106.2820122556691
 20
44.10545690034514
 97
        0
 97
        0
 75
     2
 76
     1
 98
        0
  0
SPLINE
  5
50
330
43
100
AcDbEntity
  8
_U+5F6B_U+523B_U+30D1_U+30B9
370
     0
100
AcDbSpline
210
0.0
220
0.0
230
1.0
 70
    11
 71
     3
 72
    32
 73
    28
 74
     0
 42
0.0000000001
 43
0.0000000001
 12
1.0
 22
0.0
 32
0.0
 13
1.0
 23
0.0
 33
0.0
 40
0.0
 40
0.0
 40
0.0
 40
0.0
 40
1.0
 40
1.0
 40
1.0
 40
2.0
 40
2.0
 40
2.0
 40
3.0
 40
3.0
 40
3.0
 40
4.0
 40
4.0
 40
4.0
 40
5.0
 40
5.0
 40
5.0
 40
6.0
 40
6.0
 40
6.0
 40
7.0
 40
7.0
 40
7.0
 40
8.0
 40
8.0
 40
8.0
 40
9.0
 40
9.0
 40
9.0
 40
9.0
 10
-96.93493145793549
 20
41.41568480927244
 30
0.0
 10
-96.93493145793549
 20
41.41568480927244
 30
0.0
 10
-101.1278068984456
 20
41.41568480927244
 30
0.0
 10
-101.1278068984456
 20
41.41568480927244
 30
0.0
 10
-101.1278068984456
 20
40.44625599442754
 30
0.0
 10
-100.2054074404289
 20
39.8591245936901
 30
0.0
 10
-99.46251549124354
 20
39.8591245936901
 30
0.0
 10
-98.84793610401266
 20
39.8591245936901
 30
0.0
 10
-98.279704713154
 20
40.12603980900851
 30
0.0
 10
-97.98519285363416
 20
40.68315263608736
 30
0.0
 10
-97.98519285363416
 20
40.68315263608736
 30
0.0
 10
-97.06287236873307
 20
40.68315263608736
 30
0.0
 10
-97.06287236873307
 20
40.68315263608736
 30
0.0
 10
-97.43889042683097
 20
39.60287112093583
 30
0.0
 10
-98.45474466536918
 20
39.06254453778212
 30
0.0
 10
-99.47113315244604
 20
39.06254453778212
 30
0.0
 10
-100.7432408637372
 20
39.06254453778212
 30
0.0
 10
-102.0247947086031
 20
39.92475973656316
 30
0.0
 10
-102.0247947086031
 20
41.62687557923721
 30
0.0
 10
-102.0247947086031
 20
43.32861202802309
 30
0.0
 10
-100.760778152709
 20
44.18015774150516
 30
0.0
 10
-99.45389008730812
 20
44.18015774150516
 30
0.0
 10
-98.22428223436555
 20
44.18015774150516
 30
0.0
 10
-97.02037094021814
 20
43.40286483209864
 30
0.0
 10
-96.91739259619754
 20
41.84683112232334
 30
0.0
 10
-96.90067760963187
 20
41.69984308973004
 30
0.0
 10
-96.90922558624268
 20
41.54339343809589
 30
0.0
 10
-96.93493145793549
 20
41.41568480927244
 30
0.0
  0
SPLINE
  5
51
330
43
100
AcDbEntity
  8
_U+5F6B_U+523B_U+30D1_U+30B9
370
     0
100
AcDbSpline
210
0.0
220
0.0
230
1.0
 70
    11
 71
     3
 72
    14
 73
    10
 74
     0
 42
0.0000000001
 43
0.0000000001
 12
1.0
 22
0.0
 32
0.0
 13
1.0
 23
0.0
 33
0.0
 40
0.0
 40
0.0
 40
0.0
 40
0.0
 40
1.0
 40
1.0
 40
1.0
 40
2.0
 40
2.0
 40
2.0
 40
3.0
 40
3.0
 40
3.0
 40
3.0
 10
-97.86118679670686
 20
42.15623845326065
 30
0.0
 10
-98.03244829549266
 20
43.04642814433736
 30
0.0
 10
-98.74055989056895
 20
43.39235122483242
 30
0.0
 10
-99.45389008730812
 20
43.39235122483242
 30
0.0
 10
-100.1758441975305
 20
43.39235122483242
 30
0.0
 10
-100.9054278801074
 20
43.03613805292591
 30
0.0
 10
-101.0938550167072
 20
42.15623845326065
 30
0.0
 10
-101.0938550167072
 20
42.15623845326065
 30
0.0
 10
-97.86118679670686
 20
42.15623845326065
 30
0.0
 10
-97.86118679670686
 20
42.15623845326065
 30
0.0
  0
HATCH
  5
52
330
43
100
AcDbEntity
  8
_U+5F6B_U+523B_U+30D1_U+30B9
 62
     7
420
 16777215
100
AcDbHatch
 10
0.0
 20
0.0
 30
0.0
210
0.0
220
0.0
230
1.0
  2
SOLID
 70
     1
 71
     0
 91
        2
 92
        1
 93
        1
 72
     4
 94
        3
 73
     0
 74
     1
 95
       32
 96
       28
 40
0.0
 40
0.0
 40
0.0
 40
0.0
 40
1.0
 40
1.0
 40
1.0
 40
2.0
 40
2.0
 40
2.0
 40
3.0
 40
3.0
 40
3.0
 40
4.0
 40
4.0
 40
4.0
 40
5.0
 40
5.0
 40
5.0
 40
6.0
 40
6.0
 40
6.0
 40
7.0
 40
7.0
 40
7.0
 40
8.0
 40
8.0
 40
8.0
 40
9.0
 40
9.0
 40
9.0
 40
9.0
 10
-96.93493145793549
 20
41.41568480927244
 10
-96.93493145793549
 20
41.41568480927244
 10
-101.1278068984456
 20
41.41568480927244
 10
-101.1278068984456
 20
41.41568480927244
 10
-101.1278068984456
 20
40.44625599442754
 10
-100.2054074404289
 20
39.8591245936901
 10
-99.46251549124354
 20
39.8591245936901
 10
-98.84793610401266
 20
39.8591245936901
 10
-98.279704713154
 20
40.12603980900851
 10
-97.98519285363416
 20
40.68315263608736
 10
-97.98519285363416
 20
40.68315263608736
 10
-97.06287236873307
 20
40.68315263608736
 10
-97.06287236873307
 20
40.68315263608736
 10
-97.43889042683097
 20
39.60287112093583
 10
-98.45474466536918
 20
39.06254453778212
 10
-99.47113315244604
 20
39.06254453778212
 10
-100.7432408637372
 20
39.06254453778212
 10
-102.0247947086031
 20
39.92475973656316
 10
-102.0247947086031
 20
41.62687557923721
 10
-102.0247947086031
 20
43.32861202802309
 10
-100.760778152709
 20
44.18015774150516
 10
-99.45389008730812
 20
44.18015774150516
 10
-98.22428223436555
 20
44.18015774150516
 10
-97.02037094021814
 20
43.40286483209864
 10
-96.91739259619754
 20
41.84683112232334
 10
-96.90067760963187
 20
41.69984308973004
 10
-96.90922558624268
 20
41.54339343809589
 10
-96.93493145793549
 20
41.41568480927244
 97
        0
 97
        0
 92
        1
 93
        1
 72
     4
 94
        3
 73
     0
 74
     1
 95
       14
 96
       10
 40
0.0
 40
0.0
 40
0.0
 40
0.0
 40
1.0
 40
1.0
 40
1.0
 40
2.0
 40
2.0
 40
2.0
 40
3.0
 40
3.0
 40
3.0
 40
3.0
 10
-97.86118679670686
 20
42.15623845326065
 10
-98.03244829549266
 20
43.04642814433736
 10
-98.74055989056895
 20
43.39235122483242
 10
-99.45389008730812
 20
43.39235122483242
 10
-100.1758441975305
 20
43.39235122483242
 10
-100.9054278801074
 20
43.03613805292591
 10
-101.0938550167072
 20
42.15623845326065
 10
-101.0938550167072
 20
42.15623845326065
 10
-97.86118679670686
 20
42.15623845326065
 10
-97.86118679670686
 20
42.15623845326065
 97
        0
 97
        0
 75
     2
 76
     1
 98
        0
  0
ENDBLK
  5
46
330
43
100
AcDbEntity
  8
0
100
AcDbBlockEnd
  0
BLOCK
  5
57
330
55
100
AcDbEntity
  8
0
100
AcDbBlockBegin
  2
block 3
 70
     0
 10
0.0
 20
0.0
 30
0.0
  3
block 3
  1

  0
SPLINE
  5
59
330
55
100
AcDbEntity
  8
_U+5F6B_U+523B_U+30D1_U+30B9
370
     0
100
AcDbSpline
210
0.0
220
0.0
230
1.0
 70
    11
 71
     3
 72
    35
 73
    31
 74
     0
 42
0.0000000001
 43
0.0000000001
 12
1.0
 22
0.0
 32
0.0
 13
1.0
 23
0.0
 33
0.0
 40
0.0
 40
0.0
 40
0.0
 40
0.0
 40
1.0
 40
1.0
 40
1.0
 40
2.0
 40
2.0
 40
2.0
 40
3.0
 40
3.0
 40
3.0
 40
4.0
 40
4.0
 40
4.0
 40
5.0
 40
5.0
 40
5.0
 40
6.0
 40
6.0
 40
6.0
 40
7.0
 40
7.0
 40
7.0
 40
8.0
 40
8.0
 40
8.0
 40
9.0
 40
9.0
 40
9.0
 40
10.0
 40
10.0
 40
10.0
 40
10.0
 10
121.757966681738
 20
-65.93914908527478
 30
0.0
 10
121.5151003933696
 20
-67.24777152274241
 30
0.0
 10
120.3961129587627
 20
-67.88851360287887
 30
0.0
 10
119.2771952087475
 20
-67.89713126408137
 30
0.0
 10
117.987921859642
 20
-67.91641841058349
 30
0.0
 10
116.6857258900983
 20
-67.0645629878043
 30
0.0
 10
116.6857258900983
 20
-65.3437716744901
 30
0.0
 10
116.6857258900983
 20
-63.63121862848768
 30
0.0
 10
117.9707562218281
 20
-62.79025723024835
 30
0.0
 10
119.260486392147
 20
-62.79025723024835
 30
0.0
 10
120.3880218033653
 20
-62.79025723024835
 30
0.0
 10
121.5151003933696
 20
-63.43893561113492
 30
0.0
 10
121.757966681738
 20
-64.7589863216798
 30
0.0
 10
121.757966681738
 20
-64.7589863216798
 30
0.0
 10
120.8355672237202
 20
-64.7589863216798
 30
0.0
 10
120.8355672237202
 20
-64.7589863216798
 30
0.0
 10
120.6184145497766
 20
-63.97072196040882
 30
0.0
 10
119.9476538959796
 20
-63.58661172353317
 30
0.0
 10
119.2690266260255
 20
-63.58661172353317
 30
0.0
 10
118.436001528535
 20
-63.58661172353317
 30
0.0
 10
117.5861979298529
 20
-64.16300497776349
 30
0.0
 10
117.5861979298529
 20
-65.3437716744901
 30
0.0
 10
117.5861979298529
 20
-66.53270695393806
 30
0.0
 10
118.4278406885459
 20
-67.10909918478484
 30
0.0
 10
119.2771952087475
 20
-67.10909918478484
 30
0.0
 10
119.956651969079
 20
-67.10909918478484
 30
0.0
 10
120.6184145497766
 20
-66.7245331500774
 30
0.0
 10
120.8355672237202
 20
-65.93914908527478
 30
0.0
 10
120.8355672237202
 20
-65.93914908527478
 30
0.0
 10
121.757966681738
 20
-65.93914908527478
 30
0.0
 10
121.757966681738
 20
-65.93914908527478
 30
0.0
  0
HATCH
  5
5A
330
55
100
AcDbEntity
  8
_U+5F6B_U+523B_U+30D1_U+30B9
 62
     7
420
 16777215
100
AcDbHatch
 10
0.0
 20
0.0
 30
0.0
210
0.0
220
0.0
230
1.0
  2
SOLID
 70
     1
 71
     0
 91
        1
 92
        1
 93
        1
 72
     4
 94
        3
 73
     0
 74
     1
 95
       35
 96
       31
 40
0.0
 40
0.0
 40
0.0
 40
0.0
 40
1.0
 40
1.0
 40
1.0
 40
2.0
 40
2.0
 40
2.0
 40
3.0
 40
3.0
 40
3.0
 40
4.0
 40
4.0
 40
4.0
 40
5.0
 40
5.0
 40
5.0
 40
6.0
 40
6.0
 40
6.0
 40
7.0
 40
7.0
 40
7.0
 40
8.0
 40
8.0
 40
8.0
 40
9.0
 40
9.0
 40
9.0
 40
10.0
 40
10.0
 40
10.0
 40
10.0
 10
121.757966681738
 20
-65.93914908527478
 10
121.5151003933696
 20
-67.24777152274241
 10
120.3961129587627
 20
-67.88851360287887
 10
119.2771952087475
 20
-67.89713126408137
 10
117.987921859642
 20
-67.91641841058349
 10
116.6857258900983
 20
-67.0645629878043
 10
116.6857258900983
 20
-65.3437716744901
 10
116.6857258900983
 20
-63.63121862848768
 10
117.9707562218281
 20
-62.79025723024835
 10
119.260486392147
 20
-62.79025723024835
 10
120.3880218033653
 20
-62.79025723024835
 10
121.5151003933696
 20
-63.43893561113492
 10
121.757966681738
 20
-64.7589863216798
 10
121.757966681738
 20
-64.7589863216798
 10
120.8355672237202
 20
-64.7589863216798
 10
120.8355672237202
 20
-64.7589863216798
 10
120.6184145497766
 20
-63.97072196040882
 10
119.9476538959796
 20
-63.58661172353317
 10
119.2690266260255
 20
-63.58661172353317
 10
118.436001528535
 20
-63.58661172353317
 10
117.5861979298529
 20
-64.16300497776349
 10
117.5861979298529
 20
-65.3437716744901
 10
117.5861979298529
 20
-66.53270695393806
 10
118.4278406885459
 20
-67.10909918478484
 10
119.2771952087475
 20
-67.10909918478484
 10
119.956651969079
 20
-67.10909918478484
 10
120.6184145497766
 20
-66.7245331500774
 10
120.8355672237202
 20
-65.93914908527478
 10
120.8355672237202
 20
-65.93914908527478
 10
121.757966681738
 20
-65.93914908527478
 10
121.757966681738
 20
-65.93914908527478
 97
        0
 97
        0
 75
     2
 76
     1
 98
        0
  0
SPLINE
  5
5B
330
55
100
AcDbEntity
  8
_U+5F6B_U+523B_U+30D1_U+30B9
370
     0
100
AcDbSpline
210
0.0
220
0.0
230
1.0
 70
    11
 71
     3
 72
    17
 73
    13
 74
     0
 42
0.0000000001
 43
0.0000000001
 12
1.0
 22
0.0
 32
0.0
 13
1.0
 23
0.0
 33
0.0
 40
0.0
 40
0.0
 40
0.0
 40
0.0
 40
1.0
 40
1.0
 40
1.0
 40
2.0
 40
2.0
 40
2.0
 40
3.0
 40
3.0
 40
3.0
 40
4.0
 40
4.0
 40
4.0
 40
4.0
 10
124.8116616414442
 20
-67.91641841058349
 30
0.0
 10
123.4786108831358
 20
-67.91641841058349
 30
0.0
 10
122.1554630796166
 20
-67.05420321180243
 30
0.0
 10
122.1554630796166
 20
-65.35208736912838
 30
0.0
 10
122.1554630796166
 20
-63.64173325913873
 30
0.0
 10
123.4919206401958
 20
-62.79025723024835
 30
0.0
 10
124.8365390407661
 20
-62.79025723024835
 30
0.0
 10
126.1735242822099
 20
-62.79025723024835
 30
0.0
 10
127.492885922898
 20
-63.65035092034251
 30
0.0
 10
127.492885922898
 20
-65.35208736912838
 30
0.0
 10
127.492885922898
 20
-67.0645629878043
 30
0.0
 10
126.1564348966611
 20
-67.91641841058349
 30
0.0
 10
124.8116616414442
 20
-67.91641841058349
 30
0.0
  0
SPLINE
  5
5C
330
55
100
AcDbEntity
  8
_U+5F6B_U+523B_U+30D1_U+30B9
370
     0
100
AcDbSpline
210
0.0
220
0.0
230
1.0
 70
    11
 71
     3
 72
    17
 73
    13
 74
     0
 42
0.0000000001
 43
0.0000000001
 12
1.0
 22
0.0
 32
0.0
 13
1.0
 23
0.0
 33
0.0
 40
0.0
 40
0.0
 40
0.0
 40
0.0
 40
1.0
 40
1.0
 40
1.0
 40
2.0
 40
2.0
 40
2.0
 40
3.0
 40
3.0
 40
3.0
 40
4.0
 40
4.0
 40
4.0
 40
4.0
 10
124.8116616414442
 20
-67.10909918478484
 30
0.0
 10
125.7074415853413
 20
-67.1198383546755
 30
0.0
 10
126.6048165321202
 20
-66.52370989884483
 30
0.0
 10
126.6048165321202
 20
-65.35208736912838
 30
0.0
 10
126.6048165321202
 20
-64.17956668244645
 30
0.0
 10
125.716368955841
 20
-63.58661172353317
 30
0.0
 10
124.8365390407661
 20
-63.58661172353317
 30
0.0
 10
123.9400003090894
 20
-63.58661172353317
 30
0.0
 10
123.0520018112926
 20
-64.17139809972575
 30
0.0
 10
123.0520018112926
 20
-65.35208736912838
 30
0.0
 10
123.0520018112926
 20
-66.51554131612347
 30
0.0
 10
123.9313749051534
 20
-67.10055895090693
 30
0.0
 10
124.8116616414442
 20
-67.10909918478484
 30
0.0
  0
HATCH
  5
5D
330
55
100
AcDbEntity
  8
_U+5F6B_U+523B_U+30D1_U+30B9
 62
     7
420
 16777215
100
AcDbHatch
 10
0.0
 20
0.0
 30
0.0
210
0.0
220
0.0
230
1.0
  2
SOLID
 70
     1
 71
     0
 91
        2
 92
        1
 93
        1
 72
     4
 94
        3
 73
     0
 74
     1
 95
       17
 96
       13
 40
0.0
 40
0.0
 40
0.0
 40
0.0
 40
1.0
 40
1.0
 40
1.0
 40
2.0
 40
2.0
 40
2.0
 40
3.0
 40
3.0
 40
3.0
 40
4.0
 40
4.0
 40
4.0
 40
4.0
 10
124.8116616414442
 20
-67.91641841058349
 10
123.4786108831358
 20
-67.91641841058349
 10
122.1554630796166
 20
-67.05420321180243
 10
122.1554630796166
 20
-65.35208736912838
 10
122.1554630796166
 20
-63.64173325913873
 10
123.4919206401958
 20
-62.79025723024835
 10
124.8365390407661
 20
-62.79025723024835
 10
126.1735242822099
 20
-62.79025723024835
 10
127.492885922898
 20
-63.65035092034251
 10
127.492885922898
 20
-65.35208736912838
 10
127.492885922898
 20
-67.0645629878043
 10
126.1564348966611
 20
-67.91641841058349
 10
124.8116616414442
 20
-67.91641841058349
 97
        0
 97
        0
 92
        1
 93
        1
 72
     4
 94
        3
 73
     0
 74
     1
 95
       17
 96
       13
 40
0.0
 40
0.0
 40
0.0
 40
0.0
 40
1.0
 40
1.0
 40
1.0
 40
2.0
 40
2.0
 40
2.0
 40
3.0
 40
3.0
 40
3.0
 40
4.0
 40
4.0
 40
4.0
 40
4.0
 10
124.8116616414442
 20
-67.10909918478484
 10
125.7074415853413
 20
-67.1198383546755
 10
126.6048165321202
 20
-66.52370989884483
 10
126.6048165321202
 20
-65.35208736912838
 10
126.6048165321202
 20
-64.17956668244645
 10
125.716368955841
 20
-63.58661172353317
 10
124.8365390407661
 20
-63.58661172353317
 10
123.9400003090894
 20
-63.58661172353317
 10
123.0520018112926
 20
-64.17139809972575
 10
123.0520018112926
 20
-65.35208736912838
 10
123.0520018112926
 20
-66.51554131612347
 10
123.9313749051534
 20
-67.10055895090693
 10
124.8116616414442
 20
-67.10909918478484
 97
        0
 97
        0
 75
     2
 76
     1
 98
        0
  0
SPLINE
  5
5E
330
55
100
AcDbEntity
  8
_U+5F6B_U+523B_U+30D1_U+30B9
370
     0
100
AcDbSpline
210
0.0
220
0.0
230
1.0
 70
    11
 71
     3
 72
    29
 73
    25
 74
     0
 42
0.0000000001
 43
0.0000000001
 12
1.0
 22
0.0
 32
0.0
 13
1.0
 23
0.0
 33
0.0
 40
0.0
 40
0.0
 40
0.0
 40
0.0
 40
1.0
 40
1.0
 40
1.0
 40
2.0
 40
2.0
 40
2.0
 40
3.0
 40
3.0
 40
3.0
 40
4.0
 40
4.0
 40
4.0
 40
5.0
 40
5.0
 40
5.0
 40
6.0
 40
6.0
 40
6.0
 40
7.0
 40
7.0
 40
7.0
 40
8.0
 40
8.0
 40
8.0
 40
8.0
 10
129.0722782480501
 20
-62.88205506602859
 30
0.0
 10
129.0722782480501
 20
-62.88205506602859
 30
0.0
 10
129.0722782480501
 20
-63.48377377468096
 30
0.0
 10
129.0722782480501
 20
-63.48377377468096
 30
0.0
 10
129.5465980371742
 20
-62.81816203795425
 30
0.0
 10
130.2723320912782
 20
-62.66172012905301
 30
0.0
 10
131.0620985426411
 20
-62.84326397651574
 30
0.0
 10
131.0620985426411
 20
-62.84326397651574
 30
0.0
 10
131.0620985426411
 20
-63.63121862848768
 30
0.0
 10
131.0620985426411
 20
-63.63121862848768
 30
0.0
 10
130.0418619175416
 20
-63.32997988027364
 30
0.0
 10
129.0722782480501
 20
-64.07136199663181
 30
0.0
 10
129.0722782480501
 20
-65.14090434189396
 30
0.0
 10
129.0722782480501
 20
-65.14090434189396
 30
0.0
 10
129.0722782480501
 20
-67.82417149632337
 30
0.0
 10
129.0722782480501
 20
-67.82417149632337
 30
0.0
 10
129.0722782480501
 20
-67.82417149632337
 30
0.0
 10
128.1842874929842
 20
-67.82417149632337
 30
0.0
 10
128.1842874929842
 20
-67.82417149632337
 30
0.0
 10
128.1842874929842
 20
-67.82417149632337
 30
0.0
 10
128.1842874929842
 20
-62.88205506602859
 30
0.0
 10
128.1842874929842
 20
-62.88205506602859
 30
0.0
 10
128.1842874929842
 20
-62.88205506602859
 30
0.0
 10
129.0722782480501
 20
-62.88205506602859
 30
0.0
 10
129.0722782480501
 20
-62.88205506602859
 30
0.0
  0
HATCH
  5
5F
330
55
100
AcDbEntity
  8
_U+5F6B_U+523B_U+30D1_U+30B9
 62
     7
420
 16777215
100
AcDbHatch
 10
0.0
 20
0.0
 30
0.0
210
0.0
220
0.0
230
1.0
  2
SOLID
 70
     1
 71
     0
 91
        1
 92
        1
 93
        1
 72
     4
 94
        3
 73
     0
 74
     1
 95
       29
 96
       25
 40
0.0
 40
0.0
 40
0.0
 40
0.0
 40
1.0
 40
1.0
 40
1.0
 40
2.0
 40
2.0
 40
2.0
 40
3.0
 40
3.0
 40
3.0
 40
4.0
 40
4.0
 40
4.0
 40
5.0
 40
5.0
 40
5.0
 40
6.0
 40
6.0
 40
6.0
 40
7.0
 40
7.0
 40
7.0
 40
8.0
 40
8.0
 40
8.0
 40
8.0
 10
129.0722782480501
 20
-62.88205506602859
 10
129.0722782480501
 20
-62.88205506602859
 10
129.0722782480501
 20
-63.48377377468096
 10
129.0722782480501
 20
-63.48377377468096
 10
129.5465980371742
 20
-62.81816203795425
 10
130.2723320912782
 20
-62.66172012905301
 10
131.0620985426411
 20
-62.84326397651574
 10
131.0620985426411
 20
-62.84326397651574
 10
131.0620985426411
 20
-63.63121862848768
 10
131.0620985426411
 20
-63.63121862848768
 10
130.0418619175416
 20
-63.32997988027364
 10
129.0722782480501
 20
-64.07136199663181
 10
129.0722782480501
 20
-65.14090434189396
 10
129.0722782480501
 20
-65.14090434189396
 10
129.0722782480501
 20
-67.82417149632337
 10
129.0722782480501
 20
-67.82417149632337
 10
129.0722782480501
 20
-67.82417149632337
 10
128.1842874929842
 20
-67.82417149632337
 10
128.1842874929842
 20
-67.82417149632337
 10
128.1842874929842
 20
-67.82417149632337
 10
128.1842874929842
 20
-62.88205506602859
 10
128.1842874929842
 20
-62.88205506602859
 10
128.1842874929842
 20
-62.88205506602859
 10
129.0722782480501
 20
-62.88205506602859
 10
129.0722782480501
 20
-62.88205506602859
 97
        0
 97
        0
 75
     2
 76
     1
 98
        0
  0
SPLINE
  5
60
330
55
100
AcDbEntity
  8
_U+5F6B_U+523B_U+30D1_U+30B9
370
     0
100
AcDbSpline
210
0.0
220
0.0
230
1.0
 70
    11
 71
     3
 72
    41
 73
    37
 74
     0
 42
0.0000000001
 43
0.0000000001
 12
1.0
 22
0.0
 32
0.0
 13
1.0
 23
0.0
 33
0.0
 40
0.0
 40
0.0
 40
0.0
 40
0.0
 40
1.0
 40
1.0
 40
1.0
 40
2.0
 40
2.0
 40
2.0
 40
3.0
 40
3.0
 40
3.0
 40
4.0
 40
4.0
 40
4.0
 40
5.0
 40
5.0
 40
5.0
 40
6.0
 40
6.0
 40
6.0
 40
7.0
 40
7.0
 40
7.0
 40
8.0
 40
8.0
 40
8.0
 40
9.0
 40
9.0
 40
9.0
 40
10.0
 40
10.0
 40
10.0
 40
11.0
 40
11.0
 40
11.0
 40
12.0
 40
12.0
 40
12.0
 40
12.0
 10
132.5522028857114
 20
-62.87350604802046
 30
0.0
 10
132.5522028857114
 20
-62.87350604802046
 30
0.0
 10
132.5522028857114
 20
-63.48377377468096
 30
0.0
 10
132.5522028857114
 20
-63.48377377468096
 30
0.0
 10
132.915747401851
 20
-62.95441090065816
 30
0.0
 10
133.4449567799754
 20
-62.79880520686044
 30
0.0
 10
134.0724651716263
 20
-62.79880520686044
 30
0.0
 10
135.5801842309917
 20
-62.79880520686044
 30
0.0
 10
136.2205469172393
 20
-63.74025178667356
 30
0.0
 10
136.2205469172393
 20
-65.15957981253347
 30
0.0
 10
136.2205469172393
 20
-65.15957981253347
 30
0.0
 10
136.2205469172393
 20
-67.82417149632337
 30
0.0
 10
136.2205469172393
 20
-67.82417149632337
 30
0.0
 10
136.2205469172393
 20
-67.82417149632337
 30
0.0
 10
135.3320993409607
 20
-67.82417149632337
 30
0.0
 10
135.3320993409607
 20
-67.82417149632337
 30
0.0
 10
135.3320993409607
 20
-67.82417149632337
 30
0.0
 10
135.3320993409607
 20
-65.17076806090591
 30
0.0
 10
135.3320993409607
 20
-65.17076806090591
 30
0.0
 10
135.3320993409607
 20
-64.24436561021729
 30
0.0
 10
135.0934683272357
 20
-63.61216274122329
 30
0.0
 10
134.0428259918546
 20
-63.59477358690452
 30
0.0
 10
133.0823168047802
 20
-63.57609811626696
 30
0.0
 10
132.5522028857114
 20
-64.26304108085742
 30
0.0
 10
132.5522028857114
 20
-65.13213182604225
 30
0.0
 10
132.5522028857114
 20
-65.13213182604225
 30
0.0
 10
132.5522028857114
 20
-67.82417149632337
 30
0.0
 10
132.5522028857114
 20
-67.82417149632337
 30
0.0
 10
132.5522028857114
 20
-67.82417149632337
 30
0.0
 10
131.6513527655073
 20
-67.82417149632337
 30
0.0
 10
131.6513527655073
 20
-67.82417149632337
 30
0.0
 10
131.6513527655073
 20
-67.82417149632337
 30
0.0
 10
131.6513527655073
 20
-62.87350604802046
 30
0.0
 10
131.6513527655073
 20
-62.87350604802046
 30
0.0
 10
131.6513527655073
 20
-62.87350604802046
 30
0.0
 10
132.5522028857114
 20
-62.87350604802046
 30
0.0
 10
132.5522028857114
 20
-62.87350604802046
 30
0.0
  0
HATCH
  5
61
330
55
100
AcDbEntity
  8
_U+5F6B_U+523B_U+30D1_U+30B9
 62
     7
420
 16777215
100
AcDbHatch
 10
0.0
 20
0.0
 30
0.0
210
0.0
220
0.0
230
1.0
  2
SOLID
 70
     1
 71
     0
 91
        1
 92
        1
 93
        1
 72
     4
 94
        3
 73
     0
 74
     1
 95
       41
 96
       37
 40
0.0
 40
0.0
 40
0.0
 40
0.0
 40
1.0
 40
1.0
 40
1.0
 40
2.0
 40
2.0
 40
2.0
 40
3.0
 40
3.0
 40
3.0
 40
4.0
 40
4.0
 40
4.0
 40
5.0
 40
5.0
 40
5.0
 40
6.0
 40
6.0
 40
6.0
 40
7.0
 40
7.0
 40
7.0
 40
8.0
 40
8.0
 40
8.0
 40
9.0
 40
9.0
 40
9.0
 40
10.0
 40
10.0
 40
10.0
 40
11.0
 40
11.0
 40
11.0
 40
12.0
 40
12.0
 40
12.0
 40
12.0
 10
132.5522028857114
 20
-62.87350604802046
 10
132.5522028857114
 20
-62.87350604802046
 10
132.5522028857114
 20
-63.48377377468096
 10
132.5522028857114
 20
-63.48377377468096
 10
132.915747401851
 20
-62.95441090065816
 10
133.4449567799754
 20
-62.79880520686044
 10
134.0724651716263
 20
-62.79880520686044
 10
135.5801842309917
 20
-62.79880520686044
 10
136.2205469172393
 20
-63.74025178667356
 10
136.2205469172393
 20
-65.15957981253347
 10
136.2205469172393
 20
-65.15957981253347
 10
136.2205469172393
 20
-67.82417149632337
 10
136.2205469172393
 20
-67.82417149632337
 10
136.2205469172393
 20
-67.82417149632337
 10
135.3320993409607
 20
-67.82417149632337
 10
135.3320993409607
 20
-67.82417149632337
 10
135.3320993409607
 20
-67.82417149632337
 10
135.3320993409607
 20
-65.17076806090591
 10
135.3320993409607
 20
-65.17076806090591
 10
135.3320993409607
 20
-64.24436561021729
 10
135.0934683272357
 20
-63.61216274122329
 10
134.0428259918546
 20
-63.59477358690452
 10
133.0823168047802
 20
-63.57609811626696
 10
132.5522028857114
 20
-64.26304108085742
 10
132.5522028857114
 20
-65.13213182604225
 10
132.5522028857114
 20
-65.13213182604225
 10
132.5522028857114
 20
-67.82417149632337
 10
132.5522028857114
 20
-67.82417149632337
 10
132.5522028857114
 20
-67.82417149632337
 10
131.6513527655073
 20
-67.82417149632337
 10
131.6513527655073
 20
-67.82417149632337
 10
131.6513527655073
 20
-67.82417149632337
 10
131.6513527655073
 20
-62.87350604802046
 10
131.6513527655073
 20
-62.87350604802046
 10
131.6513527655073
 20
-62.87350604802046
 10
132.5522028857114
 20
-62.87350604802046
 10
132.5522028857114
 20
-62.87350604802046
 97
        0
 97
        0
 75
     2
 76
     1
 98
        0
  0
SPLINE
  5
62
330
55
100
AcDbEntity
  8
_U+5F6B_U+523B_U+30D1_U+30B9
370
     0
100
AcDbSpline
210
0.0
220
0.0
230
1.0
 70
    11
 71
     3
 72
    32
 73
    28
 74
     0
 42
0.0000000001
 43
0.0000000001
 12
1.0
 22
0.0
 32
0.0
 13
1.0
 23
0.0
 33
0.0
 40
0.0
 40
0.0
 40
0.0
 40
0.0
 40
1.0
 40
1.0
 40
1.0
 40
2.0
 40
2.0
 40
2.0
 40
3.0
 40
3.0
 40
3.0
 40
4.0
 40
4.0
 40
4.0
 40
5.0
 40
5.0
 40
5.0
 40
6.0
 40
6.0
 40
6.0
 40
7.0
 40
7.0
 40
7.0
 40
8.0
 40
8.0
 40
8.0
 40
9.0
 40
9.0
 40
9.0
 40
9.0
 10
141.899283683445
 20
-65.56327813909316
 30
0.0
 10
141.899283683445
 20
-65.56327813909316
 30
0.0
 10
137.7064082429352
 20
-65.56327813909316
 30
0.0
 10
137.7064082429352
 20
-65.56327813909316
 30
0.0
 10
137.7064082429352
 20
-66.53270695393806
 30
0.0
 10
138.6288077009517
 20
-67.1198383546755
 30
0.0
 10
139.3716996501373
 20
-67.1198383546755
 30
0.0
 10
139.9862790373679
 20
-67.1198383546755
 30
0.0
 10
140.5545104282268
 20
-66.85292313935709
 30
0.0
 10
140.849022287746
 20
-66.29581031227823
 30
0.0
 10
140.849022287746
 20
-66.29581031227823
 30
0.0
 10
141.7713427726471
 20
-66.29581031227823
 30
0.0
 10
141.7713427726471
 20
-66.29581031227823
 30
0.0
 10
141.3953247145499
 20
-67.37609182742976
 30
0.0
 10
140.3794704760113
 20
-67.91641841058349
 30
0.0
 10
139.3630819889342
 20
-67.91641841058349
 30
0.0
 10
138.0909742776433
 20
-67.91641841058349
 30
0.0
 10
136.8094204327774
 20
-67.05420321180243
 30
0.0
 10
136.8094204327774
 20
-65.35208736912838
 30
0.0
 10
136.8094204327774
 20
-63.65035092034251
 30
0.0
 10
138.0734369886715
 20
-62.79880520686044
 30
0.0
 10
139.3803250540721
 20
-62.79880520686044
 30
0.0
 10
140.609932907015
 20
-62.79880520686044
 30
0.0
 10
141.8138442011621
 20
-63.57609811626696
 30
0.0
 10
141.9168225451833
 20
-65.13213182604225
 30
0.0
 10
141.933537531749
 20
-65.27911985863557
 30
0.0
 10
141.9249895551382
 20
-65.4355695102697
 30
0.0
 10
141.899283683445
 20
-65.56327813909316
 30
0.0
  0
SPLINE
  5
63
330
55
100
AcDbEntity
  8
_U+5F6B_U+523B_U+30D1_U+30B9
370
     0
100
AcDbSpline
210
0.0
220
0.0
230
1.0
 70
    11
 71
     3
 72
    14
 73
    10
 74
     0
 42
0.0000000001
 43
0.0000000001
 12
1.0
 22
0.0
 32
0.0
 13
1.0
 23
0.0
 33
0.0
 40
0.0
 40
0.0
 40
0.0
 40
0.0
 40
1.0
 40
1.0
 40
1.0
 40
2.0
 40
2.0
 40
2.0
 40
3.0
 40
3.0
 40
3.0
 40
3.0
 10
140.9730283446733
 20
-64.82272449510495
 30
0.0
 10
140.8017668458879
 20
-63.93253480402824
 30
0.0
 10
140.0936552508119
 20
-63.58661172353317
 30
0.0
 10
139.3803250540721
 20
-63.58661172353317
 30
0.0
 10
138.65837094385
 20
-63.58661172353317
 30
0.0
 10
137.9287872612731
 20
-63.94282489543968
 30
0.0
 10
137.7403601246737
 20
-64.82272449510495
 30
0.0
 10
137.7403601246737
 20
-64.82272449510495
 30
0.0
 10
140.9730283446733
 20
-64.82272449510495
 30
0.0
 10
140.9730283446733
 20
-64.82272449510495
 30
0.0
  0
HATCH
  5
64
330
55
100
AcDbEntity
  8
_U+5F6B_U+523B_U+30D1_U+30B9
 62
     7
420
 16777215
100
AcDbHatch
 10
0.0
 20
0.0
 30
0.0
210
0.0
220
0.0
230
1.0
  2
SOLID
 70
     1
 71
     0
 91
        2
 92
        1
 93
        1
 72
     4
 94
        3
 73
     0
 74
     1
 95
       32
 96
       28
 40
0.0
 40
0.0
 40
0.0
 40
0.0
 40
1.0
 40
1.0
 40
1.0
 40
2.0
 40
2.0
 40
2.0
 40
3.0
 40
3.0
 40
3.0
 40
4.0
 40
4.0
 40
4.0
 40
5.0
 40
5.0
 40
5.0
 40
6.0
 40
6.0
 40
6.0
 40
7.0
 40
7.0
 40
7.0
 40
8.0
 40
8.0
 40
8.0
 40
9.0
 40
9.0
 40
9.0
 40
9.0
 10
141.899283683445
 20
-65.56327813909316
 10
141.899283683445
 20
-65.56327813909316
 10
137.7064082429352
 20
-65.56327813909316
 10
137.7064082429352
 20
-65.56327813909316
 10
137.7064082429352
 20
-66.53270695393806
 10
138.6288077009517
 20
-67.1198383546755
 10
139.3716996501373
 20
-67.1198383546755
 10
139.9862790373679
 20
-67.1198383546755
 10
140.5545104282268
 20
-66.85292313935709
 10
140.849022287746
 20
-66.29581031227823
 10
140.849022287746
 20
-66.29581031227823
 10
141.7713427726471
 20
-66.29581031227823
 10
141.7713427726471
 20
-66.29581031227823
 10
141.3953247145499
 20
-67.37609182742976
 10
140.3794704760113
 20
-67.91641841058349
 10
139.3630819889342
 20
-67.91641841058349
 10
138.0909742776433
 20
-67.91641841058349
 10
136.8094204327774
 20
-67.05420321180243
 10
136.8094204327774
 20
-65.35208736912838
 10
136.8094204327774
 20
-63.65035092034251
 10
138.0734369886715
 20
-62.79880520686044
 10
139.3803250540721
 20
-62.79880520686044
 10
140.609932907015
 20
-62.79880520686044
 10
141.8138442011621
 20
-63.57609811626696
 10
141.9168225451833
 20
-65.13213182604225
 10
141.933537531749
 20
-65.27911985863557
 10
141.9249895551382
 20
-65.4355695102697
 10
141.899283683445
 20
-65.56327813909316
 97
        0
 97
        0
 92
        1
 93
        1
 72
     4
 94
        3
 73
     0
 74
     1
 95
       14
 96
       10
 40
0.0
 40
0.0
 40
0.0
 40
0.0
 40
1.0
 40
1.0
 40
1.0
 40
2.0
 40
2.0
 40
2.0
 40
3.0
 40
3.0
 40
3.0
 40
3.0
 10
140.9730283446733
 20
-64.82272449510495
 10
140.8017668458879
 20
-63.93253480402824
 10
140.0936552508119
 20
-63.58661172353317
 10
139.3803250540721
 20
-63.58661172353317
 10
138.65837094385
 20
-63.58661172353317
 10
137.9287872612731
 20
-63.94282489543968
 10
137.7403601246737
 20
-64.82272449510495
 10
137.7403601246737
 20
-64.82272449510495
 10
140.9730283446733
 20
-64.82272449510495
 10
140.9730283446733
 20
-64.82272449510495
 97
        0
 97
        0
 75
     2
 76
     1
 98
        0
  0
ENDBLK
  5
58
330
55
100
AcDbEntity
  8
0
100
AcDbBlockEnd
  0
BLOCK
  5
68
330
66
100
AcDbEntity
  8
0
100
AcDbBlockBegin
  2
block 4
 70
     0
 10
0.0
 20
0.0
 30
0.0
  3
block 4
  1

  0
SPLINE
  5
6A
330
66
100
AcDbEntity
  8
_U+5207_U+65AD_U+30D1_U+30B9
 62
     1
420
 16711680
370
     9
100
AcDbSpline
210
0.0
220
0.0
230
1.0
 70
    11
 71
     3
 72
   128
 73
   124
 74
     0
 42
0.0000000001
 43
0.0000000001
 12
1.0
 22
0.0
 32
0.0
 13
1.0
 23
0.0
 33
0.0
 40
0.0
 40
0.0
 40
0.0
 40
0.0
 40
1.0
 40
1.0
 40
1.0
 40
2.0
 40
2.0
 40
2.0
 40
3.0
 40
3.0
 40
3.0
 40
4.0
 40
4.0
 40
4.0
 40
5.0
 40
5.0
 40
5.0
 40
6.0
 40
6.0
 40
6.0
 40
7.0
 40
7.0
 40
7.0
 40
8.0
 40
8.0
 40
8.0
 40
9.0
 40
9.0
 40
9.0
 40
10.0
 40
10.0
 40
10.0
 40
11.0
 40
11.0
 40
11.0
 40
12.0
 40
12.0
 40
12.0
 40
13.0
 40
13.0
 40
13.0
 40
14.0
 40
14.0
 40
14.0
 40
15.0
 40
15.0
 40
15.0
 40
16.0
 40
16.0
 40
16.0
 40
17.0
 40
17.0
 40
17.0
 40
18.0
 40
18.0
 40
18.0
 40
19.0
 40
19.0
 40
19.0
 40
20.0
 40
20.0
 40
20.0
 40
21.0
 40
21.0
 40
21.0
 40
22.0
 40
22.0
 40
22.0
 40
23.0
 40
23.0
 40
23.0
 40
24.0
 40
24.0
 40
24.0
 40
25.0
 40
25.0
 40
25.0
 40
26.0
 40
26.0
 40
26.0
 40
27.0
 40
27.0
 40
27.0
 40
28.0
 40
28.0
 40
28.0
 40
29.0
 40
29.0
 40
29.0
 40
30.0
 40
30.0
 40
30.0
 40
31.0
 40
31.0
 40
31.0
 40
32.0
 40
32.0
 40
32.0
 40
33.0
 40
33.0
 40
33.0
 40
34.0
 40
34.0
 40
34.0
 40
35.0
 40
35.0
 40
35.0
 40
36.0
 40
36.0
 40
36.0
 40
37.0
 40
37.0
 40
37.0
 40
38.0
 40
38.0
 40
38.0
 40
39.0
 40
39.0
 40
39.0
 40
40.0
 40
40.0
 40
40.0
 40
41.0
 40
41.0
 40
41.0
 40
41.0
 10
-87.44393466442084
 20
36.42020890374655
 30
0.0
 10
-87.53770950455421
 20
36.51398374387865
 30
0.0
 10
-87.6648954815695
 20
36.56666590049952
 30
0.0
 10
-87.79751313229757
 20
36.56666590049952
 30
0.0
 10
-87.79751313229757
 20
36.56666590049952
 30
0.0
 10
-123.8000665856675
 20
36.56666590049952
 30
0.0
 10
-123.8000665856675
 20
36.56666590049952
 30
0.0
 10
-123.8000665856675
 20
36.56666590049952
 30
0.0
 10
-125.8002084441872
 20
36.56666590049952
 30
0.0
 10
-125.8002084441872
 20
36.56666590049952
 30
0.0
 10
-125.8002084441872
 20
36.56666590049952
 30
0.0
 10
-142.8014142416128
 20
36.56666590049952
 30
0.0
 10
-142.8014142416128
 20
36.56666590049952
 30
0.0
 10
-143.0775762031026
 20
36.56666590049952
 30
0.0
 10
-143.3014497062428
 20
36.79053940364584
 30
0.0
 10
-143.3014497062428
 20
37.06670136512923
 30
0.0
 10
-143.3014497062428
 20
37.06670136512923
 30
0.0
 10
-143.3014497062428
 20
92.32062020676281
 30
0.0
 10
-143.3014497062428
 20
92.32062020676281
 30
0.0
 10
-143.3014497062428
 20
92.59678216825262
 30
0.0
 10
-143.0775762031026
 20
92.82065567139509
 30
0.0
 10
-142.8014142416128
 20
92.82065567139509
 30
0.0
 10
-142.8014142416128
 20
92.82065567139509
 30
0.0
 10
-125.8002084441872
 20
92.82065567139509
 30
0.0
 10
-125.8002084441872
 20
92.82065567139509
 30
0.0
 10
-125.8002084441872
 20
92.82065567139509
 30
0.0
 10
-123.8000665856675
 20
92.82065567139509
 30
0.0
 10
-123.8000665856675
 20
92.82065567139509
 30
0.0
 10
-123.8000665856675
 20
92.82065567139509
 30
0.0
 10
-105.7987898589799
 20
92.82065567139509
 30
0.0
 10
-105.7987898589799
 20
92.82065567139509
 30
0.0
 10
-105.5226278974927
 20
92.82065567139509
 30
0.0
 10
-105.2987543943525
 20
93.04452917453371
 30
0.0
 10
-105.2987543943525
 20
93.32069113602736
 30
0.0
 10
-105.2987543943525
 20
93.32069113602736
 30
0.0
 10
-105.2987543943525
 20
97.0709571207521
 30
0.0
 10
-105.2987543943525
 20
97.0709571207521
 30
0.0
 10
-105.2987543943525
 20
97.34711908223935
 30
0.0
 10
-105.0748808912126
 20
97.57099258538437
 30
0.0
 10
-104.7987189297202
 20
97.57099258538437
 30
0.0
 10
-104.7987189297202
 20
97.57099258538437
 30
0.0
 10
-86.79744220303655
 20
97.57099258538437
 30
0.0
 10
-86.79744220303655
 20
97.57099258538437
 30
0.0
 10
-86.52128024154545
 20
97.57099258538437
 30
0.0
 10
-86.29740673840556
 20
97.79486608851916
 30
0.0
 10
-86.29740673840556
 20
98.07102805001024
 30
0.0
 10
-86.29740673840556
 20
98.07102805001024
 30
0.0
 10
-86.29740673840556
 20
99.32111671159029
 30
0.0
 10
-86.29740673840556
 20
99.32111671159029
 30
0.0
 10
-86.29740673840556
 20
99.59727867307753
 30
0.0
 10
-86.07353323526564
 20
99.82115217621615
 30
0.0
 10
-85.79737127377585
 20
99.82115217621615
 30
0.0
 10
-85.79737127377585
 20
99.82115217621615
 30
0.0
 10
-68.79616547635032
 20
99.82115217621615
 30
0.0
 10
-68.79616547635032
 20
99.82115217621615
 30
0.0
 10
-68.52000351485957
 20
99.82115217621615
 30
0.0
 10
-68.29613001171805
 20
99.59727867307753
 30
0.0
 10
-68.29613001171805
 20
99.32111671159029
 30
0.0
 10
-68.29613001171805
 20
99.32111671159029
 30
0.0
 10
-68.29613001171805
 20
98.07102805001024
 30
0.0
 10
-68.29613001171805
 20
98.07102805001024
 30
0.0
 10
-68.29613001171805
 20
97.79486608851916
 30
0.0
 10
-68.07225650857976
 20
97.57099258538437
 30
0.0
 10
-67.79609454708962
 20
97.57099258538437
 30
0.0
 10
-67.79609454708962
 20
97.57099258538437
 30
0.0
 10
-49.7948178204034
 20
97.57099258538437
 30
0.0
 10
-49.7948178204034
 20
97.57099258538437
 30
0.0
 10
-49.51865585891232
 20
97.57099258538437
 30
0.0
 10
-49.29478235577145
 20
97.34711908223935
 30
0.0
 10
-49.29478235577145
 20
97.0709571207521
 30
0.0
 10
-49.29478235577145
 20
97.0709571207521
 30
0.0
 10
-49.29478235577145
 20
95.57085072686297
 30
0.0
 10
-49.29478235577145
 20
95.57085072686297
 30
0.0
 10
-49.29478235577498
 20
95.29468876536804
 30
0.0
 10
-49.07090885263251
 20
95.07081526223327
 30
0.0
 10
-48.7947468911427
 20
95.07081526223327
 30
0.0
 10
-48.7947468911427
 20
95.07081526223327
 30
0.0
 10
-30.79347016445776
 20
95.07081526223327
 30
0.0
 10
-30.79347016445776
 20
95.07081526223327
 30
0.0
 10
-30.51730820296924
 20
95.07081526223327
 30
0.0
 10
-30.29343469982805
 20
94.84694175908822
 30
0.0
 10
-30.29343469982805
 20
94.57077979760099
 30
0.0
 10
-30.29343469982805
 20
94.57077979760099
 30
0.0
 10
-30.29343469982805
 20
93.33618595950433
 30
0.0
 10
-30.29343469982805
 20
93.33618595950433
 30
0.0
 10
-30.26501808485772
 20
93.06806393864925
 30
0.0
 10
-30.05919544959395
 20
92.85291827877847
 30
0.0
 10
-29.79259435975893
 20
92.81265935460073
 30
0.0
 10
-29.79259435975893
 20
92.81265935460073
 30
0.0
 10
-10.04119350686937
 20
92.81265935460073
 30
0.0
 10
-10.04119350686937
 20
92.81265935460073
 30
0.0
 10
-9.765031545382133
 20
92.81265935460073
 30
0.0
 10
-9.541158042240944
 20
92.58878585145825
 30
0.0
 10
-9.541158042240944
 20
92.31262388996716
 30
0.0
 10
-9.541158042240944
 20
92.31262388996716
 30
0.0
 10
-9.541103068976408
 20
33.35184273073215
 30
0.0
 10
-9.541103068976408
 20
33.35184273073215
 30
0.0
 10
-9.584422092087191
 20
32.5385308556803
 30
0.0
 10
-9.830031384973626
 20
31.74888822069755
 30
0.0
 10
-10.25566775746129
 20
31.05449177609977
 30
0.0
 10
-10.25566775746129
 20
31.05449177609977
 30
0.0
 10
-23.49295238085836
 20
8.014640870120141
 30
0.0
 10
-23.49295238085836
 20
8.014640870120141
 30
0.0
 10
-23.49769713653791
 20
8.007489283122936
 30
0.0
 10
-23.50254720320122
 20
8.000408126328713
 30
0.0
 10
-23.50750099572589
 20
7.993399714045591
 30
0.0
 10
-23.78550827789485
 20
7.600086986336215
 30
0.0
 10
-24.32972067242838
 20
7.506613454038596
 30
0.0
 10
-24.72303340014289
 20
7.784620736210119
 30
0.0
 10
-24.72303340014289
 20
7.784620736210119
 30
0.0
 10
-39.47270260249038
 20
16.27414506184486
 30
0.0
 10
-39.47270260249038
 20
16.27414506184486
 30
0.0
 10
-39.56393572380528
 20
16.30586405586985
 30
0.0
 10
-39.65763727613436
 20
16.32997867852048
 30
0.0
 10
-39.75284798755055
 20
16.34624205574913
 30
0.0
 10
-39.75284798755055
 20
16.34624205574913
 30
0.0
 10
-76.54671517811627
 20
21.81561969391475
 30
0.0
 10
-76.54671517811627
 20
21.81561969391475
 30
0.0
 10
-76.67596254205141
 20
21.82874019548172
 30
0.0
 10
-76.79810283744125
 20
21.88108603636418
 30
0.0
 10
-76.89674000335906
 20
21.96563033330328
 30
0.0
 10
-76.89674000335906
 20
21.96563033330328
 30
0.0
 10
-87.44748830705478
 20
36.4248827201607
 30
0.0
 10
-87.44393466442084
 20
36.42020890374655
 30
0.0
  0
ENDBLK
  5
69
330
66
100
AcDbEntity
  8
0
100
AcDbBlockEnd
  0
BLOCK
  5
6D
330
6B
100
AcDbEntity
  8
0
100
AcDbBlockBegin
  2
block 5
 70
     0
 10
0.0
 20
0.0
 30
0.0
  3
block 5
  1

  0
SPLINE
  5
6F
330
6B
100
AcDbEntity
  8
_U+5207_U+65AD_U+30D1_U+30B9
 62
     1
420
 16711680
370
     9
100
AcDbSpline
210
0.0
220
0.0
230
1.0
 70
    11
 71
     3
 72
    20
 73
    16
 74
     0
 42
0.0000000001
 43
0.0000000001
 12
1.0
 22
0.0
 32
0.0
 13
1.0
 23
0.0
 33
0.0
 40
0.0
 40
0.0
 40
0.0
 40
0.0
 40
1.0
 40
1.0
 40
1.0
 40
2.0
 40
2.0
 40
2.0
 40
3.0
 40
3.0
 40
3.0
 40
4.0
 40
4.0
 40
4.0
 40
5.0
 40
5.0
 40
5.0
 40
5.0
 10
-82.65381476891753
 20
38.0710473345992
 30
0.0
 10
-82.65381476891753
 20
38.67860364987882
 30
0.0
 10
-82.16129306200948
 20
39.171125356792
 30
0.0
 10
-81.55373674672985
 20
39.171125356792
 30
0.0
 10
-80.94618043145408
 20
39.171125356792
 30
0.0
 10
-80.45365872454347
 20
38.67860364987882
 30
0.0
 10
-80.45365872454347
 20
38.0710473345992
 30
0.0
 10
-80.45365872454347
 20
37.46349101932086
 30
0.0
 10
-80.94618043145408
 20
36.97096931241923
 30
0.0
 10
-81.55373674672985
 20
36.97096931241923
 30
0.0
 10
-82.16129306200948
 20
36.97096931241923
 30
0.0
 10
-82.65381476891753
 20
37.46349101932086
 30
0.0
 10
-82.65381476891753
 20
38.0710473345992
 30
0.0
 10
-82.65381476891753
 20
38.0710473345992
 30
0.0
 10
-82.65381476891753
 20
38.0710473345992
 30
0.0
 10
-82.65381476891753
 20
38.0710473345992
 30
0.0
  0
ENDBLK
  5
6E
330
6B
100
AcDbEntity
  8
0
100
AcDbBlockEnd
  0
BLOCK
  5
72
330
70
100
AcDbEntity
  8
0
100
AcDbBlockBegin
  2
block 6
 70
     0
 10
0.0
 20
0.0
 30
0.0
  3
block 6
  1

  0
SPLINE
  5
74
330
70
100
AcDbEntity
  8
_U+5207_U+65AD_U+30D1_U+30B9
 62
     1
420
 16711680
370
     9
100
AcDbSpline
210
0.0
220
0.0
230
1.0
 70
    11
 71
     3
 72
    20
 73
    16
 74
     0
 42
0.0000000001
 43
0.0000000001
 12
1.0
 22
0.0
 32
0.0
 13
1.0
 23
0.0
 33
0.0
 40
0.0
 40
0.0
 40
0.0
 40
0.0
 40
1.0
 40
1.0
 40
1.0
 40
2.0
 40
2.0
 40
2.0
 40
3.0
 40
3.0
 40
3.0
 40
4.0
 40
4.0
 40
4.0
 40
5.0
 40
5.0
 40
5.0
 40
5.0
 10
-49.87553372845
 20
77.81832063309142
 30
0.0
 10
-49.87553372845
 20
78.42587694837104
 30
0.0
 10
-49.38301202154195
 20
78.91839865527267
 30
0.0
 10
-48.77545570626233
 20
78.91839865527267
 30
0.0
 10
-48.16789939098656
 20
78.91839865527267
 30
0.0
 10
-47.67537768407851
 20
78.42587694837104
 30
0.0
 10
-47.67537768407851
 20
77.81832063309142
 30
0.0
 10
-47.67537768407851
 20
77.21076431781309
 30
0.0
 10
-48.16789939098656
 20
76.71824261089989
 30
0.0
 10
-48.77545570626233
 20
76.71824261089989
 30
0.0
 10
-49.38301202154195
 20
76.71824261089989
 30
0.0
 10
-49.87553372845
 20
77.21076431781309
 30
0.0
 10
-49.87553372845
 20
77.81832063309142
 30
0.0
 10
-49.87553372845
 20
77.81832063309142
 30
0.0
 10
-49.87553372845
 20
77.81832063309142
 30
0.0
 10
-49.87553372845
 20
77.81832063309142
 30
0.0
  0
ENDBLK
  5
73
330
70
100
AcDbEntity
  8
0
100
AcDbBlockEnd
  0
BLOCK
  5
77
330
75
100
AcDbEntity
  8
0
100
AcDbBlockBegin
  2
block 7
 70
     0
 10
0.0
 20
0.0
 30
0.0
  3
block 7
  1

  0
SPLINE
  5
79
330
75
100
AcDbEntity
  8
_U+5207_U+65AD_U+30D1_U+30B9
 62
     1
420
 16711680
370
     9
100
AcDbSpline
210
0.0
220
0.0
230
1.0
 70
    11
 71
     3
 72
    20
 73
    16
 74
     0
 42
0.0000000001
 43
0.0000000001
 12
1.0
 22
0.0
 32
0.0
 13
1.0
 23
0.0
 33
0.0
 40
0.0
 40
0.0
 40
0.0
 40
0.0
 40
1.0
 40
1.0
 40
1.0
 40
2.0
 40
2.0
 40
2.0
 40
3.0
 40
3.0
 40
3.0
 40
4.0
 40
4.0
 40
4.0
 40
5.0
 40
5.0
 40
5.0
 40
5.0
 10
-125.8973561357186
 20
74.19592191411486
 30
0.0
 10
-125.8973561357186
 20
74.80347822939063
 30
0.0
 10
-125.404834428808
 20
75.29599993630382
 30
0.0
 10
-124.7972781135323
 20
75.29599993630382
 30
0.0
 10
-124.1897217982526
 20
75.29599993630382
 30
0.0
 10
-123.6972000913449
 20
74.80347822939063
 30
0.0
 10
-123.6972000913449
 20
74.19592191411486
 30
0.0
 10
-123.6972000913449
 20
73.58836559884037
 30
0.0
 10
-124.1897217982526
 20
73.09584389193104
 30
0.0
 10
-124.7972781135323
 20
73.09584389193104
 30
0.0
 10
-125.404834428808
 20
73.09584389193104
 30
0.0
 10
-125.8973561357186
 20
73.58836559884037
 30
0.0
 10
-125.8973561357186
 20
74.19592191411486
 30
0.0
 10
-125.8973561357186
 20
74.19592191411486
 30
0.0
 10
-125.8973561357186
 20
74.19592191411486
 30
0.0
 10
-125.8973561357186
 20
74.19592191411486
 30
0.0
  0
ENDBLK
  5
78
330
75
100
AcDbEntity
  8
0
100
AcDbBlockEnd
  0
BLOCK
  5
7C
330
7A
100
AcDbEntity
  8
0
100
AcDbBlockBegin
  2
block 8
 70
     0
 10
0.0
 20
0.0
 30
0.0
  3
block 8
  1

  0
SPLINE
  5
7E
330
7A
100
AcDbEntity
  8
_U+5207_U+65AD_U+30D1_U+30B9
 62
     1
420
 16711680
370
     9
100
AcDbSpline
210
0.0
220
0.0
230
1.0
 70
    11
 71
     3
 72
    20
 73
    16
 74
     0
 42
0.0000000001
 43
0.0000000001
 12
1.0
 22
0.0
 32
0.0
 13
1.0
 23
0.0
 33
0.0
 40
0.0
 40
0.0
 40
0.0
 40
0.0
 40
1.0
 40
1.0
 40
1.0
 40
2.0
 40
2.0
 40
2.0
 40
3.0
 40
3.0
 40
3.0
 40
4.0
 40
4.0
 40
4.0
 40
5.0
 40
5.0
 40
5.0
 40
5.0
 10
-125.9061515447502
 20
55.18077629286728
 30
0.0
 10
-125.9061515447502
 20
55.78833260814562
 30
0.0
 10
-125.4136298378421
 20
56.28085431505495
 30
0.0
 10
-124.8060735225628
 20
56.28085431505495
 30
0.0
 10
-124.1985172072883
 20
56.28085431505495
 30
0.0
 10
-123.7059955003761
 20
55.78833260814562
 30
0.0
 10
-123.7059955003761
 20
55.18077629286728
 30
0.0
 10
-123.7059955003761
 20
54.57321997758766
 30
0.0
 10
-124.1985172072883
 20
54.08069827068218
 30
0.0
 10
-124.8060735225628
 20
54.08069827068218
 30
0.0
 10
-125.4136298378421
 20
54.08069827068218
 30
0.0
 10
-125.9061515447502
 20
54.57321997758766
 30
0.0
 10
-125.9061515447502
 20
55.18077629286728
 30
0.0
 10
-125.9061515447502
 20
55.18077629286728
 30
0.0
 10
-125.9061515447502
 20
55.18077629286728
 30
0.0
 10
-125.9061515447502
 20
55.18077629286728
 30
0.0
  0
ENDBLK
  5
7D
330
7A
100
AcDbEntity
  8
0
100
AcDbBlockEnd
  0
BLOCK
  5
81
330
7F
100
AcDbEntity
  8
0
100
AcDbBlockBegin
  2
block 9
 70
     0
 10
0.0
 20
0.0
 30
0.0
  3
block 9
  1

  0
SPLINE
  5
83
330
7F
100
AcDbEntity
  8
_U+5207_U+65AD_U+30D1_U+30B9
 62
     1
420
 16711680
370
     9
100
AcDbSpline
210
0.0
220
0.0
230
1.0
 70
    11
 71
     3
 72
    20
 73
    16
 74
     0
 42
0.0000000001
 43
0.0000000001
 12
1.0
 22
0.0
 32
0.0
 13
1.0
 23
0.0
 33
0.0
 40
0.0
 40
0.0
 40
0.0
 40
0.0
 40
1.0
 40
1.0
 40
1.0
 40
2.0
 40
2.0
 40
2.0
 40
3.0
 40
3.0
 40
3.0
 40
4.0
 40
4.0
 40
4.0
 40
5.0
 40
5.0
 40
5.0
 40
5.0
 10
-36.13383592006021
 20
30.31653771013718
 30
0.0
 10
-36.13383592006021
 20
30.9240940254168
 30
0.0
 10
-35.64131421315344
 20
31.41661573232999
 30
0.0
 10
-35.03375789787382
 20
31.41661573232999
 30
0.0
 10
-34.42620158259677
 20
31.41661573232999
 30
0.0
 10
-33.93367987568743
 20
30.9240940254168
 30
0.0
 10
-33.93367987568743
 20
30.31653771013718
 30
0.0
 10
-33.93367987568743
 20
29.70898139486654
 30
0.0
 10
-34.42620158259677
 20
29.21645968795593
 30
0.0
 10
-35.03375789787382
 20
29.21645968795593
 30
0.0
 10
-35.64131421315344
 20
29.21645968795593
 30
0.0
 10
-36.13383592006021
 20
29.70898139486654
 30
0.0
 10
-36.13383592006021
 20
30.31653771013718
 30
0.0
 10
-36.13383592006021
 20
30.31653771013718
 30
0.0
 10
-36.13383592006021
 20
30.31653771013718
 30
0.0
 10
-36.13383592006021
 20
30.31653771013718
 30
0.0
  0
ENDBLK
  5
82
330
7F
100
AcDbEntity
  8
0
100
AcDbBlockEnd
  0
BLOCK
  5
86
330
84
100
AcDbEntity
  8
0
100
AcDbBlockBegin
  2
block 10
 70
     0
 10
0.0
 20
0.0
 30
0.0
  3
block 10
  1

  0
INSERT
  5
89
330
84
100
AcDbEntity
  8
_U+5207_U+65AD_U+30D1_U+30B9
100
AcDbBlockReference
  2
block 11
 10
0.0
 20
0.0
 30
0.0
  0
INSERT
  5
8E
330
84
100
AcDbEntity
  8
_U+5207_U+65AD_U+30D1_U+30B9
100
AcDbBlockReference
  2
block 12
 10
0.0
 20
0.0
 30
0.0
  0
INSERT
  5
93
330
84
100
AcDbEntity
  8
_U+5207_U+65AD_U+30D1_U+30B9
100
AcDbBlockReference
  2
block 13
 10
0.0
 20
0.0
 30
0.0
  0
INSERT
  5
98
330
84
100
AcDbEntity
  8
_U+5207_U+65AD_U+30D1_U+30B9
100
AcDbBlockReference
  2
block 14
 10
0.0
 20
0.0
 30
0.0
  0
INSERT
  5
9D
330
84
100
AcDbEntity
  8
_U+5207_U+65AD_U+30D1_U+30B9
100
AcDbBlockReference
  2
block 15
 10
0.0
 20
0.0
 30
0.0
  0
INSERT
  5
A2
330
84
100
AcDbEntity
  8
_U+5207_U+65AD_U+30D1_U+30B9
100
AcDbBlockReference
  2
block 16
 10
0.0
 20
0.0
 30
0.0
  0
INSERT
  5
A7
330
84
100
AcDbEntity
  8
_U+5207_U+65AD_U+30D1_U+30B9
100
AcDbBlockReference
  2
block 17
 10
0.0
 20
0.0
 30
0.0
  0
INSERT
  5
B2
330
84
100
AcDbEntity
  8
_U+5207_U+65AD_U+30D1_U+30B9
100
AcDbBlockReference
  2
block 18
 10
0.0
 20
0.0
 30
0.0
  0
INSERT
  5
BD
330
84
100
AcDbEntity
  8
_U+5207_U+65AD_U+30D1_U+30B9
100
AcDbBlockReference
  2
block 19
 10
0.0
 20
0.0
 30
0.0
  0
INSERT
  5
C8
330
84
100
AcDbEntity
  8
_U+5207_U+65AD_U+30D1_U+30B9
100
AcDbBlockReference
  2
block 20
 10
0.0
 20
0.0
 30
0.0
  0
INSERT
  5
D3
330
84
100
AcDbEntity
  8
_U+5207_U+65AD_U+30D1_U+30B9
100
AcDbBlockReference
  2
block 21
 10
0.0
 20
0.0
 30
0.0
  0
INSERT
  5
DE
330
84
100
AcDbEntity
  8
_U+5207_U+65AD_U+30D1_U+30B9
100
AcDbBlockReference
  2
block 22
 10
0.0
 20
0.0
 30
0.0
  0
INSERT
  5
E9
330
84
100
AcDbEntity
  8
_U+5207_U+65AD_U+30D1_U+30B9
100
AcDbBlockReference
  2
block 23
 10
0.0
 20
0.0
 30
0.0
  0
INSERT
  5
F4
330
84
100
AcDbEntity
  8
_U+5207_U+65AD_U+30D1_U+30B9
100
AcDbBlockReference
  2
block 24
 10
0.0
 20
0.0
 30
0.0
  0
INSERT
  5
FF
330
84
100
AcDbEntity
  8
_U+5207_U+65AD_U+30D1_U+30B9
100
AcDbBlockReference
  2
block 25
 10
0.0
 20
0.0
 30
0.0
  0
INSERT
  5
10A
330
84
100
AcDbEntity
  8
_U+5207_U+65AD_U+30D1_U+30B9
100
AcDbBlockReference
  2
block 26
 10
0.0
 20
0.0
 30
0.0
  0
INSERT
  5
115
330
84
100
AcDbEntity
  8
_U+5207_U+65AD_U+30D1_U+30B9
100
AcDbBlockReference
  2
block 27
 10
0.0
 20
0.0
 30
0.0
  0
INSERT
  5
120
330
84
100
AcDbEntity
  8
_U+5207_U+65AD_U+30D1_U+30B9
100
AcDbBlockReference
  2
block 28
 10
0.0
 20
0.0
 30
0.0
  0
INSERT
  5
12B
330
84
100
AcDbEntity
  8
_U+5207_U+65AD_U+30D1_U+30B9
100
AcDbBlockReference
  2
block 29
 10
0.0
 20
0.0
 30
0.0
  0
INSERT
  5
136
330
84
100
AcDbEntity
  8
_U+5207_U+65AD_U+30D1_U+30B9
100
AcDbBlockReference
  2
block 30
 10
0.0
 20
0.0
 30
0.0
  0
INSERT
  5
141
330
84
100
AcDbEntity
  8
_U+5207_U+65AD_U+30D1_U+30B9
100
AcDbBlockReference
  2
block 31
 10
0.0
 20
0.0
 30
0.0
  0
INSERT
  5
14C
330
84
100
AcDbEntity
  8
_U+5207_U+65AD_U+30D1_U+30B9
100
AcDbBlockReference
  2
block 32
 10
0.0
 20
0.0
 30
0.0
  0
INSERT
  5
157
330
84
100
AcDbEntity
  8
_U+5207_U+65AD_U+30D1_U+30B9
100
AcDbBlockReference
  2
block 33
 10
0.0
 20
0.0
 30
0.0
  0
INSERT
  5
162
330
84
100
AcDbEntity
  8
_U+5207_U+65AD_U+30D1_U+30B9
100
AcDbBlockReference
  2
block 34
 10
0.0
 20
0.0
 30
0.0
  0
INSERT
  5
16D
330
84
100
AcDbEntity
  8
_U+5207_U+65AD_U+30D1_U+30B9
100
AcDbBlockReference
  2
block 35
 10
0.0
 20
0.0
 30
0.0
  0
INSERT
  5
178
330
84
100
AcDbEntity
  8
_U+5207_U+65AD_U+30D1_U+30B9
100
AcDbBlockReference
  2
block 36
 10
0.0
 20
0.0
 30
0.0
  0
INSERT
  5
183
330
84
100
AcDbEntity
  8
_U+5207_U+65AD_U+30D1_U+30B9
100
AcDbBlockReference
  2
block 37
 10
0.0
 20
0.0
 30
0.0
  0
ENDBLK
  5
87
330
84
100
AcDbEntity
  8
0
100
AcDbBlockEnd
  0
BLOCK
  5
8A
330
88
100
AcDbEntity
  8
0
100
AcDbBlockBegin
  2
block 11
 70
     0
 10
0.0
 20
0.0
 30
0.0
  3
block 11
  1

  0
SPLINE
  5
8C
330
88
100
AcDbEntity
  8
_U+5207_U+65AD_U+30D1_U+30B9
 62
     1
420
 16711680
370
     9
100
AcDbSpline
210
0.0
220
0.0
230
1.0
 70
    11
 71
     3
 72
   128
 73
   124
 74
     0
 42
0.0000000001
 43
0.0000000001
 12
1.0
 22
0.0
 32
0.0
 13
1.0
 23
0.0
 33
0.0
 40
0.0
 40
0.0
 40
0.0
 40
0.0
 40
1.0
 40
1.0
 40
1.0
 40
2.0
 40
2.0
 40
2.0
 40
3.0
 40
3.0
 40
3.0
 40
4.0
 40
4.0
 40
4.0
 40
5.0
 40
5.0
 40
5.0
 40
6.0
 40
6.0
 40
6.0
 40
7.0
 40
7.0
 40
7.0
 40
8.0
 40
8.0
 40
8.0
 40
9.0
 40
9.0
 40
9.0
 40
10.0
 40
10.0
 40
10.0
 40
11.0
 40
11.0
 40
11.0
 40
12.0
 40
12.0
 40
12.0
 40
13.0
 40
13.0
 40
13.0
 40
14.0
 40
14.0
 40
14.0
 40
15.0
 40
15.0
 40
15.0
 40
16.0
 40
16.0
 40
16.0
 40
17.0
 40
17.0
 40
17.0
 40
18.0
 40
18.0
 40
18.0
 40
19.0
 40
19.0
 40
19.0
 40
20.0
 40
20.0
 40
20.0
 40
21.0
 40
21.0
 40
21.0
 40
22.0
 40
22.0
 40
22.0
 40
23.0
 40
23.0
 40
23.0
 40
24.0
 40
24.0
 40
24.0
 40
25.0
 40
25.0
 40
25.0
 40
26.0
 40
26.0
 40
26.0
 40
27.0
 40
27.0
 40
27.0
 40
28.0
 40
28.0
 40
28.0
 40
29.0
 40
29.0
 40
29.0
 40
30.0
 40
30.0
 40
30.0
 40
31.0
 40
31.0
 40
31.0
 40
32.0
 40
32.0
 40
32.0
 40
33.0
 40
33.0
 40
33.0
 40
34.0
 40
34.0
 40
34.0
 40
35.0
 40
35.0
 40
35.0
 40
36.0
 40
36.0
 40
36.0
 40
37.0
 40
37.0
 40
37.0
 40
38.0
 40
38.0
 40
38.0
 40
39.0
 40
39.0
 40
39.0
 40
40.0
 40
40.0
 40
40.0
 40
41.0
 40
41.0
 40
41.0
 40
41.0
 10
62.46924794997744
 20
33.95076445992075
 30
0.0
 10
62.37547310984663
 20
34.04453930005028
 30
0.0
 10
62.24828713283198
 20
34.09722145667115
 30
0.0
 10
62.11566948210456
 20
34.09722145667115
 30
0.0
 10
62.11566948210456
 20
34.09722145667115
 30
0.0
 10
26.11311602873725
 20
34.09722145667115
 30
0.0
 10
26.11311602873725
 20
34.09722145667115
 30
0.0
 10
26.11311602873725
 20
34.09722145667115
 30
0.0
 10
24.11297417021713
 20
34.09722145667115
 30
0.0
 10
24.11297417021713
 20
34.09722145667115
 30
0.0
 10
24.11297417021713
 20
34.09722145667115
 30
0.0
 10
7.111768372789042
 20
34.09722145667115
 30
0.0
 10
7.111768372789042
 20
34.09722145667115
 30
0.0
 10
6.835606411299239
 20
34.09722145667115
 30
0.0
 10
6.611732908158049
 20
34.32109495981747
 30
0.0
 10
6.611732908158049
 20
34.59725692130471
 30
0.0
 10
6.611732908158049
 20
34.59725692130471
 30
0.0
 10
6.611732908158049
 20
89.85117576293828
 30
0.0
 10
6.611732908158049
 20
89.85117576293828
 30
0.0
 10
6.611732908158049
 20
90.12733772443194
 30
0.0
 10
6.835606411299239
 20
90.35121122756672
 30
0.0
 10
7.111768372789042
 20
90.35121122756672
 30
0.0
 10
7.111768372789042
 20
90.35121122756672
 30
0.0
 10
24.112974170212
 20
90.35121122756672
 30
0.0
 10
24.112974170212
 20
90.35121122756672
 30
0.0
 10
24.112974170212
 20
90.35121122756672
 30
0.0
 10
26.11311602873725
 20
90.35121122756672
 30
0.0
 10
26.11311602873725
 20
90.35121122756672
 30
0.0
 10
26.11311602873725
 20
90.35121122756672
 30
0.0
 10
44.11439275541834
 20
90.35121122756672
 30
0.0
 10
44.11439275541834
 20
90.35121122756672
 30
0.0
 10
44.39055471691199
 20
90.35121122756672
 30
0.0
 10
44.61442822005061
 20
90.57508473071304
 30
0.0
 10
44.61442822005061
 20
90.851246692199
 30
0.0
 10
44.61442822005061
 20
90.851246692199
 30
0.0
 10
44.61442822005061
 20
94.60151267692373
 30
0.0
 10
44.61442822005061
 20
94.60151267692373
 30
0.0
 10
44.61442822005061
 20
94.87767463841482
 30
0.0
 10
44.8383017231918
 20
95.10154814155986
 30
0.0
 10
45.11446368468289
 20
95.10154814155986
 30
0.0
 10
45.11446368468289
 20
95.10154814155986
 30
0.0
 10
63.11574041136782
 20
95.10154814155986
 30
0.0
 10
63.11574041136782
 20
95.10154814155986
 30
0.0
 10
63.39190237285635
 20
95.10154814155986
 30
0.0
 10
63.61577587599882
 20
95.32542164469463
 30
0.0
 10
63.61577587599882
 20
95.60158360618443
 30
0.0
 10
63.61577587599882
 20
95.60158360618443
 30
0.0
 10
63.61577587599882
 20
96.85167226776193
 30
0.0
 10
63.61577587599882
 20
96.85167226776193
 30
0.0
 10
63.61577587599882
 20
97.12783422925301
 30
0.0
 10
63.83964937913744
 20
97.35170773238778
 30
0.0
 10
64.1158113406234
 20
97.35170773238778
 30
0.0
 10
64.1158113406234
 20
97.35170773238778
 30
0.0
 10
81.11701713805533
 20
97.35170773238778
 30
0.0
 10
81.11701713805533
 20
97.35170773238778
 30
0.0
 10
81.39317909954256
 20
97.35170773238778
 30
0.0
 10
81.6170526026799
 20
97.12783422925301
 30
0.0
 10
81.6170526026799
 20
96.85167226776193
 30
0.0
 10
81.6170526026799
 20
96.85167226776193
 30
0.0
 10
81.6170526026799
 20
95.60158360618443
 30
0.0
 10
81.6170526026799
 20
95.60158360618443
 30
0.0
 10
81.6170526026799
 20
95.32542164469463
 30
0.0
 10
81.84092610582238
 20
95.10154814155986
 30
0.0
 10
82.1170880673109
 20
95.10154814155986
 30
0.0
 10
82.1170880673109
 20
95.10154814155986
 30
0.0
 10
100.1183647939971
 20
95.10154814155986
 30
0.0
 10
100.1183647939971
 20
95.10154814155986
 30
0.0
 10
100.3945267554856
 20
95.10154814155986
 30
0.0
 10
100.6184002586307
 20
94.87767463841482
 30
0.0
 10
100.6184002586307
 20
94.60151267692373
 30
0.0
 10
100.6184002586307
 20
94.60151267692373
 30
0.0
 10
100.6184002586307
 20
93.10140628303718
 30
0.0
 10
100.6184002586307
 20
93.10140628303718
 30
0.0
 10
100.6184002586307
 20
92.82524432154352
 30
0.0
 10
100.8422737617667
 20
92.6013708184049
 30
0.0
 10
101.1184357232617
 20
92.6013708184049
 30
0.0
 10
101.1184357232617
 20
92.6013708184049
 30
0.0
 10
119.1197124499389
 20
92.6013708184049
 30
0.0
 10
119.1197124499389
 20
92.6013708184049
 30
0.0
 10
119.3958744114351
 20
92.6013708184049
 30
0.0
 10
119.6197479145738
 20
92.37749731526371
 30
0.0
 10
119.6197479145738
 20
92.10133535377263
 30
0.0
 10
119.6197479145738
 20
92.10133535377263
 30
0.0
 10
119.6197479145738
 20
90.86674151567597
 30
0.0
 10
119.6197479145738
 20
90.86674151567597
 30
0.0
 10
119.6197479145738
 20
90.86674151567597
 30
0.0
 10
119.6190523892504
 20
74.60598057297787
 30
0.0
 10
119.6190523892504
 20
74.60598057297787
 30
0.0
 10
119.6190523892504
 20
74.60598057297787
 30
0.0
 10
119.6192564256069
 20
42.31315507148553
 30
0.0
 10
119.6192564256069
 20
42.31315507148553
 30
0.0
 10
119.7013051080376
 20
41.92980704376058
 30
0.0
 10
119.9041040075085
 20
41.58286577172045
 30
0.0
 10
120.1978741458662
 20
41.32327609076959
 30
0.0
 10
120.1978741458662
 20
41.32327609076959
 30
0.0
 10
139.2748233754087
 20
30.28589836130884
 30
0.0
 10
139.2748233754087
 20
30.28589836130884
 30
0.0
 10
139.8022408300614
 20
29.88951889579576
 30
0.0
 10
139.9643285978418
 20
29.16912881678846
 30
0.0
 10
139.6575148569431
 20
28.5850473322714
 30
0.0
 10
139.6575148569431
 20
28.5850473322714
 30
0.0
 10
126.420230233546
 20
5.545196426295623
 30
0.0
 10
126.420230233546
 20
5.545196426295623
 30
0.0
 10
126.4154854778665
 20
5.538044839294568
 30
0.0
 10
126.4106354112019
 20
5.530963682502912
 30
0.0
 10
126.4056816186746
 20
5.523955270221074
 30
0.0
 10
126.1276743365057
 20
5.130642542507848
 30
0.0
 10
125.5834619419747
 20
5.037169010212796
 30
0.0
 10
125.1901492142551
 20
5.315176292388169
 30
0.0
 10
125.1901492142551
 20
5.315176292388169
 30
0.0
 10
110.4404800119101
 20
13.8047006180165
 30
0.0
 10
110.4404800119101
 20
13.8047006180165
 30
0.0
 10
110.349246890594
 20
13.83641961204406
 30
0.0
 10
110.2555453382675
 20
13.86053423469211
 30
0.0
 10
110.16033462685
 20
13.87679761192461
 30
0.0
 10
110.16033462685
 20
13.87679761192461
 30
0.0
 10
73.36646743628778
 20
19.34617525008638
 30
0.0
 10
73.36646743628778
 20
19.34617525008638
 30
0.0
 10
73.23722007235169
 20
19.35929575165335
 30
0.0
 10
73.11507977696056
 20
19.41164159253838
 30
0.0
 10
73.0164426110453
 20
19.49618588947876
 30
0.0
 10
73.0164426110453
 20
19.49618588947876
 30
0.0
 10
62.46569430734702
 20
33.95543827633618
 30
0.0
 10
62.46924794997744
 20
33.95076445992075
 30
0.0
  0
ENDBLK
  5
8B
330
88
100
AcDbEntity
  8
0
100
AcDbBlockEnd
  0
BLOCK
  5
8F
330
8D
100
AcDbEntity
  8
0
100
AcDbBlockBegin
  2
block 12
 70
     0
 10
0.0
 20
0.0
 30
0.0
  3
block 12
  1

  0
SPLINE
  5
91
330
8D
100
AcDbEntity
  8
_U+5207_U+65AD_U+30D1_U+30B9
 62
     1
420
 16711680
370
     9
100
AcDbSpline
210
0.0
220
0.0
230
1.0
 70
    11
 71
     3
 72
    20
 73
    16
 74
     0
 42
0.0000000001
 43
0.0000000001
 12
1.0
 22
0.0
 32
0.0
 13
1.0
 23
0.0
 33
0.0
 40
0.0
 40
0.0
 40
0.0
 40
0.0
 40
1.0
 40
1.0
 40
1.0
 40
2.0
 40
2.0
 40
2.0
 40
3.0
 40
3.0
 40
3.0
 40
4.0
 40
4.0
 40
4.0
 40
5.0
 40
5.0
 40
5.0
 40
5.0
 10
100.0376488859492
 20
75.3502210723822
 30
0.0
 10
100.0376488859492
 20
75.95777738765797
 30
0.0
 10
100.5301705928598
 20
76.45029909456345
 30
0.0
 10
101.1377269081395
 20
76.45029909456345
 30
0.0
 10
101.7452832234191
 20
76.45029909456345
 30
0.0
 10
102.237804930322
 20
75.95777738765797
 30
0.0
 10
102.237804930322
 20
75.3502210723822
 30
0.0
 10
102.237804930322
 20
74.7426647571
 30
0.0
 10
101.7452832234191
 20
74.25014305019067
 30
0.0
 10
101.1377269081395
 20
74.25014305019067
 30
0.0
 10
100.5301705928598
 20
74.25014305019067
 30
0.0
 10
100.0376488859492
 20
74.7426647571
 30
0.0
 10
100.0376488859492
 20
75.3502210723822
 30
0.0
 10
100.0376488859492
 20
75.3502210723822
 30
0.0
 10
100.0376488859492
 20
75.3502210723822
 30
0.0
 10
100.0376488859492
 20
75.3502210723822
 30
0.0
  0
ENDBLK
  5
90
330
8D
100
AcDbEntity
  8
0
100
AcDbBlockEnd
  0
BLOCK
  5
94
330
92
100
AcDbEntity
  8
0
100
AcDbBlockBegin
  2
block 13
 70
     0
 10
0.0
 20
0.0
 30
0.0
  3
block 13
  1

  0
SPLINE
  5
96
330
92
100
AcDbEntity
  8
_U+5207_U+65AD_U+30D1_U+30B9
 62
     1
420
 16711680
370
     9
100
AcDbSpline
210
0.0
220
0.0
230
1.0
 70
    11
 71
     3
 72
    20
 73
    16
 74
     0
 42
0.0000000001
 43
0.0000000001
 12
1.0
 22
0.0
 32
0.0
 13
1.0
 23
0.0
 33
0.0
 40
0.0
 40
0.0
 40
0.0
 40
0.0
 40
1.0
 40
1.0
 40
1.0
 40
2.0
 40
2.0
 40
2.0
 40
3.0
 40
3.0
 40
3.0
 40
4.0
 40
4.0
 40
4.0
 40
5.0
 40
5.0
 40
5.0
 40
5.0
 10
24.01582647868574
 20
71.72782235340563
 30
0.0
 10
24.01582647868574
 20
72.3353786686814
 30
0.0
 10
24.50834818559122
 20
72.82790037559074
 30
0.0
 10
25.11590450086955
 20
72.82790037559074
 30
0.0
 10
25.72346081614918
 20
72.82790037559074
 30
0.0
 10
26.21598252305979
 20
72.3353786686814
 30
0.0
 10
26.21598252305979
 20
71.72782235340563
 30
0.0
 10
26.21598252305979
 20
71.12026603813115
 30
0.0
 10
25.72346081614918
 20
70.62774433122182
 30
0.0
 10
25.11590450086955
 20
70.62774433122182
 30
0.0
 10
24.50834818559122
 20
70.62774433122182
 30
0.0
 10
24.01582647868574
 20
71.12026603813115
 30
0.0
 10
24.01582647868574
 20
71.72782235340563
 30
0.0
 10
24.01582647868574
 20
71.72782235340563
 30
0.0
 10
24.01582647868574
 20
71.72782235340563
 30
0.0
 10
24.01582647868574
 20
71.72782235340563
 30
0.0
  0
ENDBLK
  5
95
330
92
100
AcDbEntity
  8
0
100
AcDbBlockEnd
  0
BLOCK
  5
99
330
97
100
AcDbEntity
  8
0
100
AcDbBlockBegin
  2
block 14
 70
     0
 10
0.0
 20
0.0
 30
0.0
  3
block 14
  1

  0
SPLINE
  5
9B
330
97
100
AcDbEntity
  8
_U+5207_U+65AD_U+30D1_U+30B9
 62
     1
420
 16711680
370
     9
100
AcDbSpline
210
0.0
220
0.0
230
1.0
 70
    11
 71
     3
 72
    20
 73
    16
 74
     0
 42
0.0000000001
 43
0.0000000001
 12
1.0
 22
0.0
 32
0.0
 13
1.0
 23
0.0
 33
0.0
 40
0.0
 40
0.0
 40
0.0
 40
0.0
 40
1.0
 40
1.0
 40
1.0
 40
2.0
 40
2.0
 40
2.0
 40
3.0
 40
3.0
 40
3.0
 40
4.0
 40
4.0
 40
4.0
 40
5.0
 40
5.0
 40
5.0
 40
5.0
 10
24.00703106965162
 20
52.71267673215806
 30
0.0
 10
24.00703106965162
 20
53.32023304743254
 30
0.0
 10
24.49955277656223
 20
53.81275475434958
 30
0.0
 10
25.10710909183415
 20
53.81275475434958
 30
0.0
 10
25.71466540711506
 20
53.81275475434958
 30
0.0
 10
26.20718711402439
 20
53.32023304743254
 30
0.0
 10
26.20718711402439
 20
52.71267673215806
 30
0.0
 10
26.20718711402439
 20
52.10512041687844
 30
0.0
 10
25.71466540711506
 20
51.61259870997295
 30
0.0
 10
25.10710909183415
 20
51.61259870997295
 30
0.0
 10
24.49955277656223
 20
51.61259870997295
 30
0.0
 10
24.00703106965162
 20
52.10512041687844
 30
0.0
 10
24.00703106965162
 20
52.71267673215806
 30
0.0
 10
24.00703106965162
 20
52.71267673215806
 30
0.0
 10
24.00703106965162
 20
52.71267673215806
 30
0.0
 10
24.00703106965162
 20
52.71267673215806
 30
0.0
  0
ENDBLK
  5
9A
330
97
100
AcDbEntity
  8
0
100
AcDbBlockEnd
  0
BLOCK
  5
9E
330
9C
100
AcDbEntity
  8
0
100
AcDbBlockBegin
  2
block 15
 70
     0
 10
0.0
 20
0.0
 30
0.0
  3
block 15
  1

  0
SPLINE
  5
A0
330
9C
100
AcDbEntity
  8
_U+5207_U+65AD_U+30D1_U+30B9
 62
     1
420
 16711680
370
     9
100
AcDbSpline
210
0.0
220
0.0
230
1.0
 70
    11
 71
     3
 72
    20
 73
    16
 74
     0
 42
0.0000000001
 43
0.0000000001
 12
1.0
 22
0.0
 32
0.0
 13
1.0
 23
0.0
 33
0.0
 40
0.0
 40
0.0
 40
0.0
 40
0.0
 40
1.0
 40
1.0
 40
1.0
 40
2.0
 40
2.0
 40
2.0
 40
3.0
 40
3.0
 40
3.0
 40
4.0
 40
4.0
 40
4.0
 40
5.0
 40
5.0
 40
5.0
 40
5.0
 10
113.7793466943454
 20
27.84843814942796
 30
0.0
 10
113.7793466943454
 20
28.45599446470758
 30
0.0
 10
114.2718684012496
 20
28.94851617161691
 30
0.0
 10
114.8794247165267
 20
28.94851617161691
 30
0.0
 10
115.4869810318063
 20
28.94851617161691
 30
0.0
 10
115.9795027387105
 20
28.45599446470758
 30
0.0
 10
115.9795027387105
 20
27.84843814942796
 30
0.0
 10
115.9795027387105
 20
27.24088183415732
 30
0.0
 10
115.4869810318063
 20
26.74836012724414
 30
0.0
 10
114.8794247165267
 20
26.74836012724414
 30
0.0
 10
114.2718684012496
 20
26.74836012724414
 30
0.0
 10
113.7793466943454
 20
27.24088183415732
 30
0.0
 10
113.7793466943454
 20
27.84843814942796
 30
0.0
 10
113.7793466943454
 20
27.84843814942796
 30
0.0
 10
113.7793466943454
 20
27.84843814942796
 30
0.0
 10
113.7793466943454
 20
27.84843814942796
 30
0.0
  0
ENDBLK
  5
9F
330
9C
100
AcDbEntity
  8
0
100
AcDbBlockEnd
  0
BLOCK
  5
A3
330
A1
100
AcDbEntity
  8
0
100
AcDbBlockBegin
  2
block 16
 70
     0
 10
0.0
 20
0.0
 30
0.0
  3
block 16
  1

  0
SPLINE
  5
A5
330
A1
100
AcDbEntity
  8
_U+5207_U+65AD_U+30D1_U+30B9
 62
     1
420
 16711680
370
     9
100
AcDbSpline
210
0.0
220
0.0
230
1.0
 70
    11
 71
     3
 72
    20
 73
    16
 74
     0
 42
0.0000000001
 43
0.0000000001
 12
1.0
 22
0.0
 32
0.0
 13
1.0
 23
0.0
 33
0.0
 40
0.0
 40
0.0
 40
0.0
 40
0.0
 40
1.0
 40
1.0
 40
1.0
 40
2.0
 40
2.0
 40
2.0
 40
3.0
 40
3.0
 40
3.0
 40
4.0
 40
4.0
 40
4.0
 40
5.0
 40
5.0
 40
5.0
 40
5.0
 10
67.25936784548813
 20
35.60294777388997
 30
0.0
 10
67.25936784548813
 20
36.2105040891696
 30
0.0
 10
67.75188955239105
 20
36.70302579607893
 30
0.0
 10
68.35944586767195
 20
36.70302579607893
 30
0.0
 10
68.96700218295157
 20
36.70302579607893
 30
0.0
 10
69.4595238898545
 20
36.2105040891696
 30
0.0
 10
69.4595238898545
 20
35.60294777388997
 30
0.0
 10
69.4595238898545
 20
34.99539145861164
 30
0.0
 10
68.96700218295157
 20
34.50286975171001
 30
0.0
 10
68.35944586767195
 20
34.50286975171001
 30
0.0
 10
67.75188955239105
 20
34.50286975171001
 30
0.0
 10
67.25936784548813
 20
34.99539145861164
 30
0.0
 10
67.25936784548813
 20
35.60294777388997
 30
0.0
 10
67.25936784548813
 20
35.60294777388997
 30
0.0
 10
67.25936784548813
 20
35.60294777388997
 30
0.0
 10
67.25936784548813
 20
35.60294777388997
 30
0.0
  0
ENDBLK
  5
A4
330
A1
100
AcDbEntity
  8
0
100
AcDbBlockEnd
  0
BLOCK
  5
A8
330
A6
100
AcDbEntity
  8
0
100
AcDbBlockBegin
  2
block 17
 70
     0
 10
0.0
 20
0.0
 30
0.0
  3
block 17
  1

  0
POLYLINE
  5
AA
330
A6
100
AcDbEntity
  8
_U+5207_U+65AD_U+30D1_U+30B9
 62
     1
420
 16711680
370
     9
100
AcDb2dPolyline
 66
     1
 10
0.0
 20
0.0
 30
0.0
  0
VERTEX
  5
AB
330
AA
100
AcDbEntity
  8
_U+5207_U+65AD_U+30D1_U+30B9
 62
     1
420
 16711680
370
     9
100
AcDbVertex
100
AcDb2dVertex
 10
8.681320139895856
 20
88.16084327117652
 30
0.0
  0
VERTEX
  5
AC
330
AA
100
AcDbEntity
  8
_U+5207_U+65AD_U+30D1_U+30B9
 62
     1
420
 16711680
370
     9
100
AcDbVertex
100
AcDb2dVertex
 10
8.681320139895856
 20
74.30986090092034
 30
0.0
  0
VERTEX
  5
AD
330
AA
100
AcDbEntity
  8
_U+5207_U+65AD_U+30D1_U+30B9
 62
     1
420
 16711680
370
     9
100
AcDbVertex
100
AcDb2dVertex
 10
22.53230251015074
 20
74.30986090092034
 30
0.0
  0
VERTEX
  5
AE
330
AA
100
AcDbEntity
  8
_U+5207_U+65AD_U+30D1_U+30B9
 62
     1
420
 16711680
370
     9
100
AcDbVertex
100
AcDb2dVertex
 10
22.53230251015074
 20
88.16084327117652
 30
0.0
  0
VERTEX
  5
AF
330
AA
100
AcDbEntity
  8
_U+5207_U+65AD_U+30D1_U+30B9
 62
     1
420
 16711680
370
     9
100
AcDbVertex
100
AcDb2dVertex
 10
8.681320139895856
 20
88.16084327117652
 30
0.0
  0
SEQEND
  5
B0
330
AA
100
AcDbEntity
  8
_U+5207_U+65AD_U+30D1_U+30B9
 62
     1
420
 16711680
370
     9
  0
ENDBLK
  5
A9
330
A6
100
AcDbEntity
  8
0
100
AcDbBlockEnd
  0
BLOCK
  5
B3
330
B1
100
AcDbEntity
  8
0
100
AcDbBlockBegin
  2
block 18
 70
     0
 10
0.0
 20
0.0
 30
0.0
  3
block 18
  1

  0
POLYLINE
  5
B5
330
B1
100
AcDbEntity
  8
_U+5207_U+65AD_U+30D1_U+30B9
 62
     1
420
 16711680
370
     9
100
AcDb2dPolyline
 66
     1
 10
0.0
 20
0.0
 30
0.0
  0
VERTEX
  5
B6
330
B5
100
AcDbEntity
  8
_U+5207_U+65AD_U+30D1_U+30B9
 62
     1
420
 16711680
370
     9
100
AcDbVertex
100
AcDb2dVertex
 10
8.681320139895856
 20
69.15949561523344
 30
0.0
  0
VERTEX
  5
B7
330
B5
100
AcDbEntity
  8
_U+5207_U+65AD_U+30D1_U+30B9
 62
     1
420
 16711680
370
     9
100
AcDbVertex
100
AcDb2dVertex
 10
8.681320139895856
 20
55.30851324497342
 30
0.0
  0
VERTEX
  5
B8
330
B5
100
AcDbEntity
  8
_U+5207_U+65AD_U+30D1_U+30B9
 62
     1
420
 16711680
370
     9
100
AcDbVertex
100
AcDb2dVertex
 10
22.53230251015074
 20
55.30851324497342
 30
0.0
  0
VERTEX
  5
B9
330
B5
100
AcDbEntity
  8
_U+5207_U+65AD_U+30D1_U+30B9
 62
     1
420
 16711680
370
     9
100
AcDbVertex
100
AcDb2dVertex
 10
22.53230251015074
 20
69.15949561523344
 30
0.0
  0
VERTEX
  5
BA
330
B5
100
AcDbEntity
  8
_U+5207_U+65AD_U+30D1_U+30B9
 62
     1
420
 16711680
370
     9
100
AcDbVertex
100
AcDb2dVertex
 10
8.681320139895856
 20
69.15949561523344
 30
0.0
  0
SEQEND
  5
BB
330
B5
100
AcDbEntity
  8
_U+5207_U+65AD_U+30D1_U+30B9
 62
     1
420
 16711680
370
     9
  0
ENDBLK
  5
B4
330
B1
100
AcDbEntity
  8
0
100
AcDbBlockEnd
  0
BLOCK
  5
BE
330
BC
100
AcDbEntity
  8
0
100
AcDbBlockBegin
  2
block 19
 70
     0
 10
0.0
 20
0.0
 30
0.0
  3
block 19
  1

  0
POLYLINE
  5
C0
330
BC
100
AcDbEntity
  8
_U+5207_U+65AD_U+30D1_U+30B9
 62
     1
420
 16711680
370
     9
100
AcDb2dPolyline
 66
     1
 10
0.0
 20
0.0
 30
0.0
  0
VERTEX
  5
C1
330
C0
100
AcDbEntity
  8
_U+5207_U+65AD_U+30D1_U+30B9
 62
     1
420
 16711680
370
     9
100
AcDbVertex
100
AcDb2dVertex
 10
8.681320139895856
 20
50.15814795928652
 30
0.0
  0
VERTEX
  5
C2
330
C0
100
AcDbEntity
  8
_U+5207_U+65AD_U+30D1_U+30B9
 62
     1
420
 16711680
370
     9
100
AcDbVertex
100
AcDb2dVertex
 10
8.681320139895856
 20
36.30716558903163
 30
0.0
  0
VERTEX
  5
C3
330
C0
100
AcDbEntity
  8
_U+5207_U+65AD_U+30D1_U+30B9
 62
     1
420
 16711680
370
     9
100
AcDbVertex
100
AcDb2dVertex
 10
22.53230251015074
 20
36.30716558903163
 30
0.0
  0
VERTEX
  5
C4
330
C0
100
AcDbEntity
  8
_U+5207_U+65AD_U+30D1_U+30B9
 62
     1
420
 16711680
370
     9
100
AcDbVertex
100
AcDb2dVertex
 10
22.53230251015074
 20
50.15814795928652
 30
0.0
  0
VERTEX
  5
C5
330
C0
100
AcDbEntity
  8
_U+5207_U+65AD_U+30D1_U+30B9
 62
     1
420
 16711680
370
     9
100
AcDbVertex
100
AcDb2dVertex
 10
8.681320139895856
 20
50.15814795928652
 30
0.0
  0
SEQEND
  5
C6
330
C0
100
AcDbEntity
  8
_U+5207_U+65AD_U+30D1_U+30B9
 62
     1
420
 16711680
370
     9
  0
ENDBLK
  5
BF
330
BC
100
AcDbEntity
  8
0
100
AcDbBlockEnd
  0
BLOCK
  5
C9
330
C7
100
AcDbEntity
  8
0
100
AcDbBlockBegin
  2
block 20
 70
     0
 10
0.0
 20
0.0
 30
0.0
  3
block 20
  1

  0
POLYLINE
  5
CB
330
C7
100
AcDbEntity
  8
_U+5207_U+65AD_U+30D1_U+30B9
 62
     1
420
 16711680
370
     9
100
AcDb2dPolyline
 66
     1
 10
0.0
 20
0.0
 30
0.0
  0
VERTEX
  5
CC
330
CB
100
AcDbEntity
  8
_U+5207_U+65AD_U+30D1_U+30B9
 62
     1
420
 16711680
370
     9
100
AcDbVertex
100
AcDb2dVertex
 10
27.68317583186892
 20
88.16084327117652
 30
0.0
  0
VERTEX
  5
CD
330
CB
100
AcDbEntity
  8
_U+5207_U+65AD_U+30D1_U+30B9
 62
     1
420
 16711680
370
     9
100
AcDbVertex
100
AcDb2dVertex
 10
27.68317583186892
 20
74.30986090092034
 30
0.0
  0
VERTEX
  5
CE
330
CB
100
AcDbEntity
  8
_U+5207_U+65AD_U+30D1_U+30B9
 62
     1
420
 16711680
370
     9
100
AcDbVertex
100
AcDb2dVertex
 10
41.53415820212541
 20
74.30986090092034
 30
0.0
  0
VERTEX
  5
CF
330
CB
100
AcDbEntity
  8
_U+5207_U+65AD_U+30D1_U+30B9
 62
     1
420
 16711680
370
     9
100
AcDbVertex
100
AcDb2dVertex
 10
41.53415820212541
 20
88.16084327117652
 30
0.0
  0
VERTEX
  5
D0
330
CB
100
AcDbEntity
  8
_U+5207_U+65AD_U+30D1_U+30B9
 62
     1
420
 16711680
370
     9
100
AcDbVertex
100
AcDb2dVertex
 10
27.68317583186892
 20
88.16084327117652
 30
0.0
  0
SEQEND
  5
D1
330
CB
100
AcDbEntity
  8
_U+5207_U+65AD_U+30D1_U+30B9
 62
     1
420
 16711680
370
     9
  0
ENDBLK
  5
CA
330
C7
100
AcDbEntity
  8
0
100
AcDbBlockEnd
  0
BLOCK
  5
D4
330
D2
100
AcDbEntity
  8
0
100
AcDbBlockBegin
  2
block 21
 70
     0
 10
0.0
 20
0.0
 30
0.0
  3
block 21
  1

  0
POLYLINE
  5
D6
330
D2
100
AcDbEntity
  8
_U+5207_U+65AD_U+30D1_U+30B9
 62
     1
420
 16711680
370
     9
100
AcDb2dPolyline
 66
     1
 10
0.0
 20
0.0
 30
0.0
  0
VERTEX
  5
D7
330
D6
100
AcDbEntity
  8
_U+5207_U+65AD_U+30D1_U+30B9
 62
     1
420
 16711680
370
     9
100
AcDbVertex
100
AcDb2dVertex
 10
27.68317583186892
 20
69.15949561523344
 30
0.0
  0
VERTEX
  5
D8
330
D6
100
AcDbEntity
  8
_U+5207_U+65AD_U+30D1_U+30B9
 62
     1
420
 16711680
370
     9
100
AcDbVertex
100
AcDb2dVertex
 10
27.68317583186892
 20
55.30851324497342
 30
0.0
  0
VERTEX
  5
D9
330
D6
100
AcDbEntity
  8
_U+5207_U+65AD_U+30D1_U+30B9
 62
     1
420
 16711680
370
     9
100
AcDbVertex
100
AcDb2dVertex
 10
41.53415820212541
 20
55.30851324497342
 30
0.0
  0
VERTEX
  5
DA
330
D6
100
AcDbEntity
  8
_U+5207_U+65AD_U+30D1_U+30B9
 62
     1
420
 16711680
370
     9
100
AcDbVertex
100
AcDb2dVertex
 10
41.53415820212541
 20
69.15949561523344
 30
0.0
  0
VERTEX
  5
DB
330
D6
100
AcDbEntity
  8
_U+5207_U+65AD_U+30D1_U+30B9
 62
     1
420
 16711680
370
     9
100
AcDbVertex
100
AcDb2dVertex
 10
27.68317583186892
 20
69.15949561523344
 30
0.0
  0
SEQEND
  5
DC
330
D6
100
AcDbEntity
  8
_U+5207_U+65AD_U+30D1_U+30B9
 62
     1
420
 16711680
370
     9
  0
ENDBLK
  5
D5
330
D2
100
AcDbEntity
  8
0
100
AcDbBlockEnd
  0
BLOCK
  5
DF
330
DD
100
AcDbEntity
  8
0
100
AcDbBlockBegin
  2
block 22
 70
     0
 10
0.0
 20
0.0
 30
0.0
  3
block 22
  1

  0
POLYLINE
  5
E1
330
DD
100
AcDbEntity
  8
_U+5207_U+65AD_U+30D1_U+30B9
 62
     1
420
 16711680
370
     9
100
AcDb2dPolyline
 66
     1
 10
0.0
 20
0.0
 30
0.0
  0
VERTEX
  5
E2
330
E1
100
AcDbEntity
  8
_U+5207_U+65AD_U+30D1_U+30B9
 62
     1
420
 16711680
370
     9
100
AcDbVertex
100
AcDb2dVertex
 10
27.68317583186892
 20
50.15814795928652
 30
0.0
  0
VERTEX
  5
E3
330
E1
100
AcDbEntity
  8
_U+5207_U+65AD_U+30D1_U+30B9
 62
     1
420
 16711680
370
     9
100
AcDbVertex
100
AcDb2dVertex
 10
27.68317583186892
 20
36.30716558903163
 30
0.0
  0
VERTEX
  5
E4
330
E1
100
AcDbEntity
  8
_U+5207_U+65AD_U+30D1_U+30B9
 62
     1
420
 16711680
370
     9
100
AcDbVertex
100
AcDb2dVertex
 10
41.53415820212541
 20
36.30716558903163
 30
0.0
  0
VERTEX
  5
E5
330
E1
100
AcDbEntity
  8
_U+5207_U+65AD_U+30D1_U+30B9
 62
     1
420
 16711680
370
     9
100
AcDbVertex
100
AcDb2dVertex
 10
41.53415820212541
 20
50.15814795928652
 30
0.0
  0
VERTEX
  5
E6
330
E1
100
AcDbEntity
  8
_U+5207_U+65AD_U+30D1_U+30B9
 62
     1
420
 16711680
370
     9
100
AcDbVertex
100
AcDb2dVertex
 10
27.68317583186892
 20
50.15814795928652
 30
0.0
  0
SEQEND
  5
E7
330
E1
100
AcDbEntity
  8
_U+5207_U+65AD_U+30D1_U+30B9
 62
     1
420
 16711680
370
     9
  0
ENDBLK
  5
E0
330
DD
100
AcDbEntity
  8
0
100
AcDbBlockEnd
  0
BLOCK
  5
EA
330
E8
100
AcDbEntity
  8
0
100
AcDbBlockBegin
  2
block 23
 70
     0
 10
0.0
 20
0.0
 30
0.0
  3
block 23
  1

  0
POLYLINE
  5
EC
330
E8
100
AcDbEntity
  8
_U+5207_U+65AD_U+30D1_U+30B9
 62
     1
420
 16711680
370
     9
100
AcDb2dPolyline
 66
     1
 10
0.0
 20
0.0
 30
0.0
  0
VERTEX
  5
ED
330
EC
100
AcDbEntity
  8
_U+5207_U+65AD_U+30D1_U+30B9
 62
     1
420
 16711680
370
     9
100
AcDbVertex
100
AcDb2dVertex
 10
46.68452348782098
 20
92.91118018516195
 30
0.0
  0
VERTEX
  5
EE
330
EC
100
AcDbEntity
  8
_U+5207_U+65AD_U+30D1_U+30B9
 62
     1
420
 16711680
370
     9
100
AcDbVertex
100
AcDb2dVertex
 10
46.68452348782098
 20
79.06019781490964
 30
0.0
  0
VERTEX
  5
EF
330
EC
100
AcDbEntity
  8
_U+5207_U+65AD_U+30D1_U+30B9
 62
     1
420
 16711680
370
     9
100
AcDbVertex
100
AcDb2dVertex
 10
60.53550585807458
 20
79.06019781490964
 30
0.0
  0
VERTEX
  5
F0
330
EC
100
AcDbEntity
  8
_U+5207_U+65AD_U+30D1_U+30B9
 62
     1
420
 16711680
370
     9
100
AcDbVertex
100
AcDb2dVertex
 10
60.53550585807458
 20
92.91118018516195
 30
0.0
  0
VERTEX
  5
F1
330
EC
100
AcDbEntity
  8
_U+5207_U+65AD_U+30D1_U+30B9
 62
     1
420
 16711680
370
     9
100
AcDbVertex
100
AcDb2dVertex
 10
46.68452348782098
 20
92.91118018516195
 30
0.0
  0
SEQEND
  5
F2
330
EC
100
AcDbEntity
  8
_U+5207_U+65AD_U+30D1_U+30B9
 62
     1
420
 16711680
370
     9
  0
ENDBLK
  5
EB
330
E8
100
AcDbEntity
  8
0
100
AcDbBlockEnd
  0
BLOCK
  5
F5
330
F3
100
AcDbEntity
  8
0
100
AcDbBlockBegin
  2
block 24
 70
     0
 10
0.0
 20
0.0
 30
0.0
  3
block 24
  1

  0
POLYLINE
  5
F7
330
F3
100
AcDbEntity
  8
_U+5207_U+65AD_U+30D1_U+30B9
 62
     1
420
 16711680
370
     9
100
AcDb2dPolyline
 66
     1
 10
0.0
 20
0.0
 30
0.0
  0
VERTEX
  5
F8
330
F7
100
AcDbEntity
  8
_U+5207_U+65AD_U+30D1_U+30B9
 62
     1
420
 16711680
370
     9
100
AcDbVertex
100
AcDb2dVertex
 10
46.68452348782098
 20
73.90983252921889
 30
0.0
  0
VERTEX
  5
F9
330
F7
100
AcDbEntity
  8
_U+5207_U+65AD_U+30D1_U+30B9
 62
     1
420
 16711680
370
     9
100
AcDbVertex
100
AcDb2dVertex
 10
46.68452348782098
 20
60.05885015896657
 30
0.0
  0
VERTEX
  5
FA
330
F7
100
AcDbEntity
  8
_U+5207_U+65AD_U+30D1_U+30B9
 62
     1
420
 16711680
370
     9
100
AcDbVertex
100
AcDb2dVertex
 10
60.53550585807458
 20
60.05885015896657
 30
0.0
  0
VERTEX
  5
FB
330
F7
100
AcDbEntity
  8
_U+5207_U+65AD_U+30D1_U+30B9
 62
     1
420
 16711680
370
     9
100
AcDbVertex
100
AcDb2dVertex
 10
60.53550585807458
 20
73.90983252921889
 30
0.0
  0
VERTEX
  5
FC
330
F7
100
AcDbEntity
  8
_U+5207_U+65AD_U+30D1_U+30B9
 62
     1
420
 16711680
370
     9
100
AcDbVertex
100
AcDb2dVertex
 10
46.68452348782098
 20
73.90983252921889
 30
0.0
  0
SEQEND
  5
FD
330
F7
100
AcDbEntity
  8
_U+5207_U+65AD_U+30D1_U+30B9
 62
     1
420
 16711680
370
     9
  0
ENDBLK
  5
F6
330
F3
100
AcDbEntity
  8
0
100
AcDbBlockEnd
  0
BLOCK
  5
100
330
FE
100
AcDbEntity
  8
0
100
AcDbBlockBegin
  2
block 25
 70
     0
 10
0.0
 20
0.0
 30
0.0
  3
block 25
  1

  0
POLYLINE
  5
102
330
FE
100
AcDbEntity
  8
_U+5207_U+65AD_U+30D1_U+30B9
 62
     1
420
 16711680
370
     9
100
AcDb2dPolyline
 66
     1
 10
0.0
 20
0.0
 30
0.0
  0
VERTEX
  5
103
330
102
100
AcDbEntity
  8
_U+5207_U+65AD_U+30D1_U+30B9
 62
     1
420
 16711680
370
     9
100
AcDbVertex
100
AcDb2dVertex
 10
46.68452348782098
 20
54.90848487326812
 30
0.0
  0
VERTEX
  5
104
330
102
100
AcDbEntity
  8
_U+5207_U+65AD_U+30D1_U+30B9
 62
     1
420
 16711680
370
     9
100
AcDbVertex
100
AcDb2dVertex
 10
46.68452348782098
 20
41.05750250301708
 30
0.0
  0
VERTEX
  5
105
330
102
100
AcDbEntity
  8
_U+5207_U+65AD_U+30D1_U+30B9
 62
     1
420
 16711680
370
     9
100
AcDbVertex
100
AcDb2dVertex
 10
60.53550585807458
 20
41.05750250301708
 30
0.0
  0
VERTEX
  5
106
330
102
100
AcDbEntity
  8
_U+5207_U+65AD_U+30D1_U+30B9
 62
     1
420
 16711680
370
     9
100
AcDbVertex
100
AcDb2dVertex
 10
60.53550585807458
 20
54.90848487326812
 30
0.0
  0
VERTEX
  5
107
330
102
100
AcDbEntity
  8
_U+5207_U+65AD_U+30D1_U+30B9
 62
     1
420
 16711680
370
     9
100
AcDbVertex
100
AcDb2dVertex
 10
46.68452348782098
 20
54.90848487326812
 30
0.0
  0
SEQEND
  5
108
330
102
100
AcDbEntity
  8
_U+5207_U+65AD_U+30D1_U+30B9
 62
     1
420
 16711680
370
     9
  0
ENDBLK
  5
101
330
FE
100
AcDbEntity
  8
0
100
AcDbBlockEnd
  0
BLOCK
  5
10B
330
109
100
AcDbEntity
  8
0
100
AcDbBlockBegin
  2
block 26
 70
     0
 10
0.0
 20
0.0
 30
0.0
  3
block 26
  1

  0
POLYLINE
  5
10D
330
109
100
AcDbEntity
  8
_U+5207_U+65AD_U+30D1_U+30B9
 62
     1
420
 16711680
370
     9
100
AcDb2dPolyline
 66
     1
 10
0.0
 20
0.0
 30
0.0
  0
VERTEX
  5
10E
330
10D
100
AcDbEntity
  8
_U+5207_U+65AD_U+30D1_U+30B9
 62
     1
420
 16711680
370
     9
100
AcDbVertex
100
AcDb2dVertex
 10
65.68587114376277
 20
95.28634864215276
 30
0.0
  0
VERTEX
  5
10F
330
10D
100
AcDbEntity
  8
_U+5207_U+65AD_U+30D1_U+30B9
 62
     1
420
 16711680
370
     9
100
AcDbVertex
100
AcDb2dVertex
 10
65.68587114376277
 20
81.43536627190173
 30
0.0
  0
VERTEX
  5
110
330
10D
100
AcDbEntity
  8
_U+5207_U+65AD_U+30D1_U+30B9
 62
     1
420
 16711680
370
     9
100
AcDbVertex
100
AcDb2dVertex
 10
79.53685351401765
 20
81.43536627190173
 30
0.0
  0
VERTEX
  5
111
330
10D
100
AcDbEntity
  8
_U+5207_U+65AD_U+30D1_U+30B9
 62
     1
420
 16711680
370
     9
100
AcDbVertex
100
AcDb2dVertex
 10
79.53685351401765
 20
95.28634864215276
 30
0.0
  0
VERTEX
  5
112
330
10D
100
AcDbEntity
  8
_U+5207_U+65AD_U+30D1_U+30B9
 62
     1
420
 16711680
370
     9
100
AcDbVertex
100
AcDb2dVertex
 10
65.68587114376277
 20
95.28634864215276
 30
0.0
  0
SEQEND
  5
113
330
10D
100
AcDbEntity
  8
_U+5207_U+65AD_U+30D1_U+30B9
 62
     1
420
 16711680
370
     9
  0
ENDBLK
  5
10C
330
109
100
AcDbEntity
  8
0
100
AcDbBlockEnd
  0
BLOCK
  5
116
330
114
100
AcDbEntity
  8
0
100
AcDbBlockBegin
  2
block 27
 70
     0
 10
0.0
 20
0.0
 30
0.0
  3
block 27
  1

  0
POLYLINE
  5
118
330
114
100
AcDbEntity
  8
_U+5207_U+65AD_U+30D1_U+30B9
 62
     1
420
 16711680
370
     9
100
AcDb2dPolyline
 66
     1
 10
0.0
 20
0.0
 30
0.0
  0
VERTEX
  5
119
330
118
100
AcDbEntity
  8
_U+5207_U+65AD_U+30D1_U+30B9
 62
     1
420
 16711680
370
     9
100
AcDbVertex
100
AcDb2dVertex
 10
65.68587114376277
 20
76.28500098621353
 30
0.0
  0
VERTEX
  5
11A
330
118
100
AcDbEntity
  8
_U+5207_U+65AD_U+30D1_U+30B9
 62
     1
420
 16711680
370
     9
100
AcDbVertex
100
AcDb2dVertex
 10
65.68587114376277
 20
62.43401861595865
 30
0.0
  0
VERTEX
  5
11B
330
118
100
AcDbEntity
  8
_U+5207_U+65AD_U+30D1_U+30B9
 62
     1
420
 16711680
370
     9
100
AcDbVertex
100
AcDb2dVertex
 10
79.53685351401765
 20
62.43401861595865
 30
0.0
  0
VERTEX
  5
11C
330
118
100
AcDbEntity
  8
_U+5207_U+65AD_U+30D1_U+30B9
 62
     1
420
 16711680
370
     9
100
AcDbVertex
100
AcDb2dVertex
 10
79.53685351401765
 20
76.28500098621353
 30
0.0
  0
VERTEX
  5
11D
330
118
100
AcDbEntity
  8
_U+5207_U+65AD_U+30D1_U+30B9
 62
     1
420
 16711680
370
     9
100
AcDbVertex
100
AcDb2dVertex
 10
65.68587114376277
 20
76.28500098621353
 30
0.0
  0
SEQEND
  5
11E
330
118
100
AcDbEntity
  8
_U+5207_U+65AD_U+30D1_U+30B9
 62
     1
420
 16711680
370
     9
  0
ENDBLK
  5
117
330
114
100
AcDbEntity
  8
0
100
AcDbBlockEnd
  0
BLOCK
  5
121
330
11F
100
AcDbEntity
  8
0
100
AcDbBlockBegin
  2
block 28
 70
     0
 10
0.0
 20
0.0
 30
0.0
  3
block 28
  1

  0
POLYLINE
  5
123
330
11F
100
AcDbEntity
  8
_U+5207_U+65AD_U+30D1_U+30B9
 62
     1
420
 16711680
370
     9
100
AcDb2dPolyline
 66
     1
 10
0.0
 20
0.0
 30
0.0
  0
VERTEX
  5
124
330
123
100
AcDbEntity
  8
_U+5207_U+65AD_U+30D1_U+30B9
 62
     1
420
 16711680
370
     9
100
AcDbVertex
100
AcDb2dVertex
 10
65.68587114376277
 20
57.28365333027046
 30
0.0
  0
VERTEX
  5
125
330
123
100
AcDbEntity
  8
_U+5207_U+65AD_U+30D1_U+30B9
 62
     1
420
 16711680
370
     9
100
AcDbVertex
100
AcDb2dVertex
 10
65.68587114376277
 20
43.43267096001173
 30
0.0
  0
VERTEX
  5
126
330
123
100
AcDbEntity
  8
_U+5207_U+65AD_U+30D1_U+30B9
 62
     1
420
 16711680
370
     9
100
AcDbVertex
100
AcDb2dVertex
 10
79.53685351401765
 20
43.43267096001173
 30
0.0
  0
VERTEX
  5
127
330
123
100
AcDbEntity
  8
_U+5207_U+65AD_U+30D1_U+30B9
 62
     1
420
 16711680
370
     9
100
AcDbVertex
100
AcDb2dVertex
 10
79.53685351401765
 20
57.28365333027046
 30
0.0
  0
VERTEX
  5
128
330
123
100
AcDbEntity
  8
_U+5207_U+65AD_U+30D1_U+30B9
 62
     1
420
 16711680
370
     9
100
AcDbVertex
100
AcDb2dVertex
 10
65.68587114376277
 20
57.28365333027046
 30
0.0
  0
SEQEND
  5
129
330
123
100
AcDbEntity
  8
_U+5207_U+65AD_U+30D1_U+30B9
 62
     1
420
 16711680
370
     9
  0
ENDBLK
  5
122
330
11F
100
AcDbEntity
  8
0
100
AcDbBlockEnd
  0
BLOCK
  5
12C
330
12A
100
AcDbEntity
  8
0
100
AcDbBlockBegin
  2
block 29
 70
     0
 10
0.0
 20
0.0
 30
0.0
  3
block 29
  1

  0
POLYLINE
  5
12E
330
12A
100
AcDbEntity
  8
_U+5207_U+65AD_U+30D1_U+30B9
 62
     1
420
 16711680
370
     9
100
AcDb2dPolyline
 66
     1
 10
0.0
 20
0.0
 30
0.0
  0
VERTEX
  5
12F
330
12E
100
AcDbEntity
  8
_U+5207_U+65AD_U+30D1_U+30B9
 62
     1
420
 16711680
370
     9
100
AcDbVertex
100
AcDb2dVertex
 10
84.68721879970713
 20
92.91118018516195
 30
0.0
  0
VERTEX
  5
130
330
12E
100
AcDbEntity
  8
_U+5207_U+65AD_U+30D1_U+30B9
 62
     1
420
 16711680
370
     9
100
AcDbVertex
100
AcDb2dVertex
 10
84.68721879970713
 20
79.06019781490964
 30
0.0
  0
VERTEX
  5
131
330
12E
100
AcDbEntity
  8
_U+5207_U+65AD_U+30D1_U+30B9
 62
     1
420
 16711680
370
     9
100
AcDbVertex
100
AcDb2dVertex
 10
98.53820116996329
 20
79.06019781490964
 30
0.0
  0
VERTEX
  5
132
330
12E
100
AcDbEntity
  8
_U+5207_U+65AD_U+30D1_U+30B9
 62
     1
420
 16711680
370
     9
100
AcDbVertex
100
AcDb2dVertex
 10
98.53820116996329
 20
92.91118018516195
 30
0.0
  0
VERTEX
  5
133
330
12E
100
AcDbEntity
  8
_U+5207_U+65AD_U+30D1_U+30B9
 62
     1
420
 16711680
370
     9
100
AcDbVertex
100
AcDb2dVertex
 10
84.68721879970713
 20
92.91118018516195
 30
0.0
  0
SEQEND
  5
134
330
12E
100
AcDbEntity
  8
_U+5207_U+65AD_U+30D1_U+30B9
 62
     1
420
 16711680
370
     9
  0
ENDBLK
  5
12D
330
12A
100
AcDbEntity
  8
0
100
AcDbBlockEnd
  0
BLOCK
  5
137
330
135
100
AcDbEntity
  8
0
100
AcDbBlockBegin
  2
block 30
 70
     0
 10
0.0
 20
0.0
 30
0.0
  3
block 30
  1

  0
POLYLINE
  5
139
330
135
100
AcDbEntity
  8
_U+5207_U+65AD_U+30D1_U+30B9
 62
     1
420
 16711680
370
     9
100
AcDb2dPolyline
 66
     1
 10
0.0
 20
0.0
 30
0.0
  0
VERTEX
  5
13A
330
139
100
AcDbEntity
  8
_U+5207_U+65AD_U+30D1_U+30B9
 62
     1
420
 16711680
370
     9
100
AcDbVertex
100
AcDb2dVertex
 10
84.68721879970713
 20
73.90983252921889
 30
0.0
  0
VERTEX
  5
13B
330
139
100
AcDbEntity
  8
_U+5207_U+65AD_U+30D1_U+30B9
 62
     1
420
 16711680
370
     9
100
AcDbVertex
100
AcDb2dVertex
 10
84.68721879970713
 20
60.05885015896657
 30
0.0
  0
VERTEX
  5
13C
330
139
100
AcDbEntity
  8
_U+5207_U+65AD_U+30D1_U+30B9
 62
     1
420
 16711680
370
     9
100
AcDbVertex
100
AcDb2dVertex
 10
98.53820116996329
 20
60.05885015896657
 30
0.0
  0
VERTEX
  5
13D
330
139
100
AcDbEntity
  8
_U+5207_U+65AD_U+30D1_U+30B9
 62
     1
420
 16711680
370
     9
100
AcDbVertex
100
AcDb2dVertex
 10
98.53820116996329
 20
73.90983252921889
 30
0.0
  0
VERTEX
  5
13E
330
139
100
AcDbEntity
  8
_U+5207_U+65AD_U+30D1_U+30B9
 62
     1
420
 16711680
370
     9
100
AcDbVertex
100
AcDb2dVertex
 10
84.68721879970713
 20
73.90983252921889
 30
0.0
  0
SEQEND
  5
13F
330
139
100
AcDbEntity
  8
_U+5207_U+65AD_U+30D1_U+30B9
 62
     1
420
 16711680
370
     9
  0
ENDBLK
  5
138
330
135
100
AcDbEntity
  8
0
100
AcDbBlockEnd
  0
BLOCK
  5
142
330
140
100
AcDbEntity
  8
0
100
AcDbBlockBegin
  2
block 31
 70
     0
 10
0.0
 20
0.0
 30
0.0
  3
block 31
  1

  0
POLYLINE
  5
144
330
140
100
AcDbEntity
  8
_U+5207_U+65AD_U+30D1_U+30B9
 62
     1
420
 16711680
370
     9
100
AcDb2dPolyline
 66
     1
 10
0.0
 20
0.0
 30
0.0
  0
VERTEX
  5
145
330
144
100
AcDbEntity
  8
_U+5207_U+65AD_U+30D1_U+30B9
 62
     1
420
 16711680
370
     9
100
AcDbVertex
100
AcDb2dVertex
 10
84.68721879970713
 20
54.90848487326812
 30
0.0
  0
VERTEX
  5
146
330
144
100
AcDbEntity
  8
_U+5207_U+65AD_U+30D1_U+30B9
 62
     1
420
 16711680
370
     9
100
AcDbVertex
100
AcDb2dVertex
 10
84.68721879970713
 20
41.05750250301708
 30
0.0
  0
VERTEX
  5
147
330
144
100
AcDbEntity
  8
_U+5207_U+65AD_U+30D1_U+30B9
 62
     1
420
 16711680
370
     9
100
AcDbVertex
100
AcDb2dVertex
 10
98.53820116996329
 20
41.05750250301708
 30
0.0
  0
VERTEX
  5
148
330
144
100
AcDbEntity
  8
_U+5207_U+65AD_U+30D1_U+30B9
 62
     1
420
 16711680
370
     9
100
AcDbVertex
100
AcDb2dVertex
 10
98.53820116996329
 20
54.90848487326812
 30
0.0
  0
VERTEX
  5
149
330
144
100
AcDbEntity
  8
_U+5207_U+65AD_U+30D1_U+30B9
 62
     1
420
 16711680
370
     9
100
AcDbVertex
100
AcDb2dVertex
 10
84.68721879970713
 20
54.90848487326812
 30
0.0
  0
SEQEND
  5
14A
330
144
100
AcDbEntity
  8
_U+5207_U+65AD_U+30D1_U+30B9
 62
     1
420
 16711680
370
     9
  0
ENDBLK
  5
143
330
140
100
AcDbEntity
  8
0
100
AcDbBlockEnd
  0
BLOCK
  5
14D
330
14B
100
AcDbEntity
  8
0
100
AcDbBlockBegin
  2
block 32
 70
     0
 10
0.0
 20
0.0
 30
0.0
  3
block 32
  1

  0
POLYLINE
  5
14F
330
14B
100
AcDbEntity
  8
_U+5207_U+65AD_U+30D1_U+30B9
 62
     1
420
 16711680
370
     9
100
AcDb2dPolyline
 66
     1
 10
0.0
 20
0.0
 30
0.0
  0
VERTEX
  5
150
330
14F
100
AcDbEntity
  8
_U+5207_U+65AD_U+30D1_U+30B9
 62
     1
420
 16711680
370
     9
100
AcDbVertex
100
AcDb2dVertex
 10
103.6885664556553
 20
90.53601172817116
 30
0.0
  0
VERTEX
  5
151
330
14F
100
AcDbEntity
  8
_U+5207_U+65AD_U+30D1_U+30B9
 62
     1
420
 16711680
370
     9
100
AcDbVertex
100
AcDb2dVertex
 10
103.6885664556553
 20
76.68502935791884
 30
0.0
  0
VERTEX
  5
152
330
14F
100
AcDbEntity
  8
_U+5207_U+65AD_U+30D1_U+30B9
 62
     1
420
 16711680
370
     9
100
AcDbVertex
100
AcDb2dVertex
 10
117.5395488259128
 20
76.68502935791884
 30
0.0
  0
VERTEX
  5
153
330
14F
100
AcDbEntity
  8
_U+5207_U+65AD_U+30D1_U+30B9
 62
     1
420
 16711680
370
     9
100
AcDbVertex
100
AcDb2dVertex
 10
117.5395488259128
 20
90.53601172817116
 30
0.0
  0
VERTEX
  5
154
330
14F
100
AcDbEntity
  8
_U+5207_U+65AD_U+30D1_U+30B9
 62
     1
420
 16711680
370
     9
100
AcDbVertex
100
AcDb2dVertex
 10
103.6885664556553
 20
90.53601172817116
 30
0.0
  0
SEQEND
  5
155
330
14F
100
AcDbEntity
  8
_U+5207_U+65AD_U+30D1_U+30B9
 62
     1
420
 16711680
370
     9
  0
ENDBLK
  5
14E
330
14B
100
AcDbEntity
  8
0
100
AcDbBlockEnd
  0
BLOCK
  5
158
330
156
100
AcDbEntity
  8
0
100
AcDbBlockBegin
  2
block 33
 70
     0
 10
0.0
 20
0.0
 30
0.0
  3
block 33
  1

  0
POLYLINE
  5
15A
330
156
100
AcDbEntity
  8
_U+5207_U+65AD_U+30D1_U+30B9
 62
     1
420
 16711680
370
     9
100
AcDb2dPolyline
 66
     1
 10
0.0
 20
0.0
 30
0.0
  0
VERTEX
  5
15B
330
15A
100
AcDbEntity
  8
_U+5207_U+65AD_U+30D1_U+30B9
 62
     1
420
 16711680
370
     9
100
AcDbVertex
100
AcDb2dVertex
 10
103.6885664556553
 20
71.53466407222423
 30
0.0
  0
VERTEX
  5
15C
330
15A
100
AcDbEntity
  8
_U+5207_U+65AD_U+30D1_U+30B9
 62
     1
420
 16711680
370
     9
100
AcDbVertex
100
AcDb2dVertex
 10
103.6885664556553
 20
57.6836817019655
 30
0.0
  0
VERTEX
  5
15D
330
15A
100
AcDbEntity
  8
_U+5207_U+65AD_U+30D1_U+30B9
 62
     1
420
 16711680
370
     9
100
AcDbVertex
100
AcDb2dVertex
 10
117.5395488259128
 20
57.6836817019655
 30
0.0
  0
VERTEX
  5
15E
330
15A
100
AcDbEntity
  8
_U+5207_U+65AD_U+30D1_U+30B9
 62
     1
420
 16711680
370
     9
100
AcDbVertex
100
AcDb2dVertex
 10
117.5395488259128
 20
71.53466407222423
 30
0.0
  0
VERTEX
  5
15F
330
15A
100
AcDbEntity
  8
_U+5207_U+65AD_U+30D1_U+30B9
 62
     1
420
 16711680
370
     9
100
AcDbVertex
100
AcDb2dVertex
 10
103.6885664556553
 20
71.53466407222423
 30
0.0
  0
SEQEND
  5
160
330
15A
100
AcDbEntity
  8
_U+5207_U+65AD_U+30D1_U+30B9
 62
     1
420
 16711680
370
     9
  0
ENDBLK
  5
159
330
156
100
AcDbEntity
  8
0
100
AcDbBlockEnd
  0
BLOCK
  5
163
330
161
100
AcDbEntity
  8
0
100
AcDbBlockBegin
  2
block 34
 70
     0
 10
0.0
 20
0.0
 30
0.0
  3
block 34
  1

  0
POLYLINE
  5
165
330
161
100
AcDbEntity
  8
_U+5207_U+65AD_U+30D1_U+30B9
 62
     1
420
 16711680
370
     9
100
AcDb2dPolyline
 66
     1
 10
0.0
 20
0.0
 30
0.0
  0
VERTEX
  5
166
330
165
100
AcDbEntity
  8
_U+5207_U+65AD_U+30D1_U+30B9
 62
     1
420
 16711680
370
     9
100
AcDbVertex
100
AcDb2dVertex
 10
103.6885664556553
 20
52.53331641627732
 30
0.0
  0
VERTEX
  5
167
330
165
100
AcDbEntity
  8
_U+5207_U+65AD_U+30D1_U+30B9
 62
     1
420
 16711680
370
     9
100
AcDbVertex
100
AcDb2dVertex
 10
103.6885664556553
 20
38.68233404602628
 30
0.0
  0
VERTEX
  5
168
330
165
100
AcDbEntity
  8
_U+5207_U+65AD_U+30D1_U+30B9
 62
     1
420
 16711680
370
     9
100
AcDbVertex
100
AcDb2dVertex
 10
117.5395488259128
 20
38.68233404602628
 30
0.0
  0
VERTEX
  5
169
330
165
100
AcDbEntity
  8
_U+5207_U+65AD_U+30D1_U+30B9
 62
     1
420
 16711680
370
     9
100
AcDbVertex
100
AcDb2dVertex
 10
117.5395488259128
 20
52.53331641627732
 30
0.0
  0
VERTEX
  5
16A
330
165
100
AcDbEntity
  8
_U+5207_U+65AD_U+30D1_U+30B9
 62
     1
420
 16711680
370
     9
100
AcDbVertex
100
AcDb2dVertex
 10
103.6885664556553
 20
52.53331641627732
 30
0.0
  0
SEQEND
  5
16B
330
165
100
AcDbEntity
  8
_U+5207_U+65AD_U+30D1_U+30B9
 62
     1
420
 16711680
370
     9
  0
ENDBLK
  5
164
330
161
100
AcDbEntity
  8
0
100
AcDbBlockEnd
  0
BLOCK
  5
16E
330
16C
100
AcDbEntity
  8
0
100
AcDbBlockBegin
  2
block 35
 70
     0
 10
0.0
 20
0.0
 30
0.0
  3
block 35
  1

  0
POLYLINE
  5
170
330
16C
100
AcDbEntity
  8
_U+5207_U+65AD_U+30D1_U+30B9
 62
     1
420
 16711680
370
     9
100
AcDb2dPolyline
 66
     1
 10
0.0
 20
0.0
 30
0.0
  0
VERTEX
  5
171
330
170
100
AcDbEntity
  8
_U+5207_U+65AD_U+30D1_U+30B9
 62
     1
420
 16711680
370
     9
100
AcDbVertex
100
AcDb2dVertex
 10
75.18654497173623
 20
35.28209288654143
 30
0.0
  0
VERTEX
  5
172
330
170
100
AcDbEntity
  8
_U+5207_U+65AD_U+30D1_U+30B9
 62
     1
420
 16711680
370
     9
100
AcDbVertex
100
AcDb2dVertex
 10
75.18654497173623
 20
21.43111051628527
 30
0.0
  0
VERTEX
  5
173
330
170
100
AcDbEntity
  8
_U+5207_U+65AD_U+30D1_U+30B9
 62
     1
420
 16711680
370
     9
100
AcDbVertex
100
AcDb2dVertex
 10
89.03752734199111
 20
21.43111051628527
 30
0.0
  0
VERTEX
  5
174
330
170
100
AcDbEntity
  8
_U+5207_U+65AD_U+30D1_U+30B9
 62
     1
420
 16711680
370
     9
100
AcDbVertex
100
AcDb2dVertex
 10
89.03752734199111
 20
35.28209288654143
 30
0.0
  0
VERTEX
  5
175
330
170
100
AcDbEntity
  8
_U+5207_U+65AD_U+30D1_U+30B9
 62
     1
420
 16711680
370
     9
100
AcDbVertex
100
AcDb2dVertex
 10
75.18654497173623
 20
35.28209288654143
 30
0.0
  0
SEQEND
  5
176
330
170
100
AcDbEntity
  8
_U+5207_U+65AD_U+30D1_U+30B9
 62
     1
420
 16711680
370
     9
  0
ENDBLK
  5
16F
330
16C
100
AcDbEntity
  8
0
100
AcDbBlockEnd
  0
BLOCK
  5
179
330
177
100
AcDbEntity
  8
0
100
AcDbBlockBegin
  2
block 36
 70
     0
 10
0.0
 20
0.0
 30
0.0
  3
block 36
  1

  0
POLYLINE
  5
17B
330
177
100
AcDbEntity
  8
_U+5207_U+65AD_U+30D1_U+30B9
 62
     1
420
 16711680
370
     9
100
AcDb2dPolyline
 66
     1
 10
0.0
 20
0.0
 30
0.0
  0
VERTEX
  5
17C
330
17B
100
AcDbEntity
  8
_U+5207_U+65AD_U+30D1_U+30B9
 62
     1
420
 16711680
370
     9
100
AcDbVertex
100
AcDb2dVertex
 10
98.215688023706
 20
34.08255153583216
 30
0.0
  0
VERTEX
  5
17D
330
17B
100
AcDbEntity
  8
_U+5207_U+65AD_U+30D1_U+30B9
 62
     1
420
 16711680
370
     9
100
AcDbVertex
100
AcDb2dVertex
 10
94.64438474440352
 20
20.69989464310693
 30
0.0
  0
VERTEX
  5
17E
330
17B
100
AcDbEntity
  8
_U+5207_U+65AD_U+30D1_U+30B9
 62
     1
420
 16711680
370
     9
100
AcDbVertex
100
AcDb2dVertex
 10
108.0270416371262
 20
17.12859136380189
 30
0.0
  0
VERTEX
  5
17F
330
17B
100
AcDbEntity
  8
_U+5207_U+65AD_U+30D1_U+30B9
 62
     1
420
 16711680
370
     9
100
AcDbVertex
100
AcDb2dVertex
 10
111.5983449164274
 20
30.5112482565284
 30
0.0
  0
VERTEX
  5
180
330
17B
100
AcDbEntity
  8
_U+5207_U+65AD_U+30D1_U+30B9
 62
     1
420
 16711680
370
     9
100
AcDbVertex
100
AcDb2dVertex
 10
98.215688023706
 20
34.08255153583216
 30
0.0
  0
SEQEND
  5
181
330
17B
100
AcDbEntity
  8
_U+5207_U+65AD_U+30D1_U+30B9
 62
     1
420
 16711680
370
     9
  0
ENDBLK
  5
17A
330
177
100
AcDbEntity
  8
0
100
AcDbBlockEnd
  0
BLOCK
  5
184
330
182
100
AcDbEntity
  8
0
100
AcDbBlockBegin
  2
block 37
 70
     0
 10
0.0
 20
0.0
 30
0.0
  3
block 37
  1

  0
POLYLINE
  5
186
330
182
100
AcDbEntity
  8
_U+5207_U+65AD_U+30D1_U+30B9
 62
     1
420
 16711680
370
     9
100
AcDb2dPolyline
 66
     1
 10
0.0
 20
0.0
 30
0.0
  0
VERTEX
  5
187
330
186
100
AcDbEntity
  8
_U+5207_U+65AD_U+30D1_U+30B9
 62
     1
420
 16711680
370
     9
100
AcDbVertex
100
AcDb2dVertex
 10
122.8282799809616
 20
31.32091449409898
 30
0.0
  0
VERTEX
  5
188
330
186
100
AcDbEntity
  8
_U+5207_U+65AD_U+30D1_U+30B9
 62
     1
420
 16711680
370
     9
100
AcDbVertex
100
AcDb2dVertex
 10
115.910975332907
 20
19.32088911799711
 30
0.0
  0
VERTEX
  5
189
330
186
100
AcDbEntity
  8
_U+5207_U+65AD_U+30D1_U+30B9
 62
     1
420
 16711680
370
     9
100
AcDbVertex
100
AcDb2dVertex
 10
127.9110007090166
 20
12.40358446994512
 30
0.0
  0
VERTEX
  5
18A
330
186
100
AcDbEntity
  8
_U+5207_U+65AD_U+30D1_U+30B9
 62
     1
420
 16711680
370
     9
100
AcDbVertex
100
AcDb2dVertex
 10
134.8283053570686
 20
24.4036098460547
 30
0.0
  0
VERTEX
  5
18B
330
186
100
AcDbEntity
  8
_U+5207_U+65AD_U+30D1_U+30B9
 62
     1
420
 16711680
370
     9
100
AcDbVertex
100
AcDb2dVertex
 10
122.8282799809616
 20
31.32091449409898
 30
0.0
  0
SEQEND
  5
18C
330
186
100
AcDbEntity
  8
_U+5207_U+65AD_U+30D1_U+30B9
 62
     1
420
 16711680
370
     9
  0
ENDBLK
  5
185
330
182
100
AcDbEntity
  8
0
100
AcDbBlockEnd
  0
BLOCK
  5
18F
330
18D
100
AcDbEntity
  8
0
100
AcDbBlockBegin
  2
block 38
 70
     0
 10
0.0
 20
0.0
 30
0.0
  3
block 38
  1

  0
SPLINE
  5
191
330
18D
100
AcDbEntity
  8
_U+5207_U+65AD_U+30D1_U+30B9
 62
     1
420
 16711680
370
     9
100
AcDbSpline
210
0.0
220
0.0
230
1.0
 70
    11
 71
     3
 72
   128
 73
   124
 74
     0
 42
0.0000000001
 43
0.0000000001
 12
1.0
 22
0.0
 32
0.0
 13
1.0
 23
0.0
 33
0.0
 40
0.0
 40
0.0
 40
0.0
 40
0.0
 40
1.0
 40
1.0
 40
1.0
 40
2.0
 40
2.0
 40
2.0
 40
3.0
 40
3.0
 40
3.0
 40
4.0
 40
4.0
 40
4.0
 40
5.0
 40
5.0
 40
5.0
 40
6.0
 40
6.0
 40
6.0
 40
7.0
 40
7.0
 40
7.0
 40
8.0
 40
8.0
 40
8.0
 40
9.0
 40
9.0
 40
9.0
 40
10.0
 40
10.0
 40
10.0
 40
11.0
 40
11.0
 40
11.0
 40
12.0
 40
12.0
 40
12.0
 40
13.0
 40
13.0
 40
13.0
 40
14.0
 40
14.0
 40
14.0
 40
15.0
 40
15.0
 40
15.0
 40
16.0
 40
16.0
 40
16.0
 40
17.0
 40
17.0
 40
17.0
 40
18.0
 40
18.0
 40
18.0
 40
19.0
 40
19.0
 40
19.0
 40
20.0
 40
20.0
 40
20.0
 40
21.0
 40
21.0
 40
21.0
 40
22.0
 40
22.0
 40
22.0
 40
23.0
 40
23.0
 40
23.0
 40
24.0
 40
24.0
 40
24.0
 40
25.0
 40
25.0
 40
25.0
 40
26.0
 40
26.0
 40
26.0
 40
27.0
 40
27.0
 40
27.0
 40
28.0
 40
28.0
 40
28.0
 40
29.0
 40
29.0
 40
29.0
 40
30.0
 40
30.0
 40
30.0
 40
31.0
 40
31.0
 40
31.0
 40
32.0
 40
32.0
 40
32.0
 40
33.0
 40
33.0
 40
33.0
 40
34.0
 40
34.0
 40
34.0
 40
35.0
 40
35.0
 40
35.0
 40
36.0
 40
36.0
 40
36.0
 40
37.0
 40
37.0
 40
37.0
 40
38.0
 40
38.0
 40
38.0
 40
39.0
 40
39.0
 40
39.0
 40
40.0
 40
40.0
 40
40.0
 40
41.0
 40
41.0
 40
41.0
 40
41.0
 10
87.71656061344379
 20
-71.02175743402084
 30
0.0
 10
87.81033545358231
 20
-70.92798259389323
 30
0.0
 10
87.93752143059952
 20
-70.87530043727814
 30
0.0
 10
88.07013908132694
 20
-70.87530043728393
 30
0.0
 10
88.07013908132694
 20
-70.87530043728393
 30
0.0
 10
124.0726925346981
 20
-70.87530043890035
 30
0.0
 10
124.0726925346981
 20
-70.87530043890035
 30
0.0
 10
124.0726925346981
 20
-70.87530043890035
 30
0.0
 10
126.0728343932169
 20
-70.8753004389902
 30
0.0
 10
126.0728343932169
 20
-70.8753004389902
 30
0.0
 10
126.0728343932169
 20
-70.8753004389902
 30
0.0
 10
143.0740401906424
 20
-70.87530043975318
 30
0.0
 10
143.0740401906424
 20
-70.87530043975318
 30
0.0
 10
143.3502021521323
 20
-70.87530043976601
 30
0.0
 10
143.5740756552837
 20
-70.65142693662932
 30
0.0
 10
143.5740756552953
 20
-70.37526497514592
 30
0.0
 10
143.5740756552953
 20
-70.37526497514592
 30
0.0
 10
143.5740756577761
 20
-15.12134613351235
 30
0.0
 10
143.5740756577761
 20
-15.12134613351235
 30
0.0
 10
143.5740756577889
 20
-14.84518417202255
 30
0.0
 10
143.350202154658
 20
-14.62131066887045
 30
0.0
 10
143.0740401931682
 20
-14.62131066885761
 30
0.0
 10
143.0740401931682
 20
-14.62131066885761
 30
0.0
 10
126.0728343957427
 20
-14.62131066809463
 30
0.0
 10
126.0728343957427
 20
-14.62131066809463
 30
0.0
 10
126.0728343957427
 20
-14.62131066809463
 30
0.0
 10
124.0726925372238
 20
-14.6213106680048
 30
0.0
 10
124.0726925372238
 20
-14.6213106680048
 30
0.0
 10
124.0726925372238
 20
-14.6213106680048
 30
0.0
 10
106.071415810535
 20
-14.6213106671969
 30
0.0
 10
106.071415810535
 20
-14.6213106671969
 30
0.0
 10
105.7952538490491
 20
-14.62131066718406
 30
0.0
 10
105.5713803459182
 20
-14.39743716403582
 30
0.0
 10
105.571380345931
 20
-14.12127520254216
 30
0.0
 10
105.571380345931
 20
-14.12127520254216
 30
0.0
 10
105.5713803460991
 20
-10.37100921781742
 30
0.0
 10
105.5713803460991
 20
-10.37100921781742
 30
0.0
 10
105.571380346112
 20
-10.09484725633018
 30
0.0
 10
105.3475068429823
 20
-9.870973753174873
 30
0.0
 10
105.0713448814899
 20
-9.87097375316268
 30
0.0
 10
105.0713448814899
 20
-9.87097375316268
 30
0.0
 10
87.0700681548063
 20
-9.87097375235414
 30
0.0
 10
87.0700681548063
 20
-9.87097375235414
 30
0.0
 10
86.79390619331521
 20
-9.870973752341948
 30
0.0
 10
86.57003269018429
 20
-9.647100249196908
 30
0.0
 10
86.57003269019712
 20
-9.37093828770582
 30
0.0
 10
86.57003269019712
 20
-9.37093828770582
 30
0.0
 10
86.5700326902536
 20
-8.120849626125773
 30
0.0
 10
86.5700326902536
 20
-8.120849626125773
 30
0.0
 10
86.57003269026514
 20
-7.844687664638536
 30
0.0
 10
86.3461591871355
 20
-7.620814161490288
 30
0.0
 10
86.06999722564571
 20
-7.620814161477454
 30
0.0
 10
86.06999722564571
 20
-7.620814161477454
 30
0.0
 10
69.06879142822018
 20
-7.620814160714474
 30
0.0
 10
69.06879142822018
 20
-7.620814160714474
 30
0.0
 10
68.7926294667291
 20
-7.62081416070164
 30
0.0
 10
68.56875596357764
 20
-7.844687663830637
 30
0.0
 10
68.56875596356609
 20
-8.120849625317874
 30
0.0
 10
68.56875596356609
 20
-8.120849625317874
 30
0.0
 10
68.56875596350962
 20
-9.370938286897923
 30
0.0
 10
68.56875596350962
 20
-9.370938286897923
 30
0.0
 10
68.56875596349678
 20
-9.647100248389009
 30
0.0
 10
68.34488246034918
 20
-9.870973751513514
 30
0.0
 10
68.06872049885938
 20
-9.870973751501323
 30
0.0
 10
68.06872049885938
 20
-9.870973751501323
 30
0.0
 10
50.06744377217251
 20
-9.870973750692782
 30
0.0
 10
50.06744377217251
 20
-9.870973750692782
 30
0.0
 10
49.79128181068143
 20
-9.870973750680589
 30
0.0
 10
49.56740830753029
 20
-10.09484725381536
 30
0.0
 10
49.56740830751809
 20
-10.3710092153026
 30
0.0
 10
49.56740830751809
 20
-10.3710092153026
 30
0.0
 10
49.56740830745072
 20
-11.87111560919173
 30
0.0
 10
49.56740830745072
 20
-11.87111560919173
 30
0.0
 10
49.56740830744173
 20
-12.14727757068666
 30
0.0
 10
49.34353480428931
 20
-12.37115107381181
 30
0.0
 10
49.06737284279951
 20
-12.37115107379898
 30
0.0
 10
49.06737284279951
 20
-12.37115107379898
 30
0.0
 10
31.06609611611458
 20
-12.37115107299108
 30
0.0
 10
31.06609611611458
 20
-12.37115107299108
 30
0.0
 10
30.78993415462605
 20
-12.37115107297888
 30
0.0
 10
30.5660606514746
 20
-12.59502457611366
 30
0.0
 10
30.5660606514624
 20
-12.87118653760089
 30
0.0
 10
30.5660606514624
 20
-12.87118653760089
 30
0.0
 10
30.5660606514069
 20
-14.10578037569755
 30
0.0
 10
30.5660606514069
 20
-14.10578037569755
 30
0.0
 10
30.53764403642437
 20
-14.37390239655135
 30
0.0
 10
30.33182140115098
 20
-14.5890480564125
 30
0.0
 10
30.06522031131436
 20
-14.6293069805787
 30
0.0
 10
30.06522031131436
 20
-14.6293069805787
 30
0.0
 10
10.31381945842479
 20
-14.62930697969187
 30
0.0
 10
10.31381945842479
 20
-14.62930697969187
 30
0.0
 10
10.03765749693756
 20
-14.62930697967968
 30
0.0
 10
9.8137839937861
 20
-14.85318048281189
 30
0.0
 10
9.813783993773907
 20
-15.12934244430297
 30
0.0
 10
9.813783993773907
 20
-15.12934244430297
 30
0.0
 10
9.813729017862041
 20
-74.09012360353799
 30
0.0
 10
9.813729017862041
 20
-74.09012360353799
 30
0.0
 10
9.857048040936569
 20
-74.90343547859176
 30
0.0
 10
10.10265733378739
 20
-75.69307811358543
 30
0.0
 10
10.52829370624393
 20
-76.38747455820246
 30
0.0
 10
10.52829370624393
 20
-76.38747455820246
 30
0.0
 10
23.76557832860658
 20
-99.42732546477629
 30
0.0
 10
23.76557832860658
 20
-99.42732546477629
 30
0.0
 10
23.77032308428581
 20
-99.4344770517735
 30
0.0
 10
23.7751731509488
 20
-99.44155820856837
 30
0.0
 10
23.78012694347315
 20
-99.44856662085148
 30
0.0
 10
24.05813422562446
 20
-99.8418793485737
 30
0.0
 10
24.60234662015382
 20
-99.93535288089569
 30
0.0
 10
24.99565934788084
 20
-99.6573455987415
 30
0.0
 10
24.99565934788084
 20
-99.6573455987415
 30
0.0
 10
39.74532855060951
 20
-91.167821273769
 30
0.0
 10
39.74532855060951
 20
-91.167821273769
 30
0.0
 10
39.83656167192569
 20
-91.13610227974785
 30
0.0
 10
39.93026322425573
 20
-91.11198765710171
 30
0.0
 10
40.02547393567288
 20
-91.09572427987756
 30
0.0
 10
40.02547393567288
 20
-91.09572427987756
 30
0.0
 10
76.81934112648406
 20
-85.62634664336368
 30
0.0
 10
76.81934112648406
 20
-85.62634664336368
 30
0.0
 10
76.94858849042015
 20
-85.61322614180247
 30
0.0
 10
77.07072878581256
 20
-85.56088030092579
 30
0.0
 10
77.16936595173422
 20
-85.47633600399054
 30
0.0
 10
77.16936595173422
 20
-85.47633600399054
 30
0.0
 10
87.72011425607806
 20
-71.01708361760734
 30
0.0
 10
87.71656061344379
 20
-71.02175743402084
 30
0.0
  0
ENDBLK
  5
190
330
18D
100
AcDbEntity
  8
0
100
AcDbBlockEnd
  0
BLOCK
  5
194
330
192
100
AcDbEntity
  8
0
100
AcDbBlockBegin
  2
block 39
 70
     0
 10
0.0
 20
0.0
 30
0.0
  3
block 39
  1

  0
SPLINE
  5
196
330
192
100
AcDbEntity
  8
_U+5207_U+65AD_U+30D1_U+30B9
 62
     1
420
 16711680
370
     9
100
AcDbSpline
210
0.0
220
0.0
230
1.0
 70
    11
 71
     3
 72
    20
 73
    16
 74
     0
 42
0.0000000001
 43
0.0000000001
 12
1.0
 22
0.0
 32
0.0
 13
1.0
 23
0.0
 33
0.0
 40
0.0
 40
0.0
 40
0.0
 40
0.0
 40
1.0
 40
1.0
 40
1.0
 40
2.0
 40
2.0
 40
2.0
 40
3.0
 40
3.0
 40
3.0
 40
4.0
 40
4.0
 40
4.0
 40
5.0
 40
5.0
 40
5.0
 40
5.0
 10
82.92644071801524
 20
-69.37091900295323
 30
0.0
 10
82.92644071804219
 20
-68.7633626876736
 30
0.0
 10
82.43391901115724
 20
-68.27084098073861
 30
0.0
 10
81.82636269587762
 20
-68.27084098071101
 30
0.0
 10
81.21880638060185
 20
-68.27084098068406
 30
0.0
 10
80.72628467366813
 20
-68.76336268757478
 30
0.0
 10
80.72628467364117
 20
-69.37091900285441
 30
0.0
 10
80.72628467361423
 20
-69.97847531813274
 30
0.0
 10
81.21880638050303
 20
-70.47099702505683
 30
0.0
 10
81.8263626957788
 20
-70.47099702508379
 30
0.0
 10
82.43391901105842
 20
-70.47099702511137
 30
0.0
 10
82.92644071798829
 20
-69.97847531823156
 30
0.0
 10
82.92644071801524
 20
-69.37091900295323
 30
0.0
 10
82.92644071801524
 20
-69.37091900295323
 30
0.0
 10
82.92644071801524
 20
-69.37091900295323
 30
0.0
 10
82.92644071801524
 20
-69.37091900295323
 30
0.0
  0
ENDBLK
  5
195
330
192
100
AcDbEntity
  8
0
100
AcDbBlockEnd
  0
BLOCK
  5
199
330
197
100
AcDbEntity
  8
0
100
AcDbBlockBegin
  2
block 40
 70
     0
 10
0.0
 20
0.0
 30
0.0
  3
block 40
  1

  0
SPLINE
  5
19B
330
197
100
AcDbEntity
  8
_U+5207_U+65AD_U+30D1_U+30B9
 62
     1
420
 16711680
370
     9
100
AcDbSpline
210
0.0
220
0.0
230
1.0
 70
    11
 71
     3
 72
    20
 73
    16
 74
     0
 42
0.0000000001
 43
0.0000000001
 12
1.0
 22
0.0
 32
0.0
 13
1.0
 23
0.0
 33
0.0
 40
0.0
 40
0.0
 40
0.0
 40
0.0
 40
1.0
 40
1.0
 40
1.0
 40
2.0
 40
2.0
 40
2.0
 40
3.0
 40
3.0
 40
3.0
 40
4.0
 40
4.0
 40
4.0
 40
5.0
 40
5.0
 40
5.0
 40
5.0
 10
50.14815967933228
 20
-29.62364570298959
 30
0.0
 10
50.14815967935956
 20
-29.01608938770997
 30
0.0
 10
49.65563797247332
 20
-28.52356768078588
 30
0.0
 10
49.04808165719403
 20
-28.52356768075893
 30
0.0
 10
48.44052534191793
 20
-28.52356768073133
 30
0.0
 10
47.94800363498806
 20
-29.01608938761115
 30
0.0
 10
47.94800363496079
 20
-29.62364570289077
 30
0.0
 10
47.94800363493384
 20
-30.23120201816911
 30
0.0
 10
48.44052534181943
 20
-30.72372372510411
 30
0.0
 10
49.0480816570952
 20
-30.7237237251317
 30
0.0
 10
49.65563797237483
 20
-30.72372372515865
 30
0.0
 10
50.14815967930533
 20
-30.23120201826793
 30
0.0
 10
50.14815967933228
 20
-29.62364570298959
 30
0.0
 10
50.14815967933228
 20
-29.62364570298959
 30
0.0
 10
50.14815967933228
 20
-29.62364570298959
 30
0.0
 10
50.14815967933228
 20
-29.62364570298959
 30
0.0
  0
ENDBLK
  5
19A
330
197
100
AcDbEntity
  8
0
100
AcDbBlockEnd
  0
BLOCK
  5
19E
330
19C
100
AcDbEntity
  8
0
100
AcDbBlockBegin
  2
block 41
 70
     0
 10
0.0
 20
0.0
 30
0.0
  3
block 41
  1

  0
SPLINE
  5
1A0
330
19C
100
AcDbEntity
  8
_U+5207_U+65AD_U+30D1_U+30B9
 62
     1
420
 16711680
370
     9
100
AcDbSpline
210
0.0
220
0.0
230
1.0
 70
    11
 71
     3
 72
    20
 73
    16
 74
     0
 42
0.0000000001
 43
0.0000000001
 12
1.0
 22
0.0
 32
0.0
 13
1.0
 23
0.0
 33
0.0
 40
0.0
 40
0.0
 40
0.0
 40
0.0
 40
1.0
 40
1.0
 40
1.0
 40
2.0
 40
2.0
 40
2.0
 40
3.0
 40
3.0
 40
3.0
 40
4.0
 40
4.0
 40
4.0
 40
5.0
 40
5.0
 40
5.0
 40
5.0
 10
126.1699820864386
 20
-33.24604442537935
 30
0.0
 10
126.1699820864655
 20
-32.63848811010358
 30
0.0
 10
125.6774603795767
 20
-32.14596640316794
 30
0.0
 10
125.069904064301
 20
-32.14596640314098
 30
0.0
 10
124.4623477490213
 20
-32.14596640311339
 30
0.0
 10
123.9698260420915
 20
-32.63848811000476
 30
0.0
 10
123.9698260420645
 20
-33.24604442528053
 30
0.0
 10
123.9698260420376
 20
-33.85360074055502
 30
0.0
 10
124.4623477489225
 20
-34.34612244748617
 30
0.0
 10
125.0699040642021
 20
-34.34612244751376
 30
0.0
 10
125.6774603794779
 20
-34.34612244754071
 30
0.0
 10
126.1699820864116
 20
-33.85360074065384
 30
0.0
 10
126.1699820864386
 20
-33.24604442537935
 30
0.0
 10
126.1699820864386
 20
-33.24604442537935
 30
0.0
 10
126.1699820864386
 20
-33.24604442537935
 30
0.0
 10
126.1699820864386
 20
-33.24604442537935
 30
0.0
  0
ENDBLK
  5
19F
330
19C
100
AcDbEntity
  8
0
100
AcDbBlockEnd
  0
BLOCK
  5
1A3
330
1A1
100
AcDbEntity
  8
0
100
AcDbBlockBegin
  2
block 42
 70
     0
 10
0.0
 20
0.0
 30
0.0
  3
block 42
  1

  0
SPLINE
  5
1A5
330
1A1
100
AcDbEntity
  8
_U+5207_U+65AD_U+30D1_U+30B9
 62
     1
420
 16711680
370
     9
100
AcDbSpline
210
0.0
220
0.0
230
1.0
 70
    11
 71
     3
 72
    20
 73
    16
 74
     0
 42
0.0000000001
 43
0.0000000001
 12
1.0
 22
0.0
 32
0.0
 13
1.0
 23
0.0
 33
0.0
 40
0.0
 40
0.0
 40
0.0
 40
0.0
 40
1.0
 40
1.0
 40
1.0
 40
2.0
 40
2.0
 40
2.0
 40
3.0
 40
3.0
 40
3.0
 40
4.0
 40
4.0
 40
4.0
 40
5.0
 40
5.0
 40
5.0
 40
5.0
 10
126.1787774946167
 20
-52.26119004662693
 30
0.0
 10
126.1787774946436
 20
-51.65363373134859
 30
0.0
 10
125.6862557877574
 20
-51.16111202441744
 30
0.0
 10
125.0786994724778
 20
-51.16111202438984
 30
0.0
 10
124.4711431572033
 20
-51.16111202436289
 30
0.0
 10
123.9786214502696
 20
-51.65363373124977
 30
0.0
 10
123.9786214502426
 20
-52.26119004652811
 30
0.0
 10
123.9786214502144
 20
-52.86874636180772
 30
0.0
 10
124.4711431571044
 20
-53.36126806873567
 30
0.0
 10
125.0786994723789
 20
-53.36126806876262
 30
0.0
 10
125.6862557876586
 20
-53.36126806879021
 30
0.0
 10
126.1787774945884
 20
-52.86874636190655
 30
0.0
 10
126.1787774946167
 20
-52.26119004662693
 30
0.0
 10
126.1787774946167
 20
-52.26119004662693
 30
0.0
 10
126.1787774946167
 20
-52.26119004662693
 30
0.0
 10
126.1787774946167
 20
-52.26119004662693
 30
0.0
  0
ENDBLK
  5
1A4
330
1A1
100
AcDbEntity
  8
0
100
AcDbBlockEnd
  0
BLOCK
  5
1A8
330
1A6
100
AcDbEntity
  8
0
100
AcDbBlockBegin
  2
block 43
 70
     0
 10
0.0
 20
0.0
 30
0.0
  3
block 43
  1

  0
SPLINE
  5
1AA
330
1A6
100
AcDbEntity
  8
_U+5207_U+65AD_U+30D1_U+30B9
 62
     1
420
 16711680
370
     9
100
AcDbSpline
210
0.0
220
0.0
230
1.0
 70
    11
 71
     3
 72
    20
 73
    16
 74
     0
 42
0.0000000001
 43
0.0000000001
 12
1.0
 22
0.0
 32
0.0
 13
1.0
 23
0.0
 33
0.0
 40
0.0
 40
0.0
 40
0.0
 40
0.0
 40
1.0
 40
1.0
 40
1.0
 40
2.0
 40
2.0
 40
2.0
 40
3.0
 40
3.0
 40
3.0
 40
4.0
 40
4.0
 40
4.0
 40
5.0
 40
5.0
 40
5.0
 40
5.0
 10
36.4064618688098
 20
-77.1254286253265
 30
0.0
 10
36.40646186883707
 20
-76.5178723100469
 30
0.0
 10
35.91394016195245
 20
-76.02535060311189
 30
0.0
 10
35.30638384667282
 20
-76.02535060308495
 30
0.0
 10
34.69882753139577
 20
-76.02535060305735
 30
0.0
 10
34.2063058244643
 20
-76.51787230994871
 30
0.0
 10
34.20630582443702
 20
-77.12542862522834
 30
0.0
 10
34.20630582440975
 20
-77.73298494049897
 30
0.0
 10
34.69882753129695
 20
-78.2255066474314
 30
0.0
 10
35.306383846574
 20
-78.225506647459
 30
0.0
 10
35.9139401618533
 20
-78.22550664748594
 30
0.0
 10
36.40646186878285
 20
-77.73298494059715
 30
0.0
 10
36.4064618688098
 20
-77.1254286253265
 30
0.0
 10
36.4064618688098
 20
-77.1254286253265
 30
0.0
 10
36.4064618688098
 20
-77.1254286253265
 30
0.0
 10
36.4064618688098
 20
-77.1254286253265
 30
0.0
  0
ENDBLK
  5
1A9
330
1A6
100
AcDbEntity
  8
0
100
AcDbBlockEnd
  0
BLOCK
  5
1AD
330
1AB
100
AcDbEntity
  8
0
100
AcDbBlockBegin
  2
block 44
 70
     0
 10
0.0
 20
0.0
 30
0.0
  3
block 44
  1

  0
INSERT
  5
1B0
330
1AB
100
AcDbEntity
  8
_U+5207_U+65AD_U+30D1_U+30B9
100
AcDbBlockReference
  2
block 45
 10
0.0
 20
0.0
 30
0.0
  0
INSERT
  5
1B5
330
1AB
100
AcDbEntity
  8
_U+5207_U+65AD_U+30D1_U+30B9
100
AcDbBlockReference
  2
block 46
 10
0.0
 20
0.0
 30
0.0
  0
INSERT
  5
1BA
330
1AB
100
AcDbEntity
  8
_U+5207_U+65AD_U+30D1_U+30B9
100
AcDbBlockReference
  2
block 47
 10
0.0
 20
0.0
 30
0.0
  0
INSERT
  5
1BF
330
1AB
100
AcDbEntity
  8
_U+5207_U+65AD_U+30D1_U+30B9
100
AcDbBlockReference
  2
block 48
 10
0.0
 20
0.0
 30
0.0
  0
INSERT
  5
1C4
330
1AB
100
AcDbEntity
  8
_U+5207_U+65AD_U+30D1_U+30B9
100
AcDbBlockReference
  2
block 49
 10
0.0
 20
0.0
 30
0.0
  0
INSERT
  5
1C9
330
1AB
100
AcDbEntity
  8
_U+5207_U+65AD_U+30D1_U+30B9
100
AcDbBlockReference
  2
block 50
 10
0.0
 20
0.0
 30
0.0
  0
INSERT
  5
1CE
330
1AB
100
AcDbEntity
  8
_U+5207_U+65AD_U+30D1_U+30B9
100
AcDbBlockReference
  2
block 51
 10
0.0
 20
0.0
 30
0.0
  0
INSERT
  5
1D9
330
1AB
100
AcDbEntity
  8
_U+5207_U+65AD_U+30D1_U+30B9
100
AcDbBlockReference
  2
block 52
 10
0.0
 20
0.0
 30
0.0
  0
INSERT
  5
1E4
330
1AB
100
AcDbEntity
  8
_U+5207_U+65AD_U+30D1_U+30B9
100
AcDbBlockReference
  2
block 53
 10
0.0
 20
0.0
 30
0.0
  0
INSERT
  5
1EF
330
1AB
100
AcDbEntity
  8
_U+5207_U+65AD_U+30D1_U+30B9
100
AcDbBlockReference
  2
block 54
 10
0.0
 20
0.0
 30
0.0
  0
INSERT
  5
1FA
330
1AB
100
AcDbEntity
  8
_U+5207_U+65AD_U+30D1_U+30B9
100
AcDbBlockReference
  2
block 55
 10
0.0
 20
0.0
 30
0.0
  0
INSERT
  5
205
330
1AB
100
AcDbEntity
  8
_U+5207_U+65AD_U+30D1_U+30B9
100
AcDbBlockReference
  2
block 56
 10
0.0
 20
0.0
 30
0.0
  0
INSERT
  5
210
330
1AB
100
AcDbEntity
  8
_U+5207_U+65AD_U+30D1_U+30B9
100
AcDbBlockReference
  2
block 57
 10
0.0
 20
0.0
 30
0.0
  0
INSERT
  5
21B
330
1AB
100
AcDbEntity
  8
_U+5207_U+65AD_U+30D1_U+30B9
100
AcDbBlockReference
  2
block 58
 10
0.0
 20
0.0
 30
0.0
  0
INSERT
  5
226
330
1AB
100
AcDbEntity
  8
_U+5207_U+65AD_U+30D1_U+30B9
100
AcDbBlockReference
  2
block 59
 10
0.0
 20
0.0
 30
0.0
  0
INSERT
  5
231
330
1AB
100
AcDbEntity
  8
_U+5207_U+65AD_U+30D1_U+30B9
100
AcDbBlockReference
  2
block 60
 10
0.0
 20
0.0
 30
0.0
  0
INSERT
  5
23C
330
1AB
100
AcDbEntity
  8
_U+5207_U+65AD_U+30D1_U+30B9
100
AcDbBlockReference
  2
block 61
 10
0.0
 20
0.0
 30
0.0
  0
INSERT
  5
247
330
1AB
100
AcDbEntity
  8
_U+5207_U+65AD_U+30D1_U+30B9
100
AcDbBlockReference
  2
block 62
 10
0.0
 20
0.0
 30
0.0
  0
INSERT
  5
252
330
1AB
100
AcDbEntity
  8
_U+5207_U+65AD_U+30D1_U+30B9
100
AcDbBlockReference
  2
block 63
 10
0.0
 20
0.0
 30
0.0
  0
INSERT
  5
25D
330
1AB
100
AcDbEntity
  8
_U+5207_U+65AD_U+30D1_U+30B9
100
AcDbBlockReference
  2
block 64
 10
0.0
 20
0.0
 30
0.0
  0
INSERT
  5
268
330
1AB
100
AcDbEntity
  8
_U+5207_U+65AD_U+30D1_U+30B9
100
AcDbBlockReference
  2
block 65
 10
0.0
 20
0.0
 30
0.0
  0
INSERT
  5
273
330
1AB
100
AcDbEntity
  8
_U+5207_U+65AD_U+30D1_U+30B9
100
AcDbBlockReference
  2
block 66
 10
0.0
 20
0.0
 30
0.0
  0
INSERT
  5
27E
330
1AB
100
AcDbEntity
  8
_U+5207_U+65AD_U+30D1_U+30B9
100
AcDbBlockReference
  2
block 67
 10
0.0
 20
0.0
 30
0.0
  0
INSERT
  5
289
330
1AB
100
AcDbEntity
  8
_U+5207_U+65AD_U+30D1_U+30B9
100
AcDbBlockReference
  2
block 68
 10
0.0
 20
0.0
 30
0.0
  0
INSERT
  5
294
330
1AB
100
AcDbEntity
  8
_U+5207_U+65AD_U+30D1_U+30B9
100
AcDbBlockReference
  2
block 69
 10
0.0
 20
0.0
 30
0.0
  0
INSERT
  5
29F
330
1AB
100
AcDbEntity
  8
_U+5207_U+65AD_U+30D1_U+30B9
100
AcDbBlockReference
  2
block 70
 10
0.0
 20
0.0
 30
0.0
  0
INSERT
  5
2AA
330
1AB
100
AcDbEntity
  8
_U+5207_U+65AD_U+30D1_U+30B9
100
AcDbBlockReference
  2
block 71
 10
0.0
 20
0.0
 30
0.0
  0
ENDBLK
  5
1AE
330
1AB
100
AcDbEntity
  8
0
100
AcDbBlockEnd
  0
BLOCK
  5
1B1
330
1AF
100
AcDbEntity
  8
0
100
AcDbBlockBegin
  2
block 45
 70
     0
 10
0.0
 20
0.0
 30
0.0
  3
block 45
  1

  0
SPLINE
  5
1B3
330
1AF
100
AcDbEntity
  8
_U+5207_U+65AD_U+30D1_U+30B9
 62
     1
420
 16711680
370
     9
100
AcDbSpline
210
0.0
220
0.0
230
1.0
 70
    11
 71
     3
 72
   128
 73
   124
 74
     0
 42
0.0000000001
 43
0.0000000001
 12
1.0
 22
0.0
 32
0.0
 13
1.0
 23
0.0
 33
0.0
 40
0.0
 40
0.0
 40
0.0
 40
0.0
 40
1.0
 40
1.0
 40
1.0
 40
2.0
 40
2.0
 40
2.0
 40
3.0
 40
3.0
 40
3.0
 40
4.0
 40
4.0
 40
4.0
 40
5.0
 40
5.0
 40
5.0
 40
6.0
 40
6.0
 40
6.0
 40
7.0
 40
7.0
 40
7.0
 40
8.0
 40
8.0
 40
8.0
 40
9.0
 40
9.0
 40
9.0
 40
10.0
 40
10.0
 40
10.0
 40
11.0
 40
11.0
 40
11.0
 40
12.0
 40
12.0
 40
12.0
 40
13.0
 40
13.0
 40
13.0
 40
14.0
 40
14.0
 40
14.0
 40
15.0
 40
15.0
 40
15.0
 40
16.0
 40
16.0
 40
16.0
 40
17.0
 40
17.0
 40
17.0
 40
18.0
 40
18.0
 40
18.0
 40
19.0
 40
19.0
 40
19.0
 40
20.0
 40
20.0
 40
20.0
 40
21.0
 40
21.0
 40
21.0
 40
22.0
 40
22.0
 40
22.0
 40
23.0
 40
23.0
 40
23.0
 40
24.0
 40
24.0
 40
24.0
 40
25.0
 40
25.0
 40
25.0
 40
26.0
 40
26.0
 40
26.0
 40
27.0
 40
27.0
 40
27.0
 40
28.0
 40
28.0
 40
28.0
 40
29.0
 40
29.0
 40
29.0
 40
30.0
 40
30.0
 40
30.0
 40
31.0
 40
31.0
 40
31.0
 40
32.0
 40
32.0
 40
32.0
 40
33.0
 40
33.0
 40
33.0
 40
34.0
 40
34.0
 40
34.0
 40
35.0
 40
35.0
 40
35.0
 40
36.0
 40
36.0
 40
36.0
 40
37.0
 40
37.0
 40
37.0
 40
38.0
 40
38.0
 40
38.0
 40
39.0
 40
39.0
 40
39.0
 40
40.0
 40
40.0
 40
40.0
 40
41.0
 40
41.0
 40
41.0
 40
41.0
 10
-62.19662200095449
 20
-72.08009076027861
 30
0.0
 10
-62.10284716081918
 20
-71.98631592015356
 30
0.0
 10
-61.97566118380196
 20
-71.93363376353847
 30
0.0
 10
-61.84304353307454
 20
-71.93363376354425
 30
0.0
 10
-61.84304353307454
 20
-71.93363376354425
 30
0.0
 10
-25.84049007970723
 20
-71.93363376516068
 30
0.0
 10
-25.84049007970723
 20
-71.93363376516068
 30
0.0
 10
-25.84049007970723
 20
-71.93363376516068
 30
0.0
 10
-23.84034822118711
 20
-71.93363376525052
 30
0.0
 10
-23.84034822118711
 20
-71.93363376525052
 30
0.0
 10
-23.84034822118711
 20
-71.93363376525052
 30
0.0
 10
-6.839142423759027
 20
-71.9336337660135
 30
0.0
 10
-6.839142423759027
 20
-71.9336337660135
 30
0.0
 10
-6.562980462269222
 20
-71.93363376602633
 30
0.0
 10
-6.339106959117767
 20
-71.70976026288965
 30
0.0
 10
-6.339106959105574
 20
-71.4335983014024
 30
0.0
 10
-6.339106959105574
 20
-71.4335983014024
 30
0.0
 10
-6.339106956624765
 20
-16.17967945976882
 30
0.0
 10
-6.339106956624765
 20
-16.17967945976882
 30
0.0
 10
-6.339106956612253
 20
-15.90351749827517
 30
0.0
 10
-6.562980459743495
 20
-15.67964399513077
 30
0.0
 10
-6.839142421233299
 20
-15.67964399511794
 30
0.0
 10
-6.839142421233299
 20
-15.67964399511794
 30
0.0
 10
-23.84034821865625
 20
-15.67964399435496
 30
0.0
 10
-23.84034821865625
 20
-15.67964399435496
 30
0.0
 10
-23.84034821865625
 20
-15.67964399435496
 30
0.0
 10
-25.84049007718151
 20
-15.67964399426512
 30
0.0
 10
-25.84049007718151
 20
-15.67964399426512
 30
0.0
 10
-25.84049007718151
 20
-15.67964399426512
 30
0.0
 10
-43.84176680386259
 20
-15.67964399345658
 30
0.0
 10
-43.84176680386259
 20
-15.67964399345658
 30
0.0
 10
-44.11792876535657
 20
-15.67964399344439
 30
0.0
 10
-44.34180226848493
 20
-15.4557704902878
 30
0.0
 10
-44.34180226847209
 20
-15.17960852880184
 30
0.0
 10
-44.34180226847209
 20
-15.17960852880184
 30
0.0
 10
-44.34180226830397
 20
-11.4293425440771
 30
0.0
 10
-44.34180226830397
 20
-11.4293425440771
 30
0.0
 10
-44.34180226829177
 20
-11.15318058258601
 30
0.0
 10
-44.5656757714227
 20
-10.92930707943135
 30
0.0
 10
-44.84183773291378
 20
-10.92930707941915
 30
0.0
 10
-44.84183773291378
 20
-10.92930707941915
 30
0.0
 10
-62.84311445959904
 20
-10.92930707861061
 30
0.0
 10
-62.84311445959904
 20
-10.92930707861061
 30
0.0
 10
-63.11927642108756
 20
-10.92930707859842
 30
0.0
 10
-63.34314992422041
 20
-10.70543357545338
 30
0.0
 10
-63.34314992420757
 20
-10.42927161396358
 30
0.0
 10
-63.34314992420757
 20
-10.42927161396358
 30
0.0
 10
-63.34314992415175
 20
-9.179182952386096
 30
0.0
 10
-63.34314992415175
 20
-9.179182952386096
 30
0.0
 10
-63.34314992413891
 20
-8.903020990895008
 30
0.0
 10
-63.56702342726823
 20
-8.679147487749969
 30
0.0
 10
-63.84318538875386
 20
-8.679147487737778
 30
0.0
 10
-63.84318538875386
 20
-8.679147487737778
 30
0.0
 10
-80.8443911861858
 20
-8.679147486974797
 30
0.0
 10
-80.8443911861858
 20
-8.679147486974797
 30
0.0
 10
-81.12055314767304
 20
-8.679147486961963
 30
0.0
 10
-81.34442665082032
 20
-8.90302099008711
 30
0.0
 10
-81.34442665083283
 20
-9.179182951578197
 30
0.0
 10
-81.34442665083283
 20
-9.179182951578197
 30
0.0
 10
-81.34442665088866
 20
-10.42927161315568
 30
0.0
 10
-81.34442665088866
 20
-10.42927161315568
 30
0.0
 10
-81.34442665090181
 20
-10.70543357464548
 30
0.0
 10
-81.56830015405359
 20
-10.92930707776999
 30
0.0
 10
-81.84446211554179
 20
-10.92930707775779
 30
0.0
 10
-81.84446211554179
 20
-10.92930707775779
 30
0.0
 10
-99.84573884222833
 20
-10.92930707694925
 30
0.0
 10
-99.84573884222833
 20
-10.92930707694925
 30
0.0
 10
-100.1219008037172
 20
-10.92930707693706
 30
0.0
 10
-100.3457743068722
 20
-11.15318058007183
 30
0.0
 10
-100.3457743068844
 20
-11.42934254156292
 30
0.0
 10
-100.3457743068844
 20
-11.42934254156292
 30
0.0
 10
-100.3457743069517
 20
-12.92944893544948
 30
0.0
 10
-100.3457743069517
 20
-12.92944893544948
 30
0.0
 10
-100.3457743069642
 20
-13.20561089694314
 30
0.0
 10
-100.5696478101102
 20
-13.42948440007213
 30
0.0
 10
-100.8458097716052
 20
-13.4294844000593
 30
0.0
 10
-100.8458097716052
 20
-13.4294844000593
 30
0.0
 10
-118.8470864982824
 20
-13.4294843992514
 30
0.0
 10
-118.8470864982824
 20
-13.4294843992514
 30
0.0
 10
-119.1232484597786
 20
-13.42948439923857
 30
0.0
 10
-119.3471219629275
 20
-13.65335790237013
 30
0.0
 10
-119.3471219629397
 20
-13.92951986386122
 30
0.0
 10
-119.3471219629397
 20
-13.92951986386122
 30
0.0
 10
-119.3471219629955
 20
-15.16411370195787
 30
0.0
 10
-119.3471219629955
 20
-15.16411370195787
 30
0.0
 10
-119.3471219629955
 20
-15.16411370195787
 30
0.0
 10
-119.3464264384018
 20
-31.42487464465597
 30
0.0
 10
-119.3464264384018
 20
-31.42487464465597
 30
0.0
 10
-119.3464264384018
 20
-31.42487464465597
 30
0.0
 10
-119.3466304762086
 20
-63.71770014614831
 30
0.0
 10
-119.3466304762086
 20
-63.71770014614831
 30
0.0
 10
-119.4286791586559
 20
-64.1010481738694
 30
0.0
 10
-119.6314780581429
 20
-64.44798944590055
 30
0.0
 10
-119.9252481965118
 20
-64.70757912683794
 30
0.0
 10
-119.9252481965118
 20
-64.70757912683794
 30
0.0
 10
-139.00219742655
 20
-75.74495685544267
 30
0.0
 10
-139.00219742655
 20
-75.74495685544267
 30
0.0
 10
-139.5296148812207
 20
-76.141336320932
 30
0.0
 10
-139.6917026490331
 20
-76.8617263999316
 30
0.0
 10
-139.3848889081608
 20
-77.44580788446278
 30
0.0
 10
-139.3848889081608
 20
-77.44580788446278
 30
0.0
 10
-126.1476042857981
 20
-100.4856587910328
 30
0.0
 10
-126.1476042857981
 20
-100.4856587910328
 30
0.0
 10
-126.1428595301192
 20
-100.4928103780338
 30
0.0
 10
-126.1380094634546
 20
-100.4998915348261
 30
0.0
 10
-126.133055670928
 20
-100.506899947108
 30
0.0
 10
-125.8550483887761
 20
-100.9002126748334
 30
0.0
 10
-125.3108359942499
 20
-100.9936862071528
 30
0.0
 10
-124.9175232665174
 20
-100.7156789249954
 30
0.0
 10
-124.9175232665174
 20
-100.7156789249954
 30
0.0
 10
-110.1678540637913
 20
-92.22615460002932
 30
0.0
 10
-110.1678540637913
 20
-92.22615460002932
 30
0.0
 10
-110.0766209424739
 20
-92.1944356060056
 30
0.0
 10
-109.9829193901461
 20
-92.17032098336203
 30
0.0
 10
-109.887708678728
 20
-92.15405760613403
 30
0.0
 10
-109.887708678728
 20
-92.15405760613403
 30
0.0
 10
-73.09384148791999
 20
-86.684679969624
 30
0.0
 10
-73.09384148791999
 20
-86.684679969624
 30
0.0
 10
-72.9645941239839
 20
-86.6715594680628
 30
0.0
 10
-72.84245382859021
 20
-86.6192136271829
 30
0.0
 10
-72.74381666267143
 20
-86.53466933024701
 30
0.0
 10
-72.74381666267143
 20
-86.53466933024701
 30
0.0
 10
-62.19306835832374
 20
-72.07541694386381
 30
0.0
 10
-62.19662200095449
 20
-72.08009076027861
 30
0.0
  0
ENDBLK
  5
1B2
330
1AF
100
AcDbEntity
  8
0
100
AcDbBlockEnd
  0
BLOCK
  5
1B6
330
1B4
100
AcDbEntity
  8
0
100
AcDbBlockBegin
  2
block 46
 70
     0
 10
0.0
 20
0.0
 30
0.0
  3
block 46
  1

  0
SPLINE
  5
1B8
330
1B4
100
AcDbEntity
  8
_U+5207_U+65AD_U+30D1_U+30B9
 62
     1
420
 16711680
370
     9
100
AcDbSpline
210
0.0
220
0.0
230
1.0
 70
    11
 71
     3
 72
    20
 73
    16
 74
     0
 42
0.0000000001
 43
0.0000000001
 12
1.0
 22
0.0
 32
0.0
 13
1.0
 23
0.0
 33
0.0
 40
0.0
 40
0.0
 40
0.0
 40
0.0
 40
1.0
 40
1.0
 40
1.0
 40
2.0
 40
2.0
 40
2.0
 40
3.0
 40
3.0
 40
3.0
 40
4.0
 40
4.0
 40
4.0
 40
5.0
 40
5.0
 40
5.0
 40
5.0
 10
-99.76502293506728
 20
-30.68063414613077
 30
0.0
 10
-99.76502293504032
 20
-30.073077830855
 30
0.0
 10
-100.2575446419285
 20
-29.58055612392706
 30
0.0
 10
-100.8651009572081
 20
-29.58055612390011
 30
0.0
 10
-101.4726572724877
 20
-29.58055612387252
 30
0.0
 10
-101.9651789794131
 20
-30.07307783075618
 30
0.0
 10
-101.9651789794401
 20
-30.68063414603195
 30
0.0
 10
-101.9651789794677
 20
-31.28819046131414
 30
0.0
 10
-101.4726572725862
 20
-31.78071216824529
 30
0.0
 10
-100.8651009573069
 20
-31.78071216827288
 30
0.0
 10
-100.2575446420273
 20
-31.78071216829983
 30
0.0
 10
-99.76502293509488
 20
-31.28819046141296
 30
0.0
 10
-99.76502293506728
 20
-30.68063414613077
 30
0.0
 10
-99.76502293506728
 20
-30.68063414613077
 30
0.0
 10
-99.76502293506728
 20
-30.68063414613077
 30
0.0
 10
-99.76502293506728
 20
-30.68063414613077
 30
0.0
  0
ENDBLK
  5
1B7
330
1B4
100
AcDbEntity
  8
0
100
AcDbBlockEnd
  0
BLOCK
  5
1BB
330
1B9
100
AcDbEntity
  8
0
100
AcDbBlockBegin
  2
block 47
 70
     0
 10
0.0
 20
0.0
 30
0.0
  3
block 47
  1

  0
SPLINE
  5
1BD
330
1B9
100
AcDbEntity
  8
_U+5207_U+65AD_U+30D1_U+30B9
 62
     1
420
 16711680
370
     9
100
AcDbSpline
210
0.0
220
0.0
230
1.0
 70
    11
 71
     3
 72
    20
 73
    16
 74
     0
 42
0.0000000001
 43
0.0000000001
 12
1.0
 22
0.0
 32
0.0
 13
1.0
 23
0.0
 33
0.0
 40
0.0
 40
0.0
 40
0.0
 40
0.0
 40
1.0
 40
1.0
 40
1.0
 40
2.0
 40
2.0
 40
2.0
 40
3.0
 40
3.0
 40
3.0
 40
4.0
 40
4.0
 40
4.0
 40
5.0
 40
5.0
 40
5.0
 40
5.0
 10
-23.74320052796612
 20
-34.30303286852053
 30
0.0
 10
-23.74320052793885
 20
-33.69547655324476
 30
0.0
 10
-24.2357222348222
 20
-33.20295484631297
 30
0.0
 10
-24.84327855010054
 20
-33.20295484628602
 30
0.0
 10
-25.45083486538016
 20
-33.20295484625842
 30
0.0
 10
-25.94335657231291
 20
-33.69547655314594
 30
0.0
 10
-25.94335657234018
 20
-34.30303286842171
 30
0.0
 10
-25.94335657236746
 20
-34.9105891836962
 30
0.0
 10
-25.45083486547898
 20
-35.40311089062735
 30
0.0
 10
-24.84327855019936
 20
-35.40311089065494
 30
0.0
 10
-24.23572223492102
 20
-35.40311089068189
 30
0.0
 10
-23.7432005279934
 20
-34.91058918379502
 30
0.0
 10
-23.74320052796612
 20
-34.30303286852053
 30
0.0
 10
-23.74320052796612
 20
-34.30303286852053
 30
0.0
 10
-23.74320052796612
 20
-34.30303286852053
 30
0.0
 10
-23.74320052796612
 20
-34.30303286852053
 30
0.0
  0
ENDBLK
  5
1BC
330
1B9
100
AcDbEntity
  8
0
100
AcDbBlockEnd
  0
BLOCK
  5
1C0
330
1BE
100
AcDbEntity
  8
0
100
AcDbBlockBegin
  2
block 48
 70
     0
 10
0.0
 20
0.0
 30
0.0
  3
block 48
  1

  0
SPLINE
  5
1C2
330
1BE
100
AcDbEntity
  8
_U+5207_U+65AD_U+30D1_U+30B9
 62
     1
420
 16711680
370
     9
100
AcDbSpline
210
0.0
220
0.0
230
1.0
 70
    11
 71
     3
 72
    20
 73
    16
 74
     0
 42
0.0000000001
 43
0.0000000001
 12
1.0
 22
0.0
 32
0.0
 13
1.0
 23
0.0
 33
0.0
 40
0.0
 40
0.0
 40
0.0
 40
0.0
 40
1.0
 40
1.0
 40
1.0
 40
2.0
 40
2.0
 40
2.0
 40
3.0
 40
3.0
 40
3.0
 40
4.0
 40
4.0
 40
4.0
 40
5.0
 40
5.0
 40
5.0
 40
5.0
 10
-23.73440511978579
 20
-53.31817848976811
 30
0.0
 10
-23.73440511975851
 20
-52.71062217449362
 30
0.0
 10
-24.22692682664699
 20
-52.21810046755477
 30
0.0
 10
-24.83448314191891
 20
-52.21810046752717
 30
0.0
 10
-25.44203945719982
 20
-52.21810046750022
 30
0.0
 10
-25.93456116413129
 20
-52.7106221743948
 30
0.0
 10
-25.93456116415856
 20
-53.31817848966929
 30
0.0
 10
-25.93456116418583
 20
-53.92573480494891
 30
0.0
 10
-25.44203945729864
 20
-54.41825651187685
 30
0.0
 10
-24.83448314201773
 20
-54.4182565119038
 30
0.0
 10
-24.22692682674581
 20
-54.4182565119314
 30
0.0
 10
-23.73440511981306
 20
-53.92573480504773
 30
0.0
 10
-23.73440511978579
 20
-53.31817848976811
 30
0.0
 10
-23.73440511978579
 20
-53.31817848976811
 30
0.0
 10
-23.73440511978579
 20
-53.31817848976811
 30
0.0
 10
-23.73440511978579
 20
-53.31817848976811
 30
0.0
  0
ENDBLK
  5
1C1
330
1BE
100
AcDbEntity
  8
0
100
AcDbBlockEnd
  0
BLOCK
  5
1C5
330
1C3
100
AcDbEntity
  8
0
100
AcDbBlockBegin
  2
block 49
 70
     0
 10
0.0
 20
0.0
 30
0.0
  3
block 49
  1

  0
SPLINE
  5
1C7
330
1C3
100
AcDbEntity
  8
_U+5207_U+65AD_U+30D1_U+30B9
 62
     1
420
 16711680
370
     9
100
AcDbSpline
210
0.0
220
0.0
230
1.0
 70
    11
 71
     3
 72
    20
 73
    16
 74
     0
 42
0.0000000001
 43
0.0000000001
 12
1.0
 22
0.0
 32
0.0
 13
1.0
 23
0.0
 33
0.0
 40
0.0
 40
0.0
 40
0.0
 40
0.0
 40
1.0
 40
1.0
 40
1.0
 40
2.0
 40
2.0
 40
2.0
 40
3.0
 40
3.0
 40
3.0
 40
4.0
 40
4.0
 40
4.0
 40
5.0
 40
5.0
 40
5.0
 40
5.0
 10
-113.5067207455965
 20
-78.1824170684677
 30
0.0
 10
-113.5067207455689
 20
-77.57486075318808
 30
0.0
 10
-113.9992424524513
 20
-77.08233904625692
 30
0.0
 10
-114.606798767728
 20
-77.08233904622934
 30
0.0
 10
-115.214355083008
 20
-77.08233904620238
 30
0.0
 10
-115.706876789934
 20
-77.57486075308925
 30
0.0
 10
-115.7068767899616
 20
-78.18241706836888
 30
0.0
 10
-115.7068767899882
 20
-78.7899733836395
 30
0.0
 10
-115.2143550831068
 20
-79.28249509057515
 30
0.0
 10
-114.6067987678272
 20
-79.2824950906021
 30
0.0
 10
-113.9992424525501
 20
-79.2824950906297
 30
0.0
 10
-113.5067207456235
 20
-78.78997338373833
 30
0.0
 10
-113.5067207455965
 20
-78.1824170684677
 30
0.0
 10
-113.5067207455965
 20
-78.1824170684677
 30
0.0
 10
-113.5067207455965
 20
-78.1824170684677
 30
0.0
 10
-113.5067207455965
 20
-78.1824170684677
 30
0.0
  0
ENDBLK
  5
1C6
330
1C3
100
AcDbEntity
  8
0
100
AcDbBlockEnd
  0
BLOCK
  5
1CA
330
1C8
100
AcDbEntity
  8
0
100
AcDbBlockBegin
  2
block 50
 70
     0
 10
0.0
 20
0.0
 30
0.0
  3
block 50
  1

  0
SPLINE
  5
1CC
330
1C8
100
AcDbEntity
  8
_U+5207_U+65AD_U+30D1_U+30B9
 62
     1
420
 16711680
370
     9
100
AcDbSpline
210
0.0
220
0.0
230
1.0
 70
    11
 71
     3
 72
    20
 73
    16
 74
     0
 42
0.0000000001
 43
0.0000000001
 12
1.0
 22
0.0
 32
0.0
 13
1.0
 23
0.0
 33
0.0
 40
0.0
 40
0.0
 40
0.0
 40
0.0
 40
1.0
 40
1.0
 40
1.0
 40
2.0
 40
2.0
 40
2.0
 40
3.0
 40
3.0
 40
3.0
 40
4.0
 40
4.0
 40
4.0
 40
5.0
 40
5.0
 40
5.0
 40
5.0
 10
-66.98674189639074
 20
-70.42790744609441
 30
0.0
 10
-66.98674189636378
 20
-69.82035113081479
 30
0.0
 10
-67.47926360324425
 20
-69.32782942388364
 30
0.0
 10
-68.08681991852515
 20
-69.32782942385604
 30
0.0
 10
-68.69437623380477
 20
-69.32782942382909
 30
0.0
 10
-69.18689794073015
 20
-69.82035113071596
 30
0.0
 10
-69.18689794075709
 20
-70.42790744599559
 30
0.0
 10
-69.18689794078469
 20
-71.03546376127393
 30
0.0
 10
-68.6943762339036
 20
-71.52798546819801
 30
0.0
 10
-68.08681991862397
 20
-71.52798546822497
 30
0.0
 10
-67.47926360334307
 20
-71.52798546825257
 30
0.0
 10
-66.98674189641834
 20
-71.03546376137274
 30
0.0
 10
-66.98674189639074
 20
-70.42790744609441
 30
0.0
 10
-66.98674189639074
 20
-70.42790744609441
 30
0.0
 10
-66.98674189639074
 20
-70.42790744609441
 30
0.0
 10
-66.98674189639074
 20
-70.42790744609441
 30
0.0
  0
ENDBLK
  5
1CB
330
1C8
100
AcDbEntity
  8
0
100
AcDbBlockEnd
  0
BLOCK
  5
1CF
330
1CD
100
AcDbEntity
  8
0
100
AcDbBlockBegin
  2
block 51
 70
     0
 10
0.0
 20
0.0
 30
0.0
  3
block 51
  1

  0
POLYLINE
  5
1D1
330
1CD
100
AcDbEntity
  8
_U+5207_U+65AD_U+30D1_U+30B9
 62
     1
420
 16711680
370
     9
100
AcDb2dPolyline
 66
     1
 10
0.0
 20
0.0
 30
0.0
  0
VERTEX
  5
1D2
330
1D1
100
AcDbEntity
  8
_U+5207_U+65AD_U+30D1_U+30B9
 62
     1
420
 16711680
370
     9
100
AcDbVertex
100
AcDb2dVertex
 10
-8.408694188438613
 20
-17.8700119514382
 30
0.0
  0
VERTEX
  5
1D3
330
1D1
100
AcDbEntity
  8
_U+5207_U+65AD_U+30D1_U+30B9
 62
     1
420
 16711680
370
     9
100
AcDbVertex
100
AcDb2dVertex
 10
-8.40869418906042
 20
-31.72099432169436
 30
0.0
  0
VERTEX
  5
1D4
330
1D1
100
AcDbEntity
  8
_U+5207_U+65AD_U+30D1_U+30B9
 62
     1
420
 16711680
370
     9
100
AcDbVertex
100
AcDb2dVertex
 10
-22.25967655931531
 20
-31.72099432107192
 30
0.0
  0
VERTEX
  5
1D5
330
1D1
100
AcDbEntity
  8
_U+5207_U+65AD_U+30D1_U+30B9
 62
     1
420
 16711680
370
     9
100
AcDbVertex
100
AcDb2dVertex
 10
-22.2596765586935
 20
-17.87001195081575
 30
0.0
  0
VERTEX
  5
1D6
330
1D1
100
AcDbEntity
  8
_U+5207_U+65AD_U+30D1_U+30B9
 62
     1
420
 16711680
370
     9
100
AcDbVertex
100
AcDb2dVertex
 10
-8.408694188438613
 20
-17.8700119514382
 30
0.0
  0
SEQEND
  5
1D7
330
1D1
100
AcDbEntity
  8
_U+5207_U+65AD_U+30D1_U+30B9
 62
     1
420
 16711680
370
     9
  0
ENDBLK
  5
1D0
330
1CD
100
AcDbEntity
  8
0
100
AcDbBlockEnd
  0
BLOCK
  5
1DA
330
1D8
100
AcDbEntity
  8
0
100
AcDbBlockBegin
  2
block 52
 70
     0
 10
0.0
 20
0.0
 30
0.0
  3
block 52
  1

  0
POLYLINE
  5
1DC
330
1D8
100
AcDbEntity
  8
_U+5207_U+65AD_U+30D1_U+30B9
 62
     1
420
 16711680
370
     9
100
AcDb2dPolyline
 66
     1
 10
0.0
 20
0.0
 30
0.0
  0
VERTEX
  5
1DD
330
1DC
100
AcDbEntity
  8
_U+5207_U+65AD_U+30D1_U+30B9
 62
     1
420
 16711680
370
     9
100
AcDbVertex
100
AcDb2dVertex
 10
-8.408694189291753
 20
-36.87135960738127
 30
0.0
  0
VERTEX
  5
1DE
330
1DC
100
AcDbEntity
  8
_U+5207_U+65AD_U+30D1_U+30B9
 62
     1
420
 16711680
370
     9
100
AcDbVertex
100
AcDb2dVertex
 10
-8.408694189913557
 20
-50.72234197764129
 30
0.0
  0
VERTEX
  5
1DF
330
1DC
100
AcDbEntity
  8
_U+5207_U+65AD_U+30D1_U+30B9
 62
     1
420
 16711680
370
     9
100
AcDbVertex
100
AcDb2dVertex
 10
-22.25967656016844
 20
-50.72234197701884
 30
0.0
  0
VERTEX
  5
1E0
330
1DC
100
AcDbEntity
  8
_U+5207_U+65AD_U+30D1_U+30B9
 62
     1
420
 16711680
370
     9
100
AcDbVertex
100
AcDb2dVertex
 10
-22.25967655954664
 20
-36.87135960675882
 30
0.0
  0
VERTEX
  5
1E1
330
1DC
100
AcDbEntity
  8
_U+5207_U+65AD_U+30D1_U+30B9
 62
     1
420
 16711680
370
     9
100
AcDbVertex
100
AcDb2dVertex
 10
-8.408694189291753
 20
-36.87135960738127
 30
0.0
  0
SEQEND
  5
1E2
330
1DC
100
AcDbEntity
  8
_U+5207_U+65AD_U+30D1_U+30B9
 62
     1
420
 16711680
370
     9
  0
ENDBLK
  5
1DB
330
1D8
100
AcDbEntity
  8
0
100
AcDbBlockEnd
  0
BLOCK
  5
1E5
330
1E3
100
AcDbEntity
  8
0
100
AcDbBlockBegin
  2
block 53
 70
     0
 10
0.0
 20
0.0
 30
0.0
  3
block 53
  1

  0
POLYLINE
  5
1E7
330
1E3
100
AcDbEntity
  8
_U+5207_U+65AD_U+30D1_U+30B9
 62
     1
420
 16711680
370
     9
100
AcDb2dPolyline
 66
     1
 10
0.0
 20
0.0
 30
0.0
  0
VERTEX
  5
1E8
330
1E7
100
AcDbEntity
  8
_U+5207_U+65AD_U+30D1_U+30B9
 62
     1
420
 16711680
370
     9
100
AcDbVertex
100
AcDb2dVertex
 10
-8.408694190144569
 20
-55.87270726332819
 30
0.0
  0
VERTEX
  5
1E9
330
1E7
100
AcDbEntity
  8
_U+5207_U+65AD_U+30D1_U+30B9
 62
     1
420
 16711680
370
     9
100
AcDbVertex
100
AcDb2dVertex
 10
-8.408694190766697
 20
-69.72368963358308
 30
0.0
  0
VERTEX
  5
1EA
330
1E7
100
AcDbEntity
  8
_U+5207_U+65AD_U+30D1_U+30B9
 62
     1
420
 16711680
370
     9
100
AcDbVertex
100
AcDb2dVertex
 10
-22.25967656102158
 20
-69.72368963296063
 30
0.0
  0
VERTEX
  5
1EB
330
1E7
100
AcDbEntity
  8
_U+5207_U+65AD_U+30D1_U+30B9
 62
     1
420
 16711680
370
     9
100
AcDbVertex
100
AcDb2dVertex
 10
-22.25967656039946
 20
-55.87270726270575
 30
0.0
  0
VERTEX
  5
1EC
330
1E7
100
AcDbEntity
  8
_U+5207_U+65AD_U+30D1_U+30B9
 62
     1
420
 16711680
370
     9
100
AcDbVertex
100
AcDb2dVertex
 10
-8.408694190144569
 20
-55.87270726332819
 30
0.0
  0
SEQEND
  5
1ED
330
1E7
100
AcDbEntity
  8
_U+5207_U+65AD_U+30D1_U+30B9
 62
     1
420
 16711680
370
     9
  0
ENDBLK
  5
1E6
330
1E3
100
AcDbEntity
  8
0
100
AcDbBlockEnd
  0
BLOCK
  5
1F0
330
1EE
100
AcDbEntity
  8
0
100
AcDbBlockBegin
  2
block 54
 70
     0
 10
0.0
 20
0.0
 30
0.0
  3
block 54
  1

  0
POLYLINE
  5
1F2
330
1EE
100
AcDbEntity
  8
_U+5207_U+65AD_U+30D1_U+30B9
 62
     1
420
 16711680
370
     9
100
AcDb2dPolyline
 66
     1
 10
0.0
 20
0.0
 30
0.0
  0
VERTEX
  5
1F3
330
1F2
100
AcDbEntity
  8
_U+5207_U+65AD_U+30D1_U+30B9
 62
     1
420
 16711680
370
     9
100
AcDbVertex
100
AcDb2dVertex
 10
-27.41054988041168
 20
-17.87001195058474
 30
0.0
  0
VERTEX
  5
1F4
330
1F2
100
AcDbEntity
  8
_U+5207_U+65AD_U+30D1_U+30B9
 62
     1
420
 16711680
370
     9
100
AcDbVertex
100
AcDb2dVertex
 10
-27.41054988103348
 20
-31.72099432084091
 30
0.0
  0
VERTEX
  5
1F5
330
1F2
100
AcDbEntity
  8
_U+5207_U+65AD_U+30D1_U+30B9
 62
     1
420
 16711680
370
     9
100
AcDbVertex
100
AcDb2dVertex
 10
-41.26153225128965
 20
-31.7209943202191
 30
0.0
  0
VERTEX
  5
1F6
330
1F2
100
AcDbEntity
  8
_U+5207_U+65AD_U+30D1_U+30B9
 62
     1
420
 16711680
370
     9
100
AcDbVertex
100
AcDb2dVertex
 10
-41.26153225066817
 20
-17.87001194996293
 30
0.0
  0
VERTEX
  5
1F7
330
1F2
100
AcDbEntity
  8
_U+5207_U+65AD_U+30D1_U+30B9
 62
     1
420
 16711680
370
     9
100
AcDbVertex
100
AcDb2dVertex
 10
-27.41054988041168
 20
-17.87001195058474
 30
0.0
  0
SEQEND
  5
1F8
330
1F2
100
AcDbEntity
  8
_U+5207_U+65AD_U+30D1_U+30B9
 62
     1
420
 16711680
370
     9
  0
ENDBLK
  5
1F1
330
1EE
100
AcDbEntity
  8
0
100
AcDbBlockEnd
  0
BLOCK
  5
1FB
330
1F9
100
AcDbEntity
  8
0
100
AcDbBlockBegin
  2
block 55
 70
     0
 10
0.0
 20
0.0
 30
0.0
  3
block 55
  1

  0
POLYLINE
  5
1FD
330
1F9
100
AcDbEntity
  8
_U+5207_U+65AD_U+30D1_U+30B9
 62
     1
420
 16711680
370
     9
100
AcDb2dPolyline
 66
     1
 10
0.0
 20
0.0
 30
0.0
  0
VERTEX
  5
1FE
330
1FD
100
AcDbEntity
  8
_U+5207_U+65AD_U+30D1_U+30B9
 62
     1
420
 16711680
370
     9
100
AcDbVertex
100
AcDb2dVertex
 10
-27.41054988126482
 20
-36.87135960652781
 30
0.0
  0
VERTEX
  5
1FF
330
1FD
100
AcDbEntity
  8
_U+5207_U+65AD_U+30D1_U+30B9
 62
     1
420
 16711680
370
     9
100
AcDbVertex
100
AcDb2dVertex
 10
-27.41054988188662
 20
-50.72234197678783
 30
0.0
  0
VERTEX
  5
200
330
1FD
100
AcDbEntity
  8
_U+5207_U+65AD_U+30D1_U+30B9
 62
     1
420
 16711680
370
     9
100
AcDbVertex
100
AcDb2dVertex
 10
-41.26153225214311
 20
-50.72234197616602
 30
0.0
  0
VERTEX
  5
201
330
1FD
100
AcDbEntity
  8
_U+5207_U+65AD_U+30D1_U+30B9
 62
     1
420
 16711680
370
     9
100
AcDbVertex
100
AcDb2dVertex
 10
-41.2615322515213
 20
-36.871359605906
 30
0.0
  0
VERTEX
  5
202
330
1FD
100
AcDbEntity
  8
_U+5207_U+65AD_U+30D1_U+30B9
 62
     1
420
 16711680
370
     9
100
AcDbVertex
100
AcDb2dVertex
 10
-27.41054988126482
 20
-36.87135960652781
 30
0.0
  0
SEQEND
  5
203
330
1FD
100
AcDbEntity
  8
_U+5207_U+65AD_U+30D1_U+30B9
 62
     1
420
 16711680
370
     9
  0
ENDBLK
  5
1FC
330
1F9
100
AcDbEntity
  8
0
100
AcDbBlockEnd
  0
BLOCK
  5
206
330
204
100
AcDbEntity
  8
0
100
AcDbBlockBegin
  2
block 56
 70
     0
 10
0.0
 20
0.0
 30
0.0
  3
block 56
  1

  0
POLYLINE
  5
208
330
204
100
AcDbEntity
  8
_U+5207_U+65AD_U+30D1_U+30B9
 62
     1
420
 16711680
370
     9
100
AcDb2dPolyline
 66
     1
 10
0.0
 20
0.0
 30
0.0
  0
VERTEX
  5
209
330
208
100
AcDbEntity
  8
_U+5207_U+65AD_U+30D1_U+30B9
 62
     1
420
 16711680
370
     9
100
AcDbVertex
100
AcDb2dVertex
 10
-27.41054988211764
 20
-55.87270726247473
 30
0.0
  0
VERTEX
  5
20A
330
208
100
AcDbEntity
  8
_U+5207_U+65AD_U+30D1_U+30B9
 62
     1
420
 16711680
370
     9
100
AcDbVertex
100
AcDb2dVertex
 10
-27.41054988273976
 20
-69.72368963272962
 30
0.0
  0
VERTEX
  5
20B
330
208
100
AcDbEntity
  8
_U+5207_U+65AD_U+30D1_U+30B9
 62
     1
420
 16711680
370
     9
100
AcDbVertex
100
AcDb2dVertex
 10
-41.26153225299625
 20
-69.7236896321078
 30
0.0
  0
VERTEX
  5
20C
330
208
100
AcDbEntity
  8
_U+5207_U+65AD_U+30D1_U+30B9
 62
     1
420
 16711680
370
     9
100
AcDbVertex
100
AcDb2dVertex
 10
-41.26153225237412
 20
-55.87270726185292
 30
0.0
  0
VERTEX
  5
20D
330
208
100
AcDbEntity
  8
_U+5207_U+65AD_U+30D1_U+30B9
 62
     1
420
 16711680
370
     9
100
AcDbVertex
100
AcDb2dVertex
 10
-27.41054988211764
 20
-55.87270726247473
 30
0.0
  0
SEQEND
  5
20E
330
208
100
AcDbEntity
  8
_U+5207_U+65AD_U+30D1_U+30B9
 62
     1
420
 16711680
370
     9
  0
ENDBLK
  5
207
330
204
100
AcDbEntity
  8
0
100
AcDbBlockEnd
  0
BLOCK
  5
211
330
20F
100
AcDbEntity
  8
0
100
AcDbBlockBegin
  2
block 57
 70
     0
 10
0.0
 20
0.0
 30
0.0
  3
block 57
  1

  0
POLYLINE
  5
213
330
20F
100
AcDbEntity
  8
_U+5207_U+65AD_U+30D1_U+30B9
 62
     1
420
 16711680
370
     9
100
AcDb2dPolyline
 66
     1
 10
0.0
 20
0.0
 30
0.0
  0
VERTEX
  5
214
330
213
100
AcDbEntity
  8
_U+5207_U+65AD_U+30D1_U+30B9
 62
     1
420
 16711680
370
     9
100
AcDbVertex
100
AcDb2dVertex
 10
-46.41189753615037
 20
-13.11967503574647
 30
0.0
  0
VERTEX
  5
215
330
213
100
AcDbEntity
  8
_U+5207_U+65AD_U+30D1_U+30B9
 62
     1
420
 16711680
370
     9
100
AcDbVertex
100
AcDb2dVertex
 10
-46.41189753677217
 20
-26.97065740599879
 30
0.0
  0
VERTEX
  5
216
330
213
100
AcDbEntity
  8
_U+5207_U+65AD_U+30D1_U+30B9
 62
     1
420
 16711680
370
     9
100
AcDbVertex
100
AcDb2dVertex
 10
-60.26287990702642
 20
-26.97065740537698
 30
0.0
  0
VERTEX
  5
217
330
213
100
AcDbEntity
  8
_U+5207_U+65AD_U+30D1_U+30B9
 62
     1
420
 16711680
370
     9
100
AcDbVertex
100
AcDb2dVertex
 10
-60.26287990640397
 20
-13.11967503512466
 30
0.0
  0
VERTEX
  5
218
330
213
100
AcDbEntity
  8
_U+5207_U+65AD_U+30D1_U+30B9
 62
     1
420
 16711680
370
     9
100
AcDbVertex
100
AcDb2dVertex
 10
-46.41189753615037
 20
-13.11967503574647
 30
0.0
  0
SEQEND
  5
219
330
213
100
AcDbEntity
  8
_U+5207_U+65AD_U+30D1_U+30B9
 62
     1
420
 16711680
370
     9
  0
ENDBLK
  5
212
330
20F
100
AcDbEntity
  8
0
100
AcDbBlockEnd
  0
BLOCK
  5
21C
330
21A
100
AcDbEntity
  8
0
100
AcDbBlockBegin
  2
block 58
 70
     0
 10
0.0
 20
0.0
 30
0.0
  3
block 58
  1

  0
POLYLINE
  5
21E
330
21A
100
AcDbEntity
  8
_U+5207_U+65AD_U+30D1_U+30B9
 62
     1
420
 16711680
370
     9
100
AcDb2dPolyline
 66
     1
 10
0.0
 20
0.0
 30
0.0
  0
VERTEX
  5
21F
330
21E
100
AcDbEntity
  8
_U+5207_U+65AD_U+30D1_U+30B9
 62
     1
420
 16711680
370
     9
100
AcDbVertex
100
AcDb2dVertex
 10
-46.41189753700351
 20
-32.12102269168955
 30
0.0
  0
VERTEX
  5
220
330
21E
100
AcDbEntity
  8
_U+5207_U+65AD_U+30D1_U+30B9
 62
     1
420
 16711680
370
     9
100
AcDbVertex
100
AcDb2dVertex
 10
-46.41189753762531
 20
-45.97200506194186
 30
0.0
  0
VERTEX
  5
221
330
21E
100
AcDbEntity
  8
_U+5207_U+65AD_U+30D1_U+30B9
 62
     1
420
 16711680
370
     9
100
AcDbVertex
100
AcDb2dVertex
 10
-60.26287990787924
 20
-45.97200506132005
 30
0.0
  0
VERTEX
  5
222
330
21E
100
AcDbEntity
  8
_U+5207_U+65AD_U+30D1_U+30B9
 62
     1
420
 16711680
370
     9
100
AcDbVertex
100
AcDb2dVertex
 10
-60.26287990725743
 20
-32.12102269106774
 30
0.0
  0
VERTEX
  5
223
330
21E
100
AcDbEntity
  8
_U+5207_U+65AD_U+30D1_U+30B9
 62
     1
420
 16711680
370
     9
100
AcDbVertex
100
AcDb2dVertex
 10
-46.41189753700351
 20
-32.12102269168955
 30
0.0
  0
SEQEND
  5
224
330
21E
100
AcDbEntity
  8
_U+5207_U+65AD_U+30D1_U+30B9
 62
     1
420
 16711680
370
     9
  0
ENDBLK
  5
21D
330
21A
100
AcDbEntity
  8
0
100
AcDbBlockEnd
  0
BLOCK
  5
227
330
225
100
AcDbEntity
  8
0
100
AcDbBlockBegin
  2
block 59
 70
     0
 10
0.0
 20
0.0
 30
0.0
  3
block 59
  1

  0
POLYLINE
  5
229
330
225
100
AcDbEntity
  8
_U+5207_U+65AD_U+30D1_U+30B9
 62
     1
420
 16711680
370
     9
100
AcDb2dPolyline
 66
     1
 10
0.0
 20
0.0
 30
0.0
  0
VERTEX
  5
22A
330
229
100
AcDbEntity
  8
_U+5207_U+65AD_U+30D1_U+30B9
 62
     1
420
 16711680
370
     9
100
AcDbVertex
100
AcDb2dVertex
 10
-46.41189753785665
 20
-51.12237034764032
 30
0.0
  0
VERTEX
  5
22B
330
229
100
AcDbEntity
  8
_U+5207_U+65AD_U+30D1_U+30B9
 62
     1
420
 16711680
370
     9
100
AcDbVertex
100
AcDb2dVertex
 10
-46.41189753847846
 20
-64.97335271789134
 30
0.0
  0
VERTEX
  5
22C
330
229
100
AcDbEntity
  8
_U+5207_U+65AD_U+30D1_U+30B9
 62
     1
420
 16711680
370
     9
100
AcDbVertex
100
AcDb2dVertex
 10
-60.26287990873205
 20
-64.97335271726955
 30
0.0
  0
VERTEX
  5
22D
330
229
100
AcDbEntity
  8
_U+5207_U+65AD_U+30D1_U+30B9
 62
     1
420
 16711680
370
     9
100
AcDbVertex
100
AcDb2dVertex
 10
-60.26287990811025
 20
-51.12237034701851
 30
0.0
  0
VERTEX
  5
22E
330
229
100
AcDbEntity
  8
_U+5207_U+65AD_U+30D1_U+30B9
 62
     1
420
 16711680
370
     9
100
AcDbVertex
100
AcDb2dVertex
 10
-46.41189753785665
 20
-51.12237034764032
 30
0.0
  0
SEQEND
  5
22F
330
229
100
AcDbEntity
  8
_U+5207_U+65AD_U+30D1_U+30B9
 62
     1
420
 16711680
370
     9
  0
ENDBLK
  5
228
330
225
100
AcDbEntity
  8
0
100
AcDbBlockEnd
  0
BLOCK
  5
232
330
230
100
AcDbEntity
  8
0
100
AcDbBlockBegin
  2
block 60
 70
     0
 10
0.0
 20
0.0
 30
0.0
  3
block 60
  1

  0
POLYLINE
  5
234
330
230
100
AcDbEntity
  8
_U+5207_U+65AD_U+30D1_U+30B9
 62
     1
420
 16711680
370
     9
100
AcDb2dPolyline
 66
     1
 10
0.0
 20
0.0
 30
0.0
  0
VERTEX
  5
235
330
234
100
AcDbEntity
  8
_U+5207_U+65AD_U+30D1_U+30B9
 62
     1
420
 16711680
370
     9
100
AcDbVertex
100
AcDb2dVertex
 10
-65.41324519198564
 20
-10.74450657790221
 30
0.0
  0
VERTEX
  5
236
330
234
100
AcDbEntity
  8
_U+5207_U+65AD_U+30D1_U+30B9
 62
     1
420
 16711680
370
     9
100
AcDbVertex
100
AcDb2dVertex
 10
-65.41324519260745
 20
-24.59548894815325
 30
0.0
  0
VERTEX
  5
237
330
234
100
AcDbEntity
  8
_U+5207_U+65AD_U+30D1_U+30B9
 62
     1
420
 16711680
370
     9
100
AcDbVertex
100
AcDb2dVertex
 10
-79.26422756286233
 20
-24.59548894753144
 30
0.0
  0
VERTEX
  5
238
330
234
100
AcDbEntity
  8
_U+5207_U+65AD_U+30D1_U+30B9
 62
     1
420
 16711680
370
     9
100
AcDbVertex
100
AcDb2dVertex
 10
-79.26422756224052
 20
-10.74450657728041
 30
0.0
  0
VERTEX
  5
239
330
234
100
AcDbEntity
  8
_U+5207_U+65AD_U+30D1_U+30B9
 62
     1
420
 16711680
370
     9
100
AcDbVertex
100
AcDb2dVertex
 10
-65.41324519198564
 20
-10.74450657790221
 30
0.0
  0
SEQEND
  5
23A
330
234
100
AcDbEntity
  8
_U+5207_U+65AD_U+30D1_U+30B9
 62
     1
420
 16711680
370
     9
  0
ENDBLK
  5
233
330
230
100
AcDbEntity
  8
0
100
AcDbBlockEnd
  0
BLOCK
  5
23D
330
23B
100
AcDbEntity
  8
0
100
AcDbBlockBegin
  2
block 61
 70
     0
 10
0.0
 20
0.0
 30
0.0
  3
block 61
  1

  0
POLYLINE
  5
23F
330
23B
100
AcDbEntity
  8
_U+5207_U+65AD_U+30D1_U+30B9
 62
     1
420
 16711680
370
     9
100
AcDb2dPolyline
 66
     1
 10
0.0
 20
0.0
 30
0.0
  0
VERTEX
  5
240
330
23F
100
AcDbEntity
  8
_U+5207_U+65AD_U+30D1_U+30B9
 62
     1
420
 16711680
370
     9
100
AcDbVertex
100
AcDb2dVertex
 10
-65.4132451928391
 20
-29.74585423384143
 30
0.0
  0
VERTEX
  5
241
330
23F
100
AcDbEntity
  8
_U+5207_U+65AD_U+30D1_U+30B9
 62
     1
420
 16711680
370
     9
100
AcDbVertex
100
AcDb2dVertex
 10
-65.41324519346091
 20
-43.59683660409632
 30
0.0
  0
VERTEX
  5
242
330
23F
100
AcDbEntity
  8
_U+5207_U+65AD_U+30D1_U+30B9
 62
     1
420
 16711680
370
     9
100
AcDbVertex
100
AcDb2dVertex
 10
-79.26422756371579
 20
-43.59683660347451
 30
0.0
  0
VERTEX
  5
243
330
23F
100
AcDbEntity
  8
_U+5207_U+65AD_U+30D1_U+30B9
 62
     1
420
 16711680
370
     9
100
AcDbVertex
100
AcDb2dVertex
 10
-79.26422756309398
 20
-29.74585423321963
 30
0.0
  0
VERTEX
  5
244
330
23F
100
AcDbEntity
  8
_U+5207_U+65AD_U+30D1_U+30B9
 62
     1
420
 16711680
370
     9
100
AcDbVertex
100
AcDb2dVertex
 10
-65.4132451928391
 20
-29.74585423384143
 30
0.0
  0
SEQEND
  5
245
330
23F
100
AcDbEntity
  8
_U+5207_U+65AD_U+30D1_U+30B9
 62
     1
420
 16711680
370
     9
  0
ENDBLK
  5
23E
330
23B
100
AcDbEntity
  8
0
100
AcDbBlockEnd
  0
BLOCK
  5
248
330
246
100
AcDbEntity
  8
0
100
AcDbBlockBegin
  2
block 62
 70
     0
 10
0.0
 20
0.0
 30
0.0
  3
block 62
  1

  0
POLYLINE
  5
24A
330
246
100
AcDbEntity
  8
_U+5207_U+65AD_U+30D1_U+30B9
 62
     1
420
 16711680
370
     9
100
AcDb2dPolyline
 66
     1
 10
0.0
 20
0.0
 30
0.0
  0
VERTEX
  5
24B
330
24A
100
AcDbEntity
  8
_U+5207_U+65AD_U+30D1_U+30B9
 62
     1
420
 16711680
370
     9
100
AcDbVertex
100
AcDb2dVertex
 10
-65.41324519369192
 20
-48.74720188978451
 30
0.0
  0
VERTEX
  5
24C
330
24A
100
AcDbEntity
  8
_U+5207_U+65AD_U+30D1_U+30B9
 62
     1
420
 16711680
370
     9
100
AcDbVertex
100
AcDb2dVertex
 10
-65.41324519431372
 20
-62.59818426004324
 30
0.0
  0
VERTEX
  5
24D
330
24A
100
AcDbEntity
  8
_U+5207_U+65AD_U+30D1_U+30B9
 62
     1
420
 16711680
370
     9
100
AcDbVertex
100
AcDb2dVertex
 10
-79.2642275645686
 20
-62.59818425942144
 30
0.0
  0
VERTEX
  5
24E
330
24A
100
AcDbEntity
  8
_U+5207_U+65AD_U+30D1_U+30B9
 62
     1
420
 16711680
370
     9
100
AcDbVertex
100
AcDb2dVertex
 10
-79.2642275639468
 20
-48.7472018891627
 30
0.0
  0
VERTEX
  5
24F
330
24A
100
AcDbEntity
  8
_U+5207_U+65AD_U+30D1_U+30B9
 62
     1
420
 16711680
370
     9
100
AcDbVertex
100
AcDb2dVertex
 10
-65.41324519369192
 20
-48.74720188978451
 30
0.0
  0
SEQEND
  5
250
330
24A
100
AcDbEntity
  8
_U+5207_U+65AD_U+30D1_U+30B9
 62
     1
420
 16711680
370
     9
  0
ENDBLK
  5
249
330
246
100
AcDbEntity
  8
0
100
AcDbBlockEnd
  0
BLOCK
  5
253
330
251
100
AcDbEntity
  8
0
100
AcDbBlockBegin
  2
block 63
 70
     0
 10
0.0
 20
0.0
 30
0.0
  3
block 63
  1

  0
POLYLINE
  5
255
330
251
100
AcDbEntity
  8
_U+5207_U+65AD_U+30D1_U+30B9
 62
     1
420
 16711680
370
     9
100
AcDb2dPolyline
 66
     1
 10
0.0
 20
0.0
 30
0.0
  0
VERTEX
  5
256
330
255
100
AcDbEntity
  8
_U+5207_U+65AD_U+30D1_U+30B9
 62
     1
420
 16711680
370
     9
100
AcDbVertex
100
AcDb2dVertex
 10
-84.41459284803652
 20
-13.11967503404019
 30
0.0
  0
VERTEX
  5
257
330
255
100
AcDbEntity
  8
_U+5207_U+65AD_U+30D1_U+30B9
 62
     1
420
 16711680
370
     9
100
AcDbVertex
100
AcDb2dVertex
 10
-84.41459284865897
 20
-26.97065740429251
 30
0.0
  0
VERTEX
  5
258
330
255
100
AcDbEntity
  8
_U+5207_U+65AD_U+30D1_U+30B9
 62
     1
420
 16711680
370
     9
100
AcDbVertex
100
AcDb2dVertex
 10
-98.26557521891513
 20
-26.9706574036707
 30
0.0
  0
VERTEX
  5
259
330
255
100
AcDbEntity
  8
_U+5207_U+65AD_U+30D1_U+30B9
 62
     1
420
 16711680
370
     9
100
AcDbVertex
100
AcDb2dVertex
 10
-98.26557521829268
 20
-13.11967503341839
 30
0.0
  0
VERTEX
  5
25A
330
255
100
AcDbEntity
  8
_U+5207_U+65AD_U+30D1_U+30B9
 62
     1
420
 16711680
370
     9
100
AcDbVertex
100
AcDb2dVertex
 10
-84.41459284803652
 20
-13.11967503404019
 30
0.0
  0
SEQEND
  5
25B
330
255
100
AcDbEntity
  8
_U+5207_U+65AD_U+30D1_U+30B9
 62
     1
420
 16711680
370
     9
  0
ENDBLK
  5
254
330
251
100
AcDbEntity
  8
0
100
AcDbBlockEnd
  0
BLOCK
  5
25E
330
25C
100
AcDbEntity
  8
0
100
AcDbBlockBegin
  2
block 64
 70
     0
 10
0.0
 20
0.0
 30
0.0
  3
block 64
  1

  0
POLYLINE
  5
260
330
25C
100
AcDbEntity
  8
_U+5207_U+65AD_U+30D1_U+30B9
 62
     1
420
 16711680
370
     9
100
AcDb2dPolyline
 66
     1
 10
0.0
 20
0.0
 30
0.0
  0
VERTEX
  5
261
330
260
100
AcDbEntity
  8
_U+5207_U+65AD_U+30D1_U+30B9
 62
     1
420
 16711680
370
     9
100
AcDbVertex
100
AcDb2dVertex
 10
-84.41459284888998
 20
-32.12102268998326
 30
0.0
  0
VERTEX
  5
262
330
260
100
AcDbEntity
  8
_U+5207_U+65AD_U+30D1_U+30B9
 62
     1
420
 16711680
370
     9
100
AcDbVertex
100
AcDb2dVertex
 10
-84.4145928495121
 20
-45.97200506023558
 30
0.0
  0
VERTEX
  5
263
330
260
100
AcDbEntity
  8
_U+5207_U+65AD_U+30D1_U+30B9
 62
     1
420
 16711680
370
     9
100
AcDbVertex
100
AcDb2dVertex
 10
-98.26557521976827
 20
-45.97200505961378
 30
0.0
  0
VERTEX
  5
264
330
260
100
AcDbEntity
  8
_U+5207_U+65AD_U+30D1_U+30B9
 62
     1
420
 16711680
370
     9
100
AcDbVertex
100
AcDb2dVertex
 10
-98.26557521914614
 20
-32.12102268936146
 30
0.0
  0
VERTEX
  5
265
330
260
100
AcDbEntity
  8
_U+5207_U+65AD_U+30D1_U+30B9
 62
     1
420
 16711680
370
     9
100
AcDbVertex
100
AcDb2dVertex
 10
-84.41459284888998
 20
-32.12102268998326
 30
0.0
  0
SEQEND
  5
266
330
260
100
AcDbEntity
  8
_U+5207_U+65AD_U+30D1_U+30B9
 62
     1
420
 16711680
370
     9
  0
ENDBLK
  5
25F
330
25C
100
AcDbEntity
  8
0
100
AcDbBlockEnd
  0
BLOCK
  5
269
330
267
100
AcDbEntity
  8
0
100
AcDbBlockBegin
  2
block 65
 70
     0
 10
0.0
 20
0.0
 30
0.0
  3
block 65
  1

  0
POLYLINE
  5
26B
330
267
100
AcDbEntity
  8
_U+5207_U+65AD_U+30D1_U+30B9
 62
     1
420
 16711680
370
     9
100
AcDb2dPolyline
 66
     1
 10
0.0
 20
0.0
 30
0.0
  0
VERTEX
  5
26C
330
26B
100
AcDbEntity
  8
_U+5207_U+65AD_U+30D1_U+30B9
 62
     1
420
 16711680
370
     9
100
AcDbVertex
100
AcDb2dVertex
 10
-84.41459284974279
 20
-51.12237034593404
 30
0.0
  0
VERTEX
  5
26D
330
26B
100
AcDbEntity
  8
_U+5207_U+65AD_U+30D1_U+30B9
 62
     1
420
 16711680
370
     9
100
AcDbVertex
100
AcDb2dVertex
 10
-84.4145928503646
 20
-64.97335271618508
 30
0.0
  0
VERTEX
  5
26E
330
26B
100
AcDbEntity
  8
_U+5207_U+65AD_U+30D1_U+30B9
 62
     1
420
 16711680
370
     9
100
AcDbVertex
100
AcDb2dVertex
 10
-98.26557522062078
 20
-64.97335271556327
 30
0.0
  0
VERTEX
  5
26F
330
26B
100
AcDbEntity
  8
_U+5207_U+65AD_U+30D1_U+30B9
 62
     1
420
 16711680
370
     9
100
AcDbVertex
100
AcDb2dVertex
 10
-98.26557521999896
 20
-51.12237034531223
 30
0.0
  0
VERTEX
  5
270
330
26B
100
AcDbEntity
  8
_U+5207_U+65AD_U+30D1_U+30B9
 62
     1
420
 16711680
370
     9
100
AcDbVertex
100
AcDb2dVertex
 10
-84.41459284974279
 20
-51.12237034593404
 30
0.0
  0
SEQEND
  5
271
330
26B
100
AcDbEntity
  8
_U+5207_U+65AD_U+30D1_U+30B9
 62
     1
420
 16711680
370
     9
  0
ENDBLK
  5
26A
330
267
100
AcDbEntity
  8
0
100
AcDbBlockEnd
  0
BLOCK
  5
274
330
272
100
AcDbEntity
  8
0
100
AcDbBlockBegin
  2
block 66
 70
     0
 10
0.0
 20
0.0
 30
0.0
  3
block 66
  1

  0
POLYLINE
  5
276
330
272
100
AcDbEntity
  8
_U+5207_U+65AD_U+30D1_U+30B9
 62
     1
420
 16711680
370
     9
100
AcDb2dPolyline
 66
     1
 10
0.0
 20
0.0
 30
0.0
  0
VERTEX
  5
277
330
276
100
AcDbEntity
  8
_U+5207_U+65AD_U+30D1_U+30B9
 62
     1
420
 16711680
370
     9
100
AcDbVertex
100
AcDb2dVertex
 10
-103.4159405040919
 20
-15.49484349017753
 30
0.0
  0
VERTEX
  5
278
330
276
100
AcDbEntity
  8
_U+5207_U+65AD_U+30D1_U+30B9
 62
     1
420
 16711680
370
     9
100
AcDbVertex
100
AcDb2dVertex
 10
-103.4159405047137
 20
-29.34582586042985
 30
0.0
  0
VERTEX
  5
279
330
276
100
AcDbEntity
  8
_U+5207_U+65AD_U+30D1_U+30B9
 62
     1
420
 16711680
370
     9
100
AcDbVertex
100
AcDb2dVertex
 10
-117.2669228749711
 20
-29.34582585980804
 30
0.0
  0
VERTEX
  5
27A
330
276
100
AcDbEntity
  8
_U+5207_U+65AD_U+30D1_U+30B9
 62
     1
420
 16711680
370
     9
100
AcDbVertex
100
AcDb2dVertex
 10
-117.2669228743493
 20
-15.49484348955573
 30
0.0
  0
VERTEX
  5
27B
330
276
100
AcDbEntity
  8
_U+5207_U+65AD_U+30D1_U+30B9
 62
     1
420
 16711680
370
     9
100
AcDbVertex
100
AcDb2dVertex
 10
-103.4159405040919
 20
-15.49484349017753
 30
0.0
  0
SEQEND
  5
27C
330
276
100
AcDbEntity
  8
_U+5207_U+65AD_U+30D1_U+30B9
 62
     1
420
 16711680
370
     9
  0
ENDBLK
  5
275
330
272
100
AcDbEntity
  8
0
100
AcDbBlockEnd
  0
BLOCK
  5
27F
330
27D
100
AcDbEntity
  8
0
100
AcDbBlockBegin
  2
block 67
 70
     0
 10
0.0
 20
0.0
 30
0.0
  3
block 67
  1

  0
POLYLINE
  5
281
330
27D
100
AcDbEntity
  8
_U+5207_U+65AD_U+30D1_U+30B9
 62
     1
420
 16711680
370
     9
100
AcDb2dPolyline
 66
     1
 10
0.0
 20
0.0
 30
0.0
  0
VERTEX
  5
282
330
281
100
AcDbEntity
  8
_U+5207_U+65AD_U+30D1_U+30B9
 62
     1
420
 16711680
370
     9
100
AcDbVertex
100
AcDb2dVertex
 10
-103.4159405049447
 20
-34.49619114612445
 30
0.0
  0
VERTEX
  5
283
330
281
100
AcDbEntity
  8
_U+5207_U+65AD_U+30D1_U+30B9
 62
     1
420
 16711680
370
     9
100
AcDbVertex
100
AcDb2dVertex
 10
-103.4159405055665
 20
-48.34717351638319
 30
0.0
  0
VERTEX
  5
284
330
281
100
AcDbEntity
  8
_U+5207_U+65AD_U+30D1_U+30B9
 62
     1
420
 16711680
370
     9
100
AcDbVertex
100
AcDb2dVertex
 10
-117.266922875824
 20
-48.34717351576138
 30
0.0
  0
VERTEX
  5
285
330
281
100
AcDbEntity
  8
_U+5207_U+65AD_U+30D1_U+30B9
 62
     1
420
 16711680
370
     9
100
AcDbVertex
100
AcDb2dVertex
 10
-117.2669228752022
 20
-34.49619114550265
 30
0.0
  0
VERTEX
  5
286
330
281
100
AcDbEntity
  8
_U+5207_U+65AD_U+30D1_U+30B9
 62
     1
420
 16711680
370
     9
100
AcDbVertex
100
AcDb2dVertex
 10
-103.4159405049447
 20
-34.49619114612445
 30
0.0
  0
SEQEND
  5
287
330
281
100
AcDbEntity
  8
_U+5207_U+65AD_U+30D1_U+30B9
 62
     1
420
 16711680
370
     9
  0
ENDBLK
  5
280
330
27D
100
AcDbEntity
  8
0
100
AcDbBlockEnd
  0
BLOCK
  5
28A
330
288
100
AcDbEntity
  8
0
100
AcDbBlockBegin
  2
block 68
 70
     0
 10
0.0
 20
0.0
 30
0.0
  3
block 68
  1

  0
POLYLINE
  5
28C
330
288
100
AcDbEntity
  8
_U+5207_U+65AD_U+30D1_U+30B9
 62
     1
420
 16711680
370
     9
100
AcDb2dPolyline
 66
     1
 10
0.0
 20
0.0
 30
0.0
  0
VERTEX
  5
28D
330
28C
100
AcDbEntity
  8
_U+5207_U+65AD_U+30D1_U+30B9
 62
     1
420
 16711680
370
     9
100
AcDbVertex
100
AcDb2dVertex
 10
-103.4159405057982
 20
-53.49753880207138
 30
0.0
  0
VERTEX
  5
28E
330
28C
100
AcDbEntity
  8
_U+5207_U+65AD_U+30D1_U+30B9
 62
     1
420
 16711680
370
     9
100
AcDbVertex
100
AcDb2dVertex
 10
-103.41594050642
 20
-67.3485211723224
 30
0.0
  0
VERTEX
  5
28F
330
28C
100
AcDbEntity
  8
_U+5207_U+65AD_U+30D1_U+30B9
 62
     1
420
 16711680
370
     9
100
AcDbVertex
100
AcDb2dVertex
 10
-117.2669228766774
 20
-67.34852117170061
 30
0.0
  0
VERTEX
  5
290
330
28C
100
AcDbEntity
  8
_U+5207_U+65AD_U+30D1_U+30B9
 62
     1
420
 16711680
370
     9
100
AcDbVertex
100
AcDb2dVertex
 10
-117.2669228760556
 20
-53.49753880144957
 30
0.0
  0
VERTEX
  5
291
330
28C
100
AcDbEntity
  8
_U+5207_U+65AD_U+30D1_U+30B9
 62
     1
420
 16711680
370
     9
100
AcDbVertex
100
AcDb2dVertex
 10
-103.4159405057982
 20
-53.49753880207138
 30
0.0
  0
SEQEND
  5
292
330
28C
100
AcDbEntity
  8
_U+5207_U+65AD_U+30D1_U+30B9
 62
     1
420
 16711680
370
     9
  0
ENDBLK
  5
28B
330
288
100
AcDbEntity
  8
0
100
AcDbBlockEnd
  0
BLOCK
  5
295
330
293
100
AcDbEntity
  8
0
100
AcDbBlockBegin
  2
block 69
 70
     0
 10
0.0
 20
0.0
 30
0.0
  3
block 69
  1

  0
POLYLINE
  5
297
330
293
100
AcDbEntity
  8
_U+5207_U+65AD_U+30D1_U+30B9
 62
     1
420
 16711680
370
     9
100
AcDb2dPolyline
 66
     1
 10
0.0
 20
0.0
 30
0.0
  0
VERTEX
  5
298
330
297
100
AcDbEntity
  8
_U+5207_U+65AD_U+30D1_U+30B9
 62
     1
420
 16711680
370
     9
100
AcDbVertex
100
AcDb2dVertex
 10
-74.91391902265295
 20
-70.74876233308746
 30
0.0
  0
VERTEX
  5
299
330
297
100
AcDbEntity
  8
_U+5207_U+65AD_U+30D1_U+30B9
 62
     1
420
 16711680
370
     9
100
AcDbVertex
100
AcDb2dVertex
 10
-74.9139190232754
 20
-84.59974470334362
 30
0.0
  0
VERTEX
  5
29A
330
297
100
AcDbEntity
  8
_U+5207_U+65AD_U+30D1_U+30B9
 62
     1
420
 16711680
370
     9
100
AcDbVertex
100
AcDb2dVertex
 10
-88.76490139353028
 20
-84.59974470272117
 30
0.0
  0
VERTEX
  5
29B
330
297
100
AcDbEntity
  8
_U+5207_U+65AD_U+30D1_U+30B9
 62
     1
420
 16711680
370
     9
100
AcDbVertex
100
AcDb2dVertex
 10
-88.76490139290783
 20
-70.748762332465
 30
0.0
  0
VERTEX
  5
29C
330
297
100
AcDbEntity
  8
_U+5207_U+65AD_U+30D1_U+30B9
 62
     1
420
 16711680
370
     9
100
AcDbVertex
100
AcDb2dVertex
 10
-74.91391902265295
 20
-70.74876233308746
 30
0.0
  0
SEQEND
  5
29D
330
297
100
AcDbEntity
  8
_U+5207_U+65AD_U+30D1_U+30B9
 62
     1
420
 16711680
370
     9
  0
ENDBLK
  5
296
330
293
100
AcDbEntity
  8
0
100
AcDbBlockEnd
  0
BLOCK
  5
2A0
330
29E
100
AcDbEntity
  8
0
100
AcDbBlockBegin
  2
block 70
 70
     0
 10
0.0
 20
0.0
 30
0.0
  3
block 70
  1

  0
POLYLINE
  5
2A2
330
29E
100
AcDbEntity
  8
_U+5207_U+65AD_U+30D1_U+30B9
 62
     1
420
 16711680
370
     9
100
AcDb2dPolyline
 66
     1
 10
0.0
 20
0.0
 30
0.0
  0
VERTEX
  5
2A3
330
2A2
100
AcDbEntity
  8
_U+5207_U+65AD_U+30D1_U+30B9
 62
     1
420
 16711680
370
     9
100
AcDbVertex
100
AcDb2dVertex
 10
-97.94306207467662
 20
-71.9483036827623
 30
0.0
  0
VERTEX
  5
2A4
330
2A2
100
AcDbEntity
  8
_U+5207_U+65AD_U+30D1_U+30B9
 62
     1
420
 16711680
370
     9
100
AcDbVertex
100
AcDb2dVertex
 10
-94.37175879597542
 20
-85.33096057564796
 30
0.0
  0
VERTEX
  5
2A5
330
2A2
100
AcDbEntity
  8
_U+5207_U+65AD_U+30D1_U+30B9
 62
     1
420
 16711680
370
     9
100
AcDbVertex
100
AcDb2dVertex
 10
-107.7544156888585
 20
-88.90226385435237
 30
0.0
  0
VERTEX
  5
2A6
330
2A2
100
AcDbEntity
  8
_U+5207_U+65AD_U+30D1_U+30B9
 62
     1
420
 16711680
370
     9
100
AcDbVertex
100
AcDb2dVertex
 10
-111.3257189675584
 20
-75.51960696146543
 30
0.0
  0
VERTEX
  5
2A7
330
2A2
100
AcDbEntity
  8
_U+5207_U+65AD_U+30D1_U+30B9
 62
     1
420
 16711680
370
     9
100
AcDbVertex
100
AcDb2dVertex
 10
-97.94306207467662
 20
-71.9483036827623
 30
0.0
  0
SEQEND
  5
2A8
330
2A2
100
AcDbEntity
  8
_U+5207_U+65AD_U+30D1_U+30B9
 62
     1
420
 16711680
370
     9
  0
ENDBLK
  5
2A1
330
29E
100
AcDbEntity
  8
0
100
AcDbBlockEnd
  0
BLOCK
  5
2AB
330
2A9
100
AcDbEntity
  8
0
100
AcDbBlockBegin
  2
block 71
 70
     0
 10
0.0
 20
0.0
 30
0.0
  3
block 71
  1

  0
POLYLINE
  5
2AD
330
2A9
100
AcDbEntity
  8
_U+5207_U+65AD_U+30D1_U+30B9
 62
     1
420
 16711680
370
     9
100
AcDb2dPolyline
 66
     1
 10
0.0
 20
0.0
 30
0.0
  0
VERTEX
  5
2AE
330
2AD
100
AcDbEntity
  8
_U+5207_U+65AD_U+30D1_U+30B9
 62
     1
420
 16711680
370
     9
100
AcDbVertex
100
AcDb2dVertex
 10
-122.555654032057
 20
-74.70994072339047
 30
0.0
  0
VERTEX
  5
2AF
330
2AD
100
AcDbEntity
  8
_U+5207_U+65AD_U+30D1_U+30B9
 62
     1
420
 16711680
370
     9
100
AcDbVertex
100
AcDb2dVertex
 10
-115.6383493845405
 20
-86.70996609980293
 30
0.0
  0
VERTEX
  5
2B0
330
2AD
100
AcDbEntity
  8
_U+5207_U+65AD_U+30D1_U+30B9
 62
     1
420
 16711680
370
     9
100
AcDbVertex
100
AcDb2dVertex
 10
-127.6383747609604
 20
-93.62727074731653
 30
0.0
  0
VERTEX
  5
2B1
330
2AD
100
AcDbEntity
  8
_U+5207_U+65AD_U+30D1_U+30B9
 62
     1
420
 16711680
370
     9
100
AcDbVertex
100
AcDb2dVertex
 10
-134.5556794084743
 20
-81.62724537089638
 30
0.0
  0
VERTEX
  5
2B2
330
2AD
100
AcDbEntity
  8
_U+5207_U+65AD_U+30D1_U+30B9
 62
     1
420
 16711680
370
     9
100
AcDbVertex
100
AcDb2dVertex
 10
-122.555654032057
 20
-74.70994072339047
 30
0.0
  0
SEQEND
  5
2B3
330
2AD
100
AcDbEntity
  8
_U+5207_U+65AD_U+30D1_U+30B9
 62
     1
420
 16711680
370
     9
  0
ENDBLK
  5
2AC
330
2A9
100
AcDbEntity
  8
0
100
AcDbBlockEnd
  0
BLOCK
  5
2B6
330
2B4
100
AcDbEntity
  8
0
100
AcDbBlockBegin
  2
block 72
 70
     0
 10
0.0
 20
0.0
 30
0.0
  3
block 72
  1

  0
INSERT
  5
2B9
330
2B4
100
AcDbEntity
  8
_U+5207_U+65AD_U+30D1_U+30B9
100
AcDbBlockReference
  2
block 73
 10
0.0
 20
0.0
 30
0.0
  0
INSERT
  5
2BE
330
2B4
100
AcDbEntity
  8
_U+5207_U+65AD_U+30D1_U+30B9
100
AcDbBlockReference
  2
block 74
 10
0.0
 20
0.0
 30
0.0
  0
INSERT
  5
2C3
330
2B4
100
AcDbEntity
  8
_U+5207_U+65AD_U+30D1_U+30B9
100
AcDbBlockReference
  2
block 75
 10
0.0
 20
0.0
 30
0.0
  0
ENDBLK
  5
2B7
330
2B4
100
AcDbEntity
  8
0
100
AcDbBlockEnd
  0
BLOCK
  5
2BA
330
2B8
100
AcDbEntity
  8
0
100
AcDbBlockBegin
  2
block 73
 70
     0
 10
0.0
 20
0.0
 30
0.0
  3
block 73
  1

  0
SPLINE
  5
2BC
330
2B8
100
AcDbEntity
  8
_U+5207_U+65AD_U+30D1_U+30B9
 62
     1
420
 16711680
370
     9
100
AcDbSpline
210
0.0
220
0.0
230
1.0
 70
    11
 71
     3
 72
    32
 73
    28
 74
     0
 42
0.0000000001
 43
0.0000000001
 12
1.0
 22
0.0
 32
0.0
 13
1.0
 23
0.0
 33
0.0
 40
0.0
 40
0.0
 40
0.0
 40
0.0
 40
1.0
 40
1.0
 40
1.0
 40
2.0
 40
2.0
 40
2.0
 40
3.0
 40
3.0
 40
3.0
 40
4.0
 40
4.0
 40
4.0
 40
5.0
 40
5.0
 40
5.0
 40
6.0
 40
6.0
 40
6.0
 40
7.0
 40
7.0
 40
7.0
 40
8.0
 40
8.0
 40
8.0
 40
9.0
 40
9.0
 40
9.0
 40
9.0
 10
122.8562712132562
 20
91.82137069036544
 30
0.0
 10
122.8562712132562
 20
91.82137069036544
 30
0.0
 10
122.8562702843417
 20
44.46478396943603
 30
0.0
 10
122.8562702843417
 20
44.46478396943603
 30
0.0
 10
122.9161198665076
 20
43.94203304537287
 30
0.0
 10
123.1504764371859
 20
43.68363305181479
 30
0.0
 10
123.4951607625023
 20
43.38301986222552
 30
0.0
 10
123.4951607625023
 20
43.38301986222552
 30
0.0
 10
142.3349506191474
 20
32.52660445328262
 30
0.0
 10
142.3349506191474
 20
32.52660445328262
 30
0.0
 10
142.739654439789
 20
32.35648758021442
 30
0.0
 10
143.2056386821022
 20
32.54665787542139
 30
0.0
 10
143.3757555551717
 20
32.95136169606749
 30
0.0
 10
143.4008161714453
 20
33.01098028044251
 30
0.0
 10
143.4185074412275
 20
33.07343439547922
 30
0.0
 10
143.4284370580309
 20
33.13733911205473
 30
0.0
 10
143.4284370580309
 20
33.13733911205473
 30
0.0
 10
143.4272683858819
 20
91.81106140258242
 30
0.0
 10
143.4272683858819
 20
91.81106140258242
 30
0.0
 10
143.4272682216364
 20
92.08722336407223
 30
0.0
 10
143.2033945853472
 20
92.31109673406792
 30
0.0
 10
142.9272326238587
 20
92.3110965698212
 30
0.0
 10
142.9272326238587
 20
92.3110965698212
 30
0.0
 10
123.3564986721562
 20
92.32190411856665
 30
0.0
 10
123.3564986721562
 20
92.32190411856665
 30
0.0
 10
123.0802617038454
 20
92.32154117743502
 30
0.0
 10
122.8564652427912
 20
92.09760782896463
 30
0.0
 10
122.8562712132562
 20
91.82137069036544
 30
0.0
  0
ENDBLK
  5
2BB
330
2B8
100
AcDbEntity
  8
0
100
AcDbBlockEnd
  0
BLOCK
  5
2BF
330
2BD
100
AcDbEntity
  8
0
100
AcDbBlockBegin
  2
block 74
 70
     0
 10
0.0
 20
0.0
 30
0.0
  3
block 74
  1

  0
SPLINE
  5
2C1
330
2BD
100
AcDbEntity
  8
_U+5207_U+65AD_U+30D1_U+30B9
 62
     1
420
 16711680
370
     9
100
AcDbSpline
210
0.0
220
0.0
230
1.0
 70
    11
 71
     3
 72
    20
 73
    16
 74
     0
 42
0.0000000001
 43
0.0000000001
 12
1.0
 22
0.0
 32
0.0
 13
1.0
 23
0.0
 33
0.0
 40
0.0
 40
0.0
 40
0.0
 40
0.0
 40
1.0
 40
1.0
 40
1.0
 40
2.0
 40
2.0
 40
2.0
 40
3.0
 40
3.0
 40
3.0
 40
4.0
 40
4.0
 40
4.0
 40
5.0
 40
5.0
 40
5.0
 40
5.0
 10
125.3334858814165
 20
44.84797907704251
 30
0.0
 10
125.3334855200757
 20
45.45553539231379
 30
0.0
 10
125.826006934061
 20
45.94805739214718
 30
0.0
 10
126.4335632493381
 20
45.94805775348727
 30
0.0
 10
127.0411195646125
 20
45.94805811482671
 30
0.0
 10
127.5336415644472
 20
45.45553670084209
 30
0.0
 10
127.5336419257879
 20
44.84798038557145
 30
0.0
 10
127.5336422871287
 20
44.24042407029247
 30
0.0
 10
127.0411208731415
 20
43.74790207045843
 30
0.0
 10
126.4335645578676
 20
43.74790170911835
 30
0.0
 10
125.8260082425906
 20
43.74790134777826
 30
0.0
 10
125.3334862427572
 20
44.24042276176289
 30
0.0
 10
125.3334858814165
 20
44.84797907704251
 30
0.0
 10
125.3334858814165
 20
44.84797907704251
 30
0.0
 10
125.3334858814165
 20
44.84797907704251
 30
0.0
 10
125.3334858814165
 20
44.84797907704251
 30
0.0
  0
ENDBLK
  5
2C0
330
2BD
100
AcDbEntity
  8
0
100
AcDbBlockEnd
  0
BLOCK
  5
2C4
330
2C2
100
AcDbEntity
  8
0
100
AcDbBlockBegin
  2
block 75
 70
     0
 10
0.0
 20
0.0
 30
0.0
  3
block 75
  1

  0
SPLINE
  5
2C6
330
2C2
100
AcDbEntity
  8
_U+5207_U+65AD_U+30D1_U+30B9
 62
     1
420
 16711680
370
     9
100
AcDbSpline
210
0.0
220
0.0
230
1.0
 70
    11
 71
     3
 72
    20
 73
    16
 74
     0
 42
0.0000000001
 43
0.0000000001
 12
1.0
 22
0.0
 32
0.0
 13
1.0
 23
0.0
 33
0.0
 40
0.0
 40
0.0
 40
0.0
 40
0.0
 40
1.0
 40
1.0
 40
1.0
 40
2.0
 40
2.0
 40
2.0
 40
3.0
 40
3.0
 40
3.0
 40
4.0
 40
4.0
 40
4.0
 40
5.0
 40
5.0
 40
5.0
 40
5.0
 10
139.83451941137
 20
36.34738480272826
 30
0.0
 10
139.8345190500286
 20
36.9549411180066
 30
0.0
 10
140.3270404640171
 20
37.44746311783165
 30
0.0
 10
140.9345967792884
 20
37.44746347917238
 30
0.0
 10
141.5421530945667
 20
37.44746384051247
 30
0.0
 10
142.0346750944027
 20
36.95494242653554
 30
0.0
 10
142.0346754557428
 20
36.3473861112572
 30
0.0
 10
142.0346758170848
 20
35.73982979597373
 30
0.0
 10
141.5421544030963
 20
35.24730779614033
 30
0.0
 10
140.934598087818
 20
35.24730743480025
 30
0.0
 10
140.327041772546
 20
35.24730707345952
 30
0.0
 10
139.8345197727107
 20
35.73982848744479
 30
0.0
 10
139.83451941137
 20
36.34738480272826
 30
0.0
 10
139.83451941137
 20
36.34738480272826
 30
0.0
 10
139.83451941137
 20
36.34738480272826
 30
0.0
 10
139.83451941137
 20
36.34738480272826
 30
0.0
  0
ENDBLK
  5
2C5
330
2C2
100
AcDbEntity
  8
0
100
AcDbBlockEnd
  0
BLOCK
  5
2C9
330
2C7
100
AcDbEntity
  8
0
100
AcDbBlockBegin
  2
block 76
 70
     0
 10
0.0
 20
0.0
 30
0.0
  3
block 76
  1

  0
INSERT
  5
2CC
330
2C7
100
AcDbEntity
  8
_U+5207_U+65AD_U+30D1_U+30B9
100
AcDbBlockReference
  2
block 77
 10
0.0
 20
0.0
 30
0.0
  0
INSERT
  5
2D1
330
2C7
100
AcDbEntity
  8
_U+5207_U+65AD_U+30D1_U+30B9
100
AcDbBlockReference
  2
block 78
 10
0.0
 20
0.0
 30
0.0
  0
INSERT
  5
2D6
330
2C7
100
AcDbEntity
  8
_U+5207_U+65AD_U+30D1_U+30B9
100
AcDbBlockReference
  2
block 79
 10
0.0
 20
0.0
 30
0.0
  0
ENDBLK
  5
2CA
330
2C7
100
AcDbEntity
  8
0
100
AcDbBlockEnd
  0
BLOCK
  5
2CD
330
2CB
100
AcDbEntity
  8
0
100
AcDbBlockBegin
  2
block 77
 70
     0
 10
0.0
 20
0.0
 30
0.0
  3
block 77
  1

  0
SPLINE
  5
2CF
330
2CB
100
AcDbEntity
  8
_U+5207_U+65AD_U+30D1_U+30B9
 62
     1
420
 16711680
370
     9
100
AcDbSpline
210
0.0
220
0.0
230
1.0
 70
    11
 71
     3
 72
    32
 73
    28
 74
     0
 42
0.0000000001
 43
0.0000000001
 12
1.0
 22
0.0
 32
0.0
 13
1.0
 23
0.0
 33
0.0
 40
0.0
 40
0.0
 40
0.0
 40
0.0
 40
1.0
 40
1.0
 40
1.0
 40
2.0
 40
2.0
 40
2.0
 40
3.0
 40
3.0
 40
3.0
 40
4.0
 40
4.0
 40
4.0
 40
5.0
 40
5.0
 40
5.0
 40
6.0
 40
6.0
 40
6.0
 40
7.0
 40
7.0
 40
7.0
 40
8.0
 40
8.0
 40
8.0
 40
9.0
 40
9.0
 40
9.0
 40
9.0
 10
-123.0964896706303
 20
-13.31024447570726
 30
0.0
 10
-123.0964896706303
 20
-13.31024447570726
 30
0.0
 10
-123.0964887438417
 20
-60.66683119663666
 30
0.0
 10
-123.0964887438417
 20
-60.66683119663666
 30
0.0
 10
-123.1563383260311
 20
-61.18958212069727
 30
0.0
 10
-123.3906948967213
 20
-61.44798211424508
 30
0.0
 10
-123.7353792220511
 20
-61.74859530381895
 30
0.0
 10
-123.7353792220511
 20
-61.74859530381895
 30
0.0
 10
-142.5751690791836
 20
-72.6050107119161
 30
0.0
 10
-142.5751690791836
 20
-72.6050107119161
 30
0.0
 10
-142.9798728998329
 20
-72.77512758496567
 30
0.0
 10
-143.4458571421375
 20
-72.58495728973817
 30
0.0
 10
-143.6159740151887
 20
-72.18025346908438
 30
0.0
 10
-143.6410346314597
 20
-72.12063488470807
 30
0.0
 10
-143.6587259012389
 20
-72.05818076967071
 30
0.0
 10
-143.6686555180395
 20
-71.99427605309457
 30
0.0
 10
-143.6686555180395
 20
-71.99427605309457
 30
0.0
 10
-143.6674868432563
 20
-13.32055376256687
 30
0.0
 10
-143.6674868432563
 20
-13.32055376256687
 30
0.0
 10
-143.6674866789984
 20
-13.04439180107707
 30
0.0
 10
-143.4436130426992
 20
-12.82051843109164
 30
0.0
 10
-143.1674510812106
 20
-12.82051859535055
 30
0.0
 10
-143.1674510812106
 20
-12.82051859535055
 30
0.0
 10
-123.5967171295079
 20
-12.80971104748359
 30
0.0
 10
-123.5967171295079
 20
-12.80971104748359
 30
0.0
 10
-123.320480161197
 20
-12.81007398862806
 30
0.0
 10
-123.0966837001528
 20
-13.03400733710807
 30
0.0
 10
-123.0964896706303
 20
-13.31024447570726
 30
0.0
  0
ENDBLK
  5
2CE
330
2CB
100
AcDbEntity
  8
0
100
AcDbBlockEnd
  0
BLOCK
  5
2D2
330
2D0
100
AcDbEntity
  8
0
100
AcDbBlockBegin
  2
block 78
 70
     0
 10
0.0
 20
0.0
 30
0.0
  3
block 78
  1

  0
SPLINE
  5
2D4
330
2D0
100
AcDbEntity
  8
_U+5207_U+65AD_U+30D1_U+30B9
 62
     1
420
 16711680
370
     9
100
AcDbSpline
210
0.0
220
0.0
230
1.0
 70
    11
 71
     3
 72
    20
 73
    16
 74
     0
 42
0.0000000001
 43
0.0000000001
 12
1.0
 22
0.0
 32
0.0
 13
1.0
 23
0.0
 33
0.0
 40
0.0
 40
0.0
 40
0.0
 40
0.0
 40
1.0
 40
1.0
 40
1.0
 40
2.0
 40
2.0
 40
2.0
 40
3.0
 40
3.0
 40
3.0
 40
4.0
 40
4.0
 40
4.0
 40
5.0
 40
5.0
 40
5.0
 40
5.0
 10
-125.5737043408995
 20
-60.28363608891917
 30
0.0
 10
-125.5737039795315
 20
-59.6760797736479
 30
0.0
 10
-126.0662253934946
 20
-59.18355777379269
 30
0.0
 10
-126.6737817087717
 20
-59.183557412425
 30
0.0
 10
-127.2813380240462
 20
-59.18355705105861
 30
0.0
 10
-127.773860023903
 20
-59.67607846502078
 30
0.0
 10
-127.773860385271
 20
-60.28363478029141
 30
0.0
 10
-127.773860746639
 20
-60.8911910955704
 30
0.0
 10
-127.2813393326739
 20
-61.38371309542689
 30
0.0
 10
-126.6737830174001
 20
-61.38371345679393
 30
0.0
 10
-126.066226702123
 20
-61.38371381816161
 30
0.0
 10
-125.5737047022675
 20
-60.8911924041988
 30
0.0
 10
-125.5737043408995
 20
-60.28363608891917
 30
0.0
 10
-125.5737043408995
 20
-60.28363608891917
 30
0.0
 10
-125.5737043408995
 20
-60.28363608891917
 30
0.0
 10
-125.5737043408995
 20
-60.28363608891917
 30
0.0
  0
ENDBLK
  5
2D3
330
2D0
100
AcDbEntity
  8
0
100
AcDbBlockEnd
  0
BLOCK
  5
2D7
330
2D5
100
AcDbEntity
  8
0
100
AcDbBlockBegin
  2
block 79
 70
     0
 10
0.0
 20
0.0
 30
0.0
  3
block 79
  1

  0
SPLINE
  5
2D9
330
2D5
100
AcDbEntity
  8
_U+5207_U+65AD_U+30D1_U+30B9
 62
     1
420
 16711680
370
     9
100
AcDbSpline
210
0.0
220
0.0
230
1.0
 70
    11
 71
     3
 72
    20
 73
    16
 74
     0
 42
0.0000000001
 43
0.0000000001
 12
1.0
 22
0.0
 32
0.0
 13
1.0
 23
0.0
 33
0.0
 40
0.0
 40
0.0
 40
0.0
 40
0.0
 40
1.0
 40
1.0
 40
1.0
 40
2.0
 40
2.0
 40
2.0
 40
3.0
 40
3.0
 40
3.0
 40
4.0
 40
4.0
 40
4.0
 40
5.0
 40
5.0
 40
5.0
 40
5.0
 10
-140.0747378712345
 20
-68.78423036258273
 30
0.0
 10
-140.0747375098659
 20
-68.1766740473044
 30
0.0
 10
-140.5672589238322
 20
-67.68415204745689
 30
0.0
 10
-141.1748152391035
 20
-67.68415168608921
 30
0.0
 10
-141.7823715543819
 20
-67.68415132472153
 30
0.0
 10
-142.27489355424
 20
-68.17667273867664
 30
0.0
 10
-142.2748939156073
 20
-68.78422905395497
 30
0.0
 10
-142.2748942769766
 20
-69.39178536923845
 30
0.0
 10
-141.7823728630103
 20
-69.88430736909366
 30
0.0
 10
-141.1748165477319
 20
-69.88430773046134
 30
0.0
 10
-140.56726023246
 20
-69.88430809182903
 30
0.0
 10
-140.0747382326025
 20
-69.39178667786621
 30
0.0
 10
-140.0747378712345
 20
-68.78423036258273
 30
0.0
 10
-140.0747378712345
 20
-68.78423036258273
 30
0.0
 10
-140.0747378712345
 20
-68.78423036258273
 30
0.0
 10
-140.0747378712345
 20
-68.78423036258273
 30
0.0
  0
ENDBLK
  5
2D8
330
2D5
100
AcDbEntity
  8
0
100
AcDbBlockEnd
  0
ENDSEC
  0
SECTION
  2
ENTITIES
  0
SPLINE
  5
41
330
1F
100
AcDbEntity
  8
_U+5F6B_U+523B_U+30D1_U+30B9
370
     0
100
AcDbSpline
210
0.0
220
0.0
230
1.0
 70
    11
 71
     3
 72
   107
 73
   103
 74
     0
 42
0.0000000001
 43
0.0000000001
 12
1.0
 22
0.0
 32
0.0
 13
1.0
 23
0.0
 33
0.0
 40
0.0
 40
0.0
 40
0.0
 40
0.0
 40
1.0
 40
1.0
 40
1.0
 40
2.0
 40
2.0
 40
2.0
 40
3.0
 40
3.0
 40
3.0
 40
4.0
 40
4.0
 40
4.0
 40
5.0
 40
5.0
 40
5.0
 40
6.0
 40
6.0
 40
6.0
 40
7.0
 40
7.0
 40
7.0
 40
8.0
 40
8.0
 40
8.0
 40
9.0
 40
9.0
 40
9.0
 40
10.0
 40
10.0
 40
10.0
 40
11.0
 40
11.0
 40
11.0
 40
12.0
 40
12.0
 40
12.0
 40
13.0
 40
13.0
 40
13.0
 40
14.0
 40
14.0
 40
14.0
 40
15.0
 40
15.0
 40
15.0
 40
16.0
 40
16.0
 40
16.0
 40
17.0
 40
17.0
 40
17.0
 40
18.0
 40
18.0
 40
18.0
 40
19.0
 40
19.0
 40
19.0
 40
20.0
 40
20.0
 40
20.0
 40
21.0
 40
21.0
 40
21.0
 40
22.0
 40
22.0
 40
22.0
 40
23.0
 40
23.0
 40
23.0
 40
24.0
 40
24.0
 40
24.0
 40
25.0
 40
25.0
 40
25.0
 40
26.0
 40
26.0
 40
26.0
 40
27.0
 40
27.0
 40
27.0
 40
28.0
 40
28.0
 40
28.0
 40
29.0
 40
29.0
 40
29.0
 40
30.0
 40
30.0
 40
30.0
 40
31.0
 40
31.0
 40
31.0
 40
32.0
 40
32.0
 40
32.0
 40
33.0
 40
33.0
 40
33.0
 40
34.0
 40
34.0
 40
34.0
 40
34.0
 10
-124.8104165129979
 20
43.16473317030082
 30
0.0
 10
-124.7947420008366
 20
42.48904067700705
 30
0.0
 10
-125.4262371526249
 20
40.40505522486141
 30
0.0
 10
-127.0085077758225
 20
40.40505522486141
 30
0.0
 10
-127.4603946132653
 20
40.40505522486141
 30
0.0
 10
-127.8922589462686
 20
40.6223896188731
 30
0.0
 10
-128.1356668006385
 20
40.98875144820946
 30
0.0
 10
-128.3750737933431
 20
41.34981678574925
 30
0.0
 10
-128.4674620913651
 20
41.7936743419988
 30
0.0
 10
-128.4674620913651
 20
42.2973956707056
 30
0.0
 10
-128.463853257775
 20
43.39408976295984
 30
0.0
 10
-128.0236045463289
 20
44.83294910752389
 30
0.0
 10
-127.1045404319342
 20
46.46393898419653
 30
0.0
 10
-126.2091438888381
 20
48.04023111801378
 30
0.0
 10
-125.7138423485006
 20
49.41482713671011
 30
0.0
 10
-125.721871640907
 20
50.44372878269852
 30
0.0
 10
-125.721871640907
 20
50.98524223429579
 30
0.0
 10
-125.8459995737875
 20
51.42528079278225
 30
0.0
 10
-126.1014731067297
 20
51.80452717256908
 30
0.0
 10
-126.3613670984872
 20
52.18207058871226
 30
0.0
 10
-126.7691000743482
 20
52.51411951232244
 30
0.0
 10
-127.3921376475547
 20
52.78367329359062
 30
0.0
 10
-127.8480326181478
 20
52.97927497286474
 30
0.0
 10
-128.2874986909831
 20
53.06724210330174
 30
0.0
 10
-128.7028696399457
 20
53.06724210330174
 30
0.0
 10
-129.6022663359371
 20
53.06724210330174
 30
0.0
 10
-130.4610745240142
 20
52.66371943329703
 30
0.0
 10
-131.2246906678216
 20
51.94669927340226
 30
0.0
 10
-131.9923504444458
 20
51.22911387451094
 30
0.0
 10
-132.6515568003524
 20
50.20374859557333
 30
0.0
 10
-133.1114801768552
 20
49.03501551792865
 30
0.0
 10
-133.4746244919064
 20
48.11991532315895
 30
0.0
 10
-134.0185148459483
 20
46.20563925627443
 30
0.0
 10
-134.0185148459483
 20
44.23517263585212
 30
0.0
 10
-134.0185148459483
 20
43.43825087119566
 30
0.0
 10
-133.922090870532
 20
42.63729996702919
 30
0.0
 10
-133.7144597459556
 20
41.88170586897565
 30
0.0
 10
-135.7245220827212
 20
44.70924872721951
 30
0.0
 10
-134.7018163257291
 20
48.5191842073857
 30
0.0
 10
-133.8582261106238
 20
50.28188201680737
 30
0.0
 10
-134.1779919560485
 20
50.4100390891989
 30
0.0
 10
-134.5061778592986
 20
50.47592566551638
 30
0.0
 10
-134.8411906727737
 20
50.47592566551638
 30
0.0
 10
-134.8612934358283
 20
50.47592566551638
 30
0.0
 10
-134.8817797261108
 20
50.47592566551638
 30
0.0
 10
-134.8974180050038
 20
50.47387486249206
 30
0.0
 10
-135.9040941637993
 20
50.45158415541514
 30
0.0
 10
-136.8476442266374
 20
49.83639397466905
 30
0.0
 10
-137.5671070035985
 20
48.75144670821625
 30
0.0
 10
-138.2825401463116
 20
47.66841255836707
 30
0.0
 10
-138.7380358173448
 20
46.14159426320187
 30
0.0
 10
-138.7340356644488
 20
44.44733291905206
 30
0.0
 10
-138.7340356644488
 20
44.37543162008424
 30
0.0
 10
-138.7340356644488
 20
44.30551590425354
 30
0.0
 10
-138.7340356644488
 20
44.23361460528508
 30
0.0
 10
-138.7103318598805
 20
43.00847357448672
 30
0.0
 10
-138.4460101626528
 20
41.87760426292701
 30
0.0
 10
-138.0262549881435
 20
40.93447401127337
 30
0.0
 10
-139.0216404205095
 20
42.08332310156219
 30
0.0
 10
-140.0925730983335
 20
44.09377592697482
 30
0.0
 10
-139.5771689145824
 20
46.98896629840853
 30
0.0
 10
-139.7089424930001
 20
47.02109796134176
 30
0.0
 10
-139.8367154927397
 20
47.03716379280709
 30
0.0
 10
-139.9648363318622
 20
47.03716379280709
 30
0.0
 10
-139.9648363318622
 20
47.03716379280709
 30
0.0
 10
-139.9732569435731
 20
47.03716379280709
 30
0.0
 10
-139.9732569435731
 20
47.03716379280709
 30
0.0
 10
-140.0528034622979
 20
47.03716379280709
 30
0.0
 10
-140.128704914163
 20
47.03291725368247
 30
0.0
 10
-140.2086717388074
 20
47.01911962485414
 30
0.0
 10
-140.7839111171742
 20
46.93673966449676
 30
0.0
 10
-141.2916696553869
 20
46.56173982383584
 30
0.0
 10
-141.6877210253276
 20
45.91803498793099
 30
0.0
 10
-142.0745401583315
 20
45.27878498904929
 30
0.0
 10
-142.3147667316853
 20
44.38944664852524
 30
0.0
 10
-142.3147667316853
 20
43.40010448561146
 30
0.0
 10
-142.3147667316853
 20
43.10202787500077
 30
0.0
 10
-142.2946641569216
 20
42.79674084386007
 30
0.0
 10
-142.2505034058179
 20
42.48500513165038
 30
0.0
 10
-142.091033180096
 20
41.36630211100726
 30
0.0
 10
-141.6511689035778
 20
40.39097497653513
 30
0.0
 10
-141.0915746632333
 20
39.71973917532722
 30
0.0
 10
-140.5328218097783
 20
39.04411914857143
 30
0.0
 10
-139.8728400619158
 20
38.6926137045202
 30
0.0
 10
-139.2534033420448
 20
38.6926137045202
 30
0.0
 10
-138.37810901658
 20
38.6926137045202
 30
0.0
 10
-137.6345878437501
 20
39.19995194963057
 30
0.0
 10
-137.1995417438856
 20
39.56150124302615
 30
0.0
 10
-136.480108934122
 20
38.66493798866924
 30
0.0
 10
-135.5931759562347
 20
38.16878858983761
 30
0.0
 10
-134.6777212018558
 20
38.16878858983761
 30
0.0
 10
-133.7345184836639
 20
38.16878858983761
 30
0.0
 10
-132.7632277353564
 20
38.72233148673685
 30
0.0
 10
-132.0919550860044
 20
39.22769138254423
 30
0.0
 10
-131.6284234907857
 20
38.82431364561549
 30
0.0
 10
-131.0648294850701
 20
38.47690906261122
 30
0.0
 10
-130.3694979016007
 20
38.20494939228342
 30
0.0
 10
-129.7818384170136
 20
37.97516524704854
 30
0.0
 10
-129.2310854818263
 20
37.87516867131087
 30
0.0
 10
-128.715326637821
 20
37.87516867131087
 30
0.0
 10
-123.7676085383739
 20
37.87516867131087
 30
0.0
 10
-124.2030454716985
 20
42.50913648940255
 30
0.0
 10
-124.8104165129979
 20
43.16473317030082
 30
0.0
  0
HATCH
  5
42
330
1F
100
AcDbEntity
  8
_U+5F6B_U+523B_U+30D1_U+30B9
 62
     7
420
 16777215
100
AcDbHatch
 10
0.0
 20
0.0
 30
0.0
210
0.0
220
0.0
230
1.0
  2
SOLID
 70
     1
 71
     0
 91
        1
 92
        1
 93
        1
 72
     4
 94
        3
 73
     0
 74
     1
 95
      107
 96
      103
 40
0.0
 40
0.0
 40
0.0
 40
0.0
 40
1.0
 40
1.0
 40
1.0
 40
2.0
 40
2.0
 40
2.0
 40
3.0
 40
3.0
 40
3.0
 40
4.0
 40
4.0
 40
4.0
 40
5.0
 40
5.0
 40
5.0
 40
6.0
 40
6.0
 40
6.0
 40
7.0
 40
7.0
 40
7.0
 40
8.0
 40
8.0
 40
8.0
 40
9.0
 40
9.0
 40
9.0
 40
10.0
 40
10.0
 40
10.0
 40
11.0
 40
11.0
 40
11.0
 40
12.0
 40
12.0
 40
12.0
 40
13.0
 40
13.0
 40
13.0
 40
14.0
 40
14.0
 40
14.0
 40
15.0
 40
15.0
 40
15.0
 40
16.0
 40
16.0
 40
16.0
 40
17.0
 40
17.0
 40
17.0
 40
18.0
 40
18.0
 40
18.0
 40
19.0
 40
19.0
 40
19.0
 40
20.0
 40
20.0
 40
20.0
 40
21.0
 40
21.0
 40
21.0
 40
22.0
 40
22.0
 40
22.0
 40
23.0
 40
23.0
 40
23.0
 40
24.0
 40
24.0
 40
24.0
 40
25.0
 40
25.0
 40
25.0
 40
26.0
 40
26.0
 40
26.0
 40
27.0
 40
27.0
 40
27.0
 40
28.0
 40
28.0
 40
28.0
 40
29.0
 40
29.0
 40
29.0
 40
30.0
 40
30.0
 40
30.0
 40
31.0
 40
31.0
 40
31.0
 40
32.0
 40
32.0
 40
32.0
 40
33.0
 40
33.0
 40
33.0
 40
34.0
 40
34.0
 40
34.0
 40
34.0
 10
-124.8104165129979
 20
43.16473317030082
 10
-124.7947420008366
 20
42.48904067700705
 10
-125.4262371526249
 20
40.40505522486141
 10
-127.0085077758225
 20
40.40505522486141
 10
-127.4603946132653
 20
40.40505522486141
 10
-127.8922589462686
 20
40.6223896188731
 10
-128.1356668006385
 20
40.98875144820946
 10
-128.3750737933431
 20
41.34981678574925
 10
-128.4674620913651
 20
41.7936743419988
 10
-128.4674620913651
 20
42.2973956707056
 10
-128.463853257775
 20
43.39408976295984
 10
-128.0236045463289
 20
44.83294910752389
 10
-127.1045404319342
 20
46.46393898419653
 10
-126.2091438888381
 20
48.04023111801378
 10
-125.7138423485006
 20
49.41482713671011
 10
-125.721871640907
 20
50.44372878269852
 10
-125.721871640907
 20
50.98524223429579
 10
-125.8459995737875
 20
51.42528079278225
 10
-126.1014731067297
 20
51.80452717256908
 10
-126.3613670984872
 20
52.18207058871226
 10
-126.7691000743482
 20
52.51411951232244
 10
-127.3921376475547
 20
52.78367329359062
 10
-127.8480326181478
 20
52.97927497286474
 10
-128.2874986909831
 20
53.06724210330174
 10
-128.7028696399457
 20
53.06724210330174
 10
-129.6022663359371
 20
53.06724210330174
 10
-130.4610745240142
 20
52.66371943329703
 10
-131.2246906678216
 20
51.94669927340226
 10
-131.9923504444458
 20
51.22911387451094
 10
-132.6515568003524
 20
50.20374859557333
 10
-133.1114801768552
 20
49.03501551792865
 10
-133.4746244919064
 20
48.11991532315895
 10
-134.0185148459483
 20
46.20563925627443
 10
-134.0185148459483
 20
44.23517263585212
 10
-134.0185148459483
 20
43.43825087119566
 10
-133.922090870532
 20
42.63729996702919
 10
-133.7144597459556
 20
41.88170586897565
 10
-135.7245220827212
 20
44.70924872721951
 10
-134.7018163257291
 20
48.5191842073857
 10
-133.8582261106238
 20
50.28188201680737
 10
-134.1779919560485
 20
50.4100390891989
 10
-134.5061778592986
 20
50.47592566551638
 10
-134.8411906727737
 20
50.47592566551638
 10
-134.8612934358283
 20
50.47592566551638
 10
-134.8817797261108
 20
50.47592566551638
 10
-134.8974180050038
 20
50.47387486249206
 10
-135.9040941637993
 20
50.45158415541514
 10
-136.8476442266374
 20
49.83639397466905
 10
-137.5671070035985
 20
48.75144670821625
 10
-138.2825401463116
 20
47.66841255836707
 10
-138.7380358173448
 20
46.14159426320187
 10
-138.7340356644488
 20
44.44733291905206
 10
-138.7340356644488
 20
44.37543162008424
 10
-138.7340356644488
 20
44.30551590425354
 10
-138.7340356644488
 20
44.23361460528508
 10
-138.7103318598805
 20
43.00847357448672
 10
-138.4460101626528
 20
41.87760426292701
 10
-138.0262549881435
 20
40.93447401127337
 10
-139.0216404205095
 20
42.08332310156219
 10
-140.0925730983335
 20
44.09377592697482
 10
-139.5771689145824
 20
46.98896629840853
 10
-139.7089424930001
 20
47.02109796134176
 10
-139.8367154927397
 20
47.03716379280709
 10
-139.9648363318622
 20
47.03716379280709
 10
-139.9648363318622
 20
47.03716379280709
 10
-139.9732569435731
 20
47.03716379280709
 10
-139.9732569435731
 20
47.03716379280709
 10
-140.0528034622979
 20
47.03716379280709
 10
-140.128704914163
 20
47.03291725368247
 10
-140.2086717388074
 20
47.01911962485414
 10
-140.7839111171742
 20
46.93673966449676
 10
-141.2916696553869
 20
46.56173982383584
 10
-141.6877210253276
 20
45.91803498793099
 10
-142.0745401583315
 20
45.27878498904929
 10
-142.3147667316853
 20
44.38944664852524
 10
-142.3147667316853
 20
43.40010448561146
 10
-142.3147667316853
 20
43.10202787500077
 10
-142.2946641569216
 20
42.79674084386007
 10
-142.2505034058179
 20
42.48500513165038
 10
-142.091033180096
 20
41.36630211100726
 10
-141.6511689035778
 20
40.39097497653513
 10
-141.0915746632333
 20
39.71973917532722
 10
-140.5328218097783
 20
39.04411914857143
 10
-139.8728400619158
 20
38.6926137045202
 10
-139.2534033420448
 20
38.6926137045202
 10
-138.37810901658
 20
38.6926137045202
 10
-137.6345878437501
 20
39.19995194963057
 10
-137.1995417438856
 20
39.56150124302615
 10
-136.480108934122
 20
38.66493798866924
 10
-135.5931759562347
 20
38.16878858983761
 10
-134.6777212018558
 20
38.16878858983761
 10
-133.7345184836639
 20
38.16878858983761
 10
-132.7632277353564
 20
38.72233148673685
 10
-132.0919550860044
 20
39.22769138254423
 10
-131.6284234907857
 20
38.82431364561549
 10
-131.0648294850701
 20
38.47690906261122
 10
-130.3694979016007
 20
38.20494939228342
 10
-129.7818384170136
 20
37.97516524704854
 10
-129.2310854818263
 20
37.87516867131087
 10
-128.715326637821
 20
37.87516867131087
 10
-123.7676085383739
 20
37.87516867131087
 10
-124.2030454716985
 20
42.50913648940255
 10
-124.8104165129979
 20
43.16473317030082
 97
        0
 97
        0
 75
     2
 76
     1
 98
        0
  0
INSERT
  5
44
330
1F
100
AcDbEntity
  8
_U+5F6B_U+523B_U+30D1_U+30B9
100
AcDbBlockReference
  2
block 2
 10
0.0
 20
0.0
 30
0.0
  0
SPLINE
  5
53
330
1F
100
AcDbEntity
  8
_U+5F6B_U+523B_U+30D1_U+30B9
370
     0
100
AcDbSpline
210
0.0
220
0.0
230
1.0
 70
    11
 71
     3
 72
   107
 73
   103
 74
     0
 42
0.0000000001
 43
0.0000000001
 12
1.0
 22
0.0
 32
0.0
 13
1.0
 23
0.0
 33
0.0
 40
0.0
 40
0.0
 40
0.0
 40
0.0
 40
1.0
 40
1.0
 40
1.0
 40
2.0
 40
2.0
 40
2.0
 40
3.0
 40
3.0
 40
3.0
 40
4.0
 40
4.0
 40
4.0
 40
5.0
 40
5.0
 40
5.0
 40
6.0
 40
6.0
 40
6.0
 40
7.0
 40
7.0
 40
7.0
 40
8.0
 40
8.0
 40
8.0
 40
9.0
 40
9.0
 40
9.0
 40
10.0
 40
10.0
 40
10.0
 40
11.0
 40
11.0
 40
11.0
 40
12.0
 40
12.0
 40
12.0
 40
13.0
 40
13.0
 40
13.0
 40
14.0
 40
14.0
 40
14.0
 40
15.0
 40
15.0
 40
15.0
 40
16.0
 40
16.0
 40
16.0
 40
17.0
 40
17.0
 40
17.0
 40
18.0
 40
18.0
 40
18.0
 40
19.0
 40
19.0
 40
19.0
 40
20.0
 40
20.0
 40
20.0
 40
21.0
 40
21.0
 40
21.0
 40
22.0
 40
22.0
 40
22.0
 40
23.0
 40
23.0
 40
23.0
 40
24.0
 40
24.0
 40
24.0
 40
25.0
 40
25.0
 40
25.0
 40
26.0
 40
26.0
 40
26.0
 40
27.0
 40
27.0
 40
27.0
 40
28.0
 40
28.0
 40
28.0
 40
29.0
 40
29.0
 40
29.0
 40
30.0
 40
30.0
 40
30.0
 40
31.0
 40
31.0
 40
31.0
 40
32.0
 40
32.0
 40
32.0
 40
33.0
 40
33.0
 40
33.0
 40
34.0
 40
34.0
 40
34.0
 40
34.0
 10
114.0237986283826
 20
-63.81422977806478
 30
0.0
 10
114.0394731405433
 20
-64.48992227135855
 30
0.0
 10
113.407977988756
 20
-66.57390772350419
 30
0.0
 10
111.8257073655583
 20
-66.57390772350419
 30
0.0
 10
111.3738205281152
 20
-66.57390772350419
 30
0.0
 10
110.941956195112
 20
-66.3565733294925
 30
0.0
 10
110.698548340742
 20
-65.99021150015614
 30
0.0
 10
110.4591413480374
 20
-65.62914616261635
 30
0.0
 10
110.3667530500157
 20
-65.1852886063668
 30
0.0
 10
110.3667530500157
 20
-64.68156727766001
 30
0.0
 10
110.3703618836058
 20
-63.58487318540576
 30
0.0
 10
110.8106105950516
 20
-62.14601384084171
 30
0.0
 10
111.7296747094467
 20
-60.51502396416907
 30
0.0
 10
112.6250712525424
 20
-58.93873183035182
 30
0.0
 10
113.1203727928796
 20
-57.56413581165549
 30
0.0
 10
113.1123435004736
 20
-56.53523416566708
 30
0.0
 10
113.1123435004736
 20
-55.99372071406981
 30
0.0
 10
112.9882155675927
 20
-55.55368215558335
 30
0.0
 10
112.7327420346508
 20
-55.17443577579652
 30
0.0
 10
112.4728480428936
 20
-54.79689235965334
 30
0.0
 10
112.0651150670323
 20
-54.46484343604315
 30
0.0
 10
111.4420774938255
 20
-54.19528965477497
 30
0.0
 10
110.9861825232331
 20
-53.99968797550085
 30
0.0
 10
110.5467164503972
 20
-53.91172084506386
 30
0.0
 10
110.1313455014345
 20
-53.91172084506386
 30
0.0
 10
109.2319488054434
 20
-53.91172084506386
 30
0.0
 10
108.3731406173667
 20
-54.31524351506857
 30
0.0
 10
107.6095244735592
 20
-55.03226367496334
 30
0.0
 10
106.8418646969351
 20
-55.74984907385466
 30
0.0
 10
106.1826583410285
 20
-56.77521435279227
 30
0.0
 10
105.7227349645254
 20
-57.94394743043695
 30
0.0
 10
105.3595906494738
 20
-58.85904762520665
 30
0.0
 10
104.8157002954323
 20
-60.77332369209117
 30
0.0
 10
104.8157002954323
 20
-62.74379031251348
 30
0.0
 10
104.8157002954323
 20
-63.54071207716994
 30
0.0
 10
104.9121242708485
 20
-64.34166298133641
 30
0.0
 10
105.1197553954252
 20
-65.09725707938995
 30
0.0
 10
103.109693058659
 20
-62.26971422114609
 30
0.0
 10
104.1323988156518
 20
-58.4597787409799
 30
0.0
 10
104.9759890307564
 20
-56.69708093155823
 30
0.0
 10
104.6562231853321
 20
-56.56892385916669
 30
0.0
 10
104.3280372820822
 20
-56.50303728284922
 30
0.0
 10
103.9930244686071
 20
-56.50303728284922
 30
0.0
 10
103.9729217055522
 20
-56.50303728284922
 30
0.0
 10
103.9524354152697
 20
-56.50303728284922
 30
0.0
 10
103.936797136377
 20
-56.50508808587354
 30
0.0
 10
102.9301209775815
 20
-56.52737879295046
 30
0.0
 10
101.9865709147432
 20
-57.14256897369655
 30
0.0
 10
101.2671081377817
 20
-58.22751624014935
 30
0.0
 10
100.5516749950686
 20
-59.31055038999853
 30
0.0
 10
100.0961793240354
 20
-60.83736868516373
 30
0.0
 10
100.100179476932
 20
-62.53163002931354
 30
0.0
 10
100.100179476932
 20
-62.60353132828136
 30
0.0
 10
100.100179476932
 20
-62.67344704411206
 30
0.0
 10
100.100179476932
 20
-62.74534834308052
 30
0.0
 10
100.1238832815
 20
-63.97048937387888
 30
0.0
 10
100.3882049787277
 20
-65.1013586854386
 30
0.0
 10
100.807960153237
 20
-66.04448893709223
 30
0.0
 10
99.81257472087103
 20
-64.8956398468034
 30
0.0
 10
98.74164204304705
 20
-62.88518702139078
 30
0.0
 10
99.25704622679815
 20
-59.98999664995706
 30
0.0
 10
99.12527264838047
 20
-59.95786498702384
 30
0.0
 10
98.99749964864085
 20
-59.94179915555851
 30
0.0
 10
98.86937880951864
 20
-59.94179915555851
 30
0.0
 10
98.86937880951864
 20
-59.94179915555851
 30
0.0
 10
98.86095819780739
 20
-59.94179915555851
 30
0.0
 10
98.86095819780739
 20
-59.94179915555851
 30
0.0
 10
98.78141167908294
 20
-59.94179915555851
 30
0.0
 10
98.70551022721722
 20
-59.94604569468313
 30
0.0
 10
98.62554340257346
 20
-59.95984332351146
 30
0.0
 10
98.05030402420596
 20
-60.04222328386884
 30
0.0
 10
97.54254548599359
 20
-60.41722312452976
 30
0.0
 10
97.14649411605293
 20
-61.0609279604346
 30
0.0
 10
96.75967498304938
 20
-61.70017795931631
 30
0.0
 10
96.51944840969554
 20
-62.58951629984035
 30
0.0
 10
96.51944840969554
 20
-63.57885846275414
 30
0.0
 10
96.51944840969554
 20
-63.87693507336483
 30
0.0
 10
96.53955098445927
 20
-64.18222210450553
 30
0.0
 10
96.58371173556263
 20
-64.49395781671522
 30
0.0
 10
96.74318196128452
 20
-65.61266083735833
 30
0.0
 10
97.18304623780271
 20
-66.58798797183047
 30
0.0
 10
97.74264047814687
 20
-67.25922377303837
 30
0.0
 10
98.3013933316019
 20
-67.93484379979417
 30
0.0
 10
98.96137507946436
 20
-68.28634924384541
 30
0.0
 10
99.58081179933572
 20
-68.28634924384541
 30
0.0
 10
100.4561061248009
 20
-68.28634924384541
 30
0.0
 10
101.1996272976304
 20
-67.77901099873503
 30
0.0
 10
101.6346733974949
 20
-67.41746170533945
 30
0.0
 10
102.3541062072582
 20
-68.31402495969635
 30
0.0
 10
103.2410391851462
 20
-68.81017435852799
 30
0.0
 10
104.156493939525
 20
-68.81017435852799
 30
0.0
 10
105.0996966577166
 20
-68.81017435852799
 30
0.0
 10
106.0709874060241
 20
-68.25663146162876
 30
0.0
 10
106.7422600553761
 20
-67.75127156582137
 30
0.0
 10
107.2057916505945
 20
-68.15464930275012
 30
0.0
 10
107.7693856563107
 20
-68.50205388575438
 30
0.0
 10
108.4647172397796
 20
-68.77401355608218
 30
0.0
 10
109.0523767243672
 20
-69.00379770131705
 30
0.0
 10
109.6031296595543
 20
-69.10379427705473
 30
0.0
 10
110.1188885035592
 20
-69.10379427705473
 30
0.0
 10
115.0666066030066
 20
-69.10379427705473
 30
0.0
 10
114.631169669682
 20
-64.46982645896304
 30
0.0
 10
114.0237986283826
 20
-63.81422977806478
 30
0.0
  0
HATCH
  5
54
330
1F
100
AcDbEntity
  8
_U+5F6B_U+523B_U+30D1_U+30B9
 62
     7
420
 16777215
100
AcDbHatch
 10
0.0
 20
0.0
 30
0.0
210
0.0
220
0.0
230
1.0
  2
SOLID
 70
     1
 71
     0
 91
        1
 92
        1
 93
        1
 72
     4
 94
        3
 73
     0
 74
     1
 95
      107
 96
      103
 40
0.0
 40
0.0
 40
0.0
 40
0.0
 40
1.0
 40
1.0
 40
1.0
 40
2.0
 40
2.0
 40
2.0
 40
3.0
 40
3.0
 40
3.0
 40
4.0
 40
4.0
 40
4.0
 40
5.0
 40
5.0
 40
5.0
 40
6.0
 40
6.0
 40
6.0
 40
7.0
 40
7.0
 40
7.0
 40
8.0
 40
8.0
 40
8.0
 40
9.0
 40
9.0
 40
9.0
 40
10.0
 40
10.0
 40
10.0
 40
11.0
 40
11.0
 40
11.0
 40
12.0
 40
12.0
 40
12.0
 40
13.0
 40
13.0
 40
13.0
 40
14.0
 40
14.0
 40
14.0
 40
15.0
 40
15.0
 40
15.0
 40
16.0
 40
16.0
 40
16.0
 40
17.0
 40
17.0
 40
17.0
 40
18.0
 40
18.0
 40
18.0
 40
19.0
 40
19.0
 40
19.0
 40
20.0
 40
20.0
 40
20.0
 40
21.0
 40
21.0
 40
21.0
 40
22.0
 40
22.0
 40
22.0
 40
23.0
 40
23.0
 40
23.0
 40
24.0
 40
24.0
 40
24.0
 40
25.0
 40
25.0
 40
25.0
 40
26.0
 40
26.0
 40
26.0
 40
27.0
 40
27.0
 40
27.0
 40
28.0
 40
28.0
 40
28.0
 40
29.0
 40
29.0
 40
29.0
 40
30.0
 40
30.0
 40
30.0
 40
31.0
 40
31.0
 40
31.0
 40
32.0
 40
32.0
 40
32.0
 40
33.0
 40
33.0
 40
33.0
 40
34.0
 40
34.0
 40
34.0
 40
34.0
 10
114.0237986283826
 20
-63.81422977806478
 10
114.0394731405433
 20
-64.48992227135855
 10
113.407977988756
 20
-66.57390772350419
 10
111.8257073655583
 20
-66.57390772350419
 10
111.3738205281152
 20
-66.57390772350419
 10
110.941956195112
 20
-66.3565733294925
 10
110.698548340742
 20
-65.99021150015614
 10
110.4591413480374
 20
-65.62914616261635
 10
110.3667530500157
 20
-65.1852886063668
 10
110.3667530500157
 20
-64.68156727766001
 10
110.3703618836058
 20
-63.58487318540576
 10
110.8106105950516
 20
-62.14601384084171
 10
111.7296747094467
 20
-60.51502396416907
 10
112.6250712525424
 20
-58.93873183035182
 10
113.1203727928796
 20
-57.56413581165549
 10
113.1123435004736
 20
-56.53523416566708
 10
113.1123435004736
 20
-55.99372071406981
 10
112.9882155675927
 20
-55.55368215558335
 10
112.7327420346508
 20
-55.17443577579652
 10
112.4728480428936
 20
-54.79689235965334
 10
112.0651150670323
 20
-54.46484343604315
 10
111.4420774938255
 20
-54.19528965477497
 10
110.9861825232331
 20
-53.99968797550085
 10
110.5467164503972
 20
-53.91172084506386
 10
110.1313455014345
 20
-53.91172084506386
 10
109.2319488054434
 20
-53.91172084506386
 10
108.3731406173667
 20
-54.31524351506857
 10
107.6095244735592
 20
-55.03226367496334
 10
106.8418646969351
 20
-55.74984907385466
 10
106.1826583410285
 20
-56.77521435279227
 10
105.7227349645254
 20
-57.94394743043695
 10
105.3595906494738
 20
-58.85904762520665
 10
104.8157002954323
 20
-60.77332369209117
 10
104.8157002954323
 20
-62.74379031251348
 10
104.8157002954323
 20
-63.54071207716994
 10
104.9121242708485
 20
-64.34166298133641
 10
105.1197553954252
 20
-65.09725707938995
 10
103.109693058659
 20
-62.26971422114609
 10
104.1323988156518
 20
-58.4597787409799
 10
104.9759890307564
 20
-56.69708093155823
 10
104.6562231853321
 20
-56.56892385916669
 10
104.3280372820822
 20
-56.50303728284922
 10
103.9930244686071
 20
-56.50303728284922
 10
103.9729217055522
 20
-56.50303728284922
 10
103.9524354152697
 20
-56.50303728284922
 10
103.936797136377
 20
-56.50508808587354
 10
102.9301209775815
 20
-56.52737879295046
 10
101.9865709147432
 20
-57.14256897369655
 10
101.2671081377817
 20
-58.22751624014935
 10
100.5516749950686
 20
-59.31055038999853
 10
100.0961793240354
 20
-60.83736868516373
 10
100.100179476932
 20
-62.53163002931354
 10
100.100179476932
 20
-62.60353132828136
 10
100.100179476932
 20
-62.67344704411206
 10
100.100179476932
 20
-62.74534834308052
 10
100.1238832815
 20
-63.97048937387888
 10
100.3882049787277
 20
-65.1013586854386
 10
100.807960153237
 20
-66.04448893709223
 10
99.81257472087103
 20
-64.8956398468034
 10
98.74164204304705
 20
-62.88518702139078
 10
99.25704622679815
 20
-59.98999664995706
 10
99.12527264838047
 20
-59.95786498702384
 10
98.99749964864085
 20
-59.94179915555851
 10
98.86937880951864
 20
-59.94179915555851
 10
98.86937880951864
 20
-59.94179915555851
 10
98.86095819780739
 20
-59.94179915555851
 10
98.86095819780739
 20
-59.94179915555851
 10
98.78141167908294
 20
-59.94179915555851
 10
98.70551022721722
 20
-59.94604569468313
 10
98.62554340257346
 20
-59.95984332351146
 10
98.05030402420596
 20
-60.04222328386884
 10
97.54254548599359
 20
-60.41722312452976
 10
97.14649411605293
 20
-61.0609279604346
 10
96.75967498304938
 20
-61.70017795931631
 10
96.51944840969554
 20
-62.58951629984035
 10
96.51944840969554
 20
-63.57885846275414
 10
96.51944840969554
 20
-63.87693507336483
 10
96.53955098445927
 20
-64.18222210450553
 10
96.58371173556263
 20
-64.49395781671522
 10
96.74318196128452
 20
-65.61266083735833
 10
97.18304623780271
 20
-66.58798797183047
 10
97.74264047814687
 20
-67.25922377303837
 10
98.3013933316019
 20
-67.93484379979417
 10
98.96137507946436
 20
-68.28634924384541
 10
99.58081179933572
 20
-68.28634924384541
 10
100.4561061248009
 20
-68.28634924384541
 10
101.1996272976304
 20
-67.77901099873503
 10
101.6346733974949
 20
-67.41746170533945
 10
102.3541062072582
 20
-68.31402495969635
 10
103.2410391851462
 20
-68.81017435852799
 10
104.156493939525
 20
-68.81017435852799
 10
105.0996966577166
 20
-68.81017435852799
 10
106.0709874060241
 20
-68.25663146162876
 10
106.7422600553761
 20
-67.75127156582137
 10
107.2057916505945
 20
-68.15464930275012
 10
107.7693856563107
 20
-68.50205388575438
 10
108.4647172397796
 20
-68.77401355608218
 10
109.0523767243672
 20
-69.00379770131705
 10
109.6031296595543
 20
-69.10379427705473
 10
110.1188885035592
 20
-69.10379427705473
 10
115.0666066030066
 20
-69.10379427705473
 10
114.631169669682
 20
-64.46982645896304
 10
114.0237986283826
 20
-63.81422977806478
 97
        0
 97
        0
 75
     2
 76
     1
 98
        0
  0
INSERT
  5
56
330
1F
100
AcDbEntity
  8
_U+5F6B_U+523B_U+30D1_U+30B9
100
AcDbBlockReference
  2
block 3
 10
0.0
 20
0.0
 30
0.0
  0
INSERT
  5
67
330
1F
100
AcDbEntity
  8
_U+5207_U+65AD_U+30D1_U+30B9
100
AcDbBlockReference
  2
block 4
 10
0.0
 20
0.0
 30
0.0
  0
INSERT
  5
6C
330
1F
100
AcDbEntity
  8
_U+5207_U+65AD_U+30D1_U+30B9
100
AcDbBlockReference
  2
block 5
 10
0.0
 20
0.0
 30
0.0
  0
INSERT
  5
71
330
1F
100
AcDbEntity
  8
_U+5207_U+65AD_U+30D1_U+30B9
100
AcDbBlockReference
  2
block 6
 10
0.0
 20
0.0
 30
0.0
  0
INSERT
  5
76
330
1F
100
AcDbEntity
  8
_U+5207_U+65AD_U+30D1_U+30B9
100
AcDbBlockReference
  2
block 7
 10
0.0
 20
0.0
 30
0.0
  0
INSERT
  5
7B
330
1F
100
AcDbEntity
  8
_U+5207_U+65AD_U+30D1_U+30B9
100
AcDbBlockReference
  2
block 8
 10
0.0
 20
0.0
 30
0.0
  0
INSERT
  5
80
330
1F
100
AcDbEntity
  8
_U+5207_U+65AD_U+30D1_U+30B9
100
AcDbBlockReference
  2
block 9
 10
0.0
 20
0.0
 30
0.0
  0
INSERT
  5
85
330
1F
100
AcDbEntity
  8
_U+5207_U+65AD_U+30D1_U+30B9
100
AcDbBlockReference
  2
block 10
 10
0.0
 20
0.0
 30
0.0
  0
INSERT
  5
18E
330
1F
100
AcDbEntity
  8
_U+5207_U+65AD_U+30D1_U+30B9
100
AcDbBlockReference
  2
block 38
 10
0.0
 20
0.0
 30
0.0
  0
INSERT
  5
193
330
1F
100
AcDbEntity
  8
_U+5207_U+65AD_U+30D1_U+30B9
100
AcDbBlockReference
  2
block 39
 10
0.0
 20
0.0
 30
0.0
  0
INSERT
  5
198
330
1F
100
AcDbEntity
  8
_U+5207_U+65AD_U+30D1_U+30B9
100
AcDbBlockReference
  2
block 40
 10
0.0
 20
0.0
 30
0.0
  0
INSERT
  5
19D
330
1F
100
AcDbEntity
  8
_U+5207_U+65AD_U+30D1_U+30B9
100
AcDbBlockReference
  2
block 41
 10
0.0
 20
0.0
 30
0.0
  0
INSERT
  5
1A2
330
1F
100
AcDbEntity
  8
_U+5207_U+65AD_U+30D1_U+30B9
100
AcDbBlockReference
  2
block 42
 10
0.0
 20
0.0
 30
0.0
  0
INSERT
  5
1A7
330
1F
100
AcDbEntity
  8
_U+5207_U+65AD_U+30D1_U+30B9
100
AcDbBlockReference
  2
block 43
 10
0.0
 20
0.0
 30
0.0
  0
INSERT
  5
1AC
330
1F
100
AcDbEntity
  8
_U+5207_U+65AD_U+30D1_U+30B9
100
AcDbBlockReference
  2
block 44
 10
0.0
 20
0.0
 30
0.0
  0
INSERT
  5
2B5
330
1F
100
AcDbEntity
  8
_U+5207_U+65AD_U+30D1_U+30B9
100
AcDbBlockReference
  2
block 72
 10
0.0
 20
0.0
 30
0.0
  0
INSERT
  5
2C8
330
1F
100
AcDbEntity
  8
_U+5207_U+65AD_U+30D1_U+30B9
100
AcDbBlockReference
  2
block 76
 10
0.0
 20
0.0
 30
0.0
  0
ENDSEC
  0
SECTION
  2
OBJECTS
  0
DICTIONARY
  5
C
330
0
100
AcDbDictionary
281
     1
  3
ACAD_GROUP
350
D
  3
ACAD_LAYOUT
350
1A
  3
ACAD_MATERIAL
350
3B
  3
ACAD_MLEADERSTYLE
350
2DB
  3
ACAD_MLINESTYLE
350
17
  3
ACAD_PLOTSETTINGS
350
19
  3
ACAD_PLOTSTYLENAME
350
E
  3
ACAD_TABLESTYLE
350
2DA
  3
ACAD_VISUALSTYLE
350
2A
  0
SUN
  5
3F
330
29
100
AcDbSun
 90
        1
290
     0
 63
     7
421
 16777215
 40
1.0
291
     1
 91
  2455826
 92
 54000000
292
     0
 70
     2
 71
   256
280
     1
  0
DICTIONARY
  5
D
102
{ACAD_REACTORS
330
C
102
}
330
C
100
AcDbDictionary
281
     1
  0
DICTIONARY
  5
1A
102
{ACAD_REACTORS
330
C
102
}
330
C
100
AcDbDictionary
281
     1
  3
Layout1
350
1E
  3
Layout2
350
26
  3
Model
350
22
  0
DICTIONARY
  5
3B
102
{ACAD_REACTORS
330
C
102
}
330
C
100
AcDbDictionary
281
     1
  3
ByBlock
350
3D
  3
ByLayer
350
3C
  3
Global
350
3E
  0
DICTIONARY
  5
2DB
102
{ACAD_REACTORS
330
C
102
}
330
C
100
AcDbDictionary
281
     1
  0
DICTIONARY
  5
17
102
{ACAD_REACTORS
330
C
102
}
330
C
100
AcDbDictionary
281
     1
  3
Standard
350
18
  0
DICTIONARY
  5
19
102
{ACAD_REACTORS
330
C
102
}
330
C
100
AcDbDictionary
281
     1
  0
ACDBDICTIONARYWDFLT
  5
E
102
{ACAD_REACTORS
330
C
102
}
330
C
100
AcDbDictionary
281
     1
  3
Normal
350
F
100
AcDbDictionaryWithDefault
340
F
  0
DICTIONARY
  5
2DA
102
{ACAD_REACTORS
330
C
102
}
330
C
100
AcDbDictionary
281
     1
  0
DICTIONARY
  5
2A
102
{ACAD_REACTORS
330
C
102
}
330
C
100
AcDbDictionary
281
     1
  3
2dWireframe
350
2F
  3
3D Hidden
350
31
  3
3dWireframe
350
30
  3
Basic
350
32
  3
Brighten
350
36
  3
ColorChange
350
3A
  3
Conceptual
350
34
  3
Dim
350
35
  3
Facepattern
350
39
  3
Flat
350
2B
  3
FlatWithEdges
350
2C
  3
Gouraud
350
2D
  3
GouraudWithEdges
350
2E
  3
Linepattern
350
38
  3
Realistic
350
33
  3
Thicken
350
37
  0
LAYOUT
  5
1E
102
{ACAD_REACTORS
330
1A
102
}
330
1A
100
AcDbPlotSettings
  1

  2
none_device
  4

  6

 40
0.0
 41
0.0
 42
0.0
 43
0.0
 44
0.0
 45
0.0
 46
0.0
 47
0.0
 48
0.0
 49
0.0
140
0.0
141
0.0
142
1.0
143
1.0
 70
   688
 72
     0
 73
     0
 74
     5
  7

 75
    16
 76
     0
 77
     2
 78
   300
147
1.0
148
0.0
149
0.0
100
AcDbLayout
  1
Layout1
 70
     1
 71
     1
 10
0.0
 20
0.0
 11
12.0
 21
9.0
 12
0.0
 22
0.0
 32
0.0
 14
1.000000000000000E+20
 24
1.000000000000000E+20
 34
1.000000000000000E+20
 15
-1.000000000000000E+20
 25
-1.000000000000000E+20
 35
-1.000000000000000E+20
146
0.0
 13
0.0
 23
0.0
 33
0.0
 16
1.0
 26
0.0
 36
0.0
 17
0.0
 27
1.0
 37
0.0
 76
     0
330
1B
  0
LAYOUT
  5
26
102
{ACAD_REACTORS
330
1A
102
}
330
1A
100
AcDbPlotSettings
  1

  2
none_device
  4

  6

 40
0.0
 41
0.0
 42
0.0
 43
0.0
 44
0.0
 45
0.0
 46
0.0
 47
0.0
 48
0.0
 49
0.0
140
0.0
141
0.0
142
1.0
143
1.0
 70
   688
 72
     0
 73
     0
 74
     5
  7

 75
    16
 76
     0
 77
     2
 78
   300
147
1.0
148
0.0
149
0.0
100
AcDbLayout
  1
Layout2
 70
     1
 71
     2
 10
0.0
 20
0.0
 11
0.0
 21
0.0
 12
0.0
 22
0.0
 32
0.0
 14
0.0
 24
0.0
 34
0.0
 15
0.0
 25
0.0
 35
0.0
146
0.0
 13
0.0
 23
0.0
 33
0.0
 16
1.0
 26
0.0
 36
0.0
 17
0.0
 27
1.0
 37
0.0
 76
     0
330
23
  0
LAYOUT
  5
22
102
{ACAD_REACTORS
330
1A
102
}
330
1A
100
AcDbPlotSettings
  1

  2
none_device
  4

  6

 40
0.0
 41
0.0
 42
0.0
 43
0.0
 44
0.0
 45
0.0
 46
0.0
 47
0.0
 48
0.0
 49
0.0
140
0.0
141
0.0
142
1.0
143
1.0
 70
  1712
 72
     0
 73
     0
 74
     0
  7

 75
     0
 76
     0
 77
     2
 78
   300
147
1.0
148
0.0
149
0.0
100
AcDbLayout
  1
Model
 70
     1
 71
     0
 10
0.0
 20
0.0
 11
12.0
 21
9.0
 12
0.0
 22
0.0
 32
0.0
 14
1.000000000000000E+20
 24
1.000000000000000E+20
 34
1.000000000000000E+20
 15
-1.000000000000000E+20
 25
-1.000000000000000E+20
 35
-1.000000000000000E+20
146
0.0
 13
0.0
 23
0.0
 33
0.0
 16
1.0
 26
0.0
 36
0.0
 17
0.0
 27
1.0
 37
0.0
 76
     0
330
1F
331
29
  0
MATERIAL
  5
3D
102
{ACAD_REACTORS
330
3B
102
}
330
3B
100
AcDbMaterial
  1
ByBlock
 72
     1
 94
      127
  0
MATERIAL
  5
3C
102
{ACAD_REACTORS
330
3B
102
}
330
3B
100
AcDbMaterial
  1
ByLayer
 72
     1
 94
      127
  0
MATERIAL
  5
3E
102
{ACAD_REACTORS
330
3B
102
}
330
3B
100
AcDbMaterial
  1
Global
 72
     1
 94
      127
  0
MLINESTYLE
  5
18
102
{ACAD_REACTORS
330
17
102
}
330
17
100
AcDbMlineStyle
  2
Standard
 70
     0
  3

 62
   256
 51
90.0
 52
90.0
 71
     2
 49
0.5
 62
   256
  6
BYLAYER
 49
-0.5
 62
   256
  6
BYLAYER
  0
ACDBPLACEHOLDER
  5
F
102
{ACAD_REACTORS
330
E
102
}
330
E
  0
VISUALSTYLE
  5
2F
102
{ACAD_REACTORS
330
2A
102
}
330
2A
100
AcDbVisualStyle
  2
2dWireframe
 70
     4
177
     2
291
     0
 71
     0
176
     1
 72
     2
176
     1
 73
     0
176
     1
 90
        0
176
     1
 40
-0.6
176
     1
 41
-30.0
176
     1
 62
     5
 63
     7
421
 16777215
176
     1
 74
     1
176
     1
 91
        4
176
     1
 64
     7
176
     1
 65
   257
176
     1
 75
     1
176
     1
175
     1
176
     1
 42
1.0
176
     1
 92
        0
176
     1
 66
   257
176
     1
 43
1.0
176
     1
 76
     1
176
     1
 77
     6
176
     1
 78
     2
176
     1
 67
     7
176
     1
 79
     5
176
     1
170
     0
176
     1
171
     0
176
     1
290
     0
176
     1
 93
        1
176
     1
 44
0.0
176
     1
173
     0
176
     1
  0
VISUALSTYLE
  5
31
102
{ACAD_REACTORS
330
2A
102
}
330
2A
100
AcDbVisualStyle
  2
3D Hidden
 70
     6
177
     2
291
     0
 71
     1
176
     1
 72
     2
176
     1
 73
     2
176
     1
 90
        0
176
     1
 40
-0.6
176
     1
 41
-30.0
176
     1
 62
     5
 63
     7
421
 16777215
176
     1
 74
     2
176
     1
 91
        2
176
     1
 64
     7
176
     1
 65
   257
176
     1
 75
     2
176
     1
175
     1
176
     1
 42
40.0
176
     1
 92
        0
176
     1
 66
   257
176
     1
 43
1.0
176
     1
 76
     1
176
     1
 77
     6
176
     1
 78
     2
176
     1
 67
     7
176
     1
 79
     3
176
     1
170
     0
176
     1
171
     0
176
     1
290
     0
176
     1
 93
        1
176
     1
 44
0.0
176
     1
173
     0
176
     1
  0
VISUALSTYLE
  5
30
102
{ACAD_REACTORS
330
2A
102
}
330
2A
100
AcDbVisualStyle
  2
3dWireframe
 70
     5
177
     2
291
     0
 71
     0
176
     1
 72
     2
176
     1
 73
     0
176
     1
 90
        0
176
     1
 40
-0.6
176
     1
 41
-30.0
176
     1
 62
     5
 63
     7
421
 16777215
176
     1
 74
     1
176
     1
 91
        4
176
     1
 64
     7
176
     1
 65
   257
176
     1
 75
     1
176
     1
175
     1
176
     1
 42
1.0
176
     1
 92
        0
176
     1
 66
   257
176
     1
 43
1.0
176
     1
 76
     1
176
     1
 77
     6
176
     1
 78
     2
176
     1
 67
     7
176
     1
 79
     5
176
     1
170
     0
176
     1
171
     0
176
     1
290
     0
176
     1
 93
        1
176
     1
 44
0.0
176
     1
173
     0
176
     1
  0
VISUALSTYLE
  5
32
102
{ACAD_REACTORS
330
2A
102
}
330
2A
100
AcDbVisualStyle
  2
Basic
 70
     7
177
     2
291
     1
 71
     1
176
     1
 72
     0
176
     1
 73
     1
176
     1
 90
        0
176
     1
 40
-0.6
176
     1
 41
-30.0
176
     1
 62
     5
 63
     7
421
 16777215
176
     1
 74
     0
176
     1
 91
        4
176
     1
 64
     7
176
     1
 65
   257
176
     1
 75
     1
176
     1
175
     1
176
     1
 42
1.0
176
     1
 92
        8
176
     1
 66
     7
176
     1
 43
1.0
176
     1
 76
     1
176
     1
 77
     6
176
     1
 78
     2
176
     1
 67
     7
176
     1
 79
     5
176
     1
170
     0
176
     1
171
     0
176
     1
290
     0
176
     1
 93
        1
176
     1
 44
0.0
176
     1
173
     0
176
     1
  0
VISUALSTYLE
  5
36
102
{ACAD_REACTORS
330
2A
102
}
330
2A
100
AcDbVisualStyle
  2
Brighten
 70
    12
177
     2
291
     1
 71
     2
176
     1
 72
     2
176
     1
 73
     0
176
     1
 90
        0
176
     1
 40
-0.6
176
     1
 41
-30.0
176
     1
 62
     5
 63
     7
421
 16777215
176
     1
 74
     1
176
     1
 91
        4
176
     1
 64
     7
176
     1
 65
   257
176
     1
 75
     1
176
     1
175
     1
176
     1
 42
1.0
176
     1
 92
        8
176
     1
 66
     7
176
     1
 43
1.0
176
     1
 76
     1
176
     1
 77
     6
176
     1
 78
     2
176
     1
 67
     7
176
     1
 79
     5
176
     1
170
     0
176
     1
171
     0
176
     1
290
     0
176
     1
 93
        1
176
     1
 44
50.0
176
     1
173
     0
176
     1
  0
VISUALSTYLE
  5
3A
102
{ACAD_REACTORS
330
2A
102
}
330
2A
100
AcDbVisualStyle
  2
ColorChange
 70
    16
177
     2
291
     1
 71
     2
176
     1
 72
     2
176
     1
 73
     3
176
     1
 90
        0
176
     1
 40
-0.6
176
     1
 41
-30.0
176
     1
 62
     5
 63
     8
421
  8421504
176
     1
 74
     1
176
     1
 91
        4
176
     1
 64
     7
176
     1
 65
   257
176
     1
 75
     1
176
     1
175
     1
176
     1
 42
1.0
176
     1
 92
        8
176
     1
 66
     8
424
  8421504
176
     1
 43
1.0
176
     1
 76
     1
176
     1
 77
     6
176
     1
 78
     2
176
     1
 67
     7
176
     1
 79
     5
176
     1
170
     0
176
     1
171
     0
176
     1
290
     0
176
     1
 93
        1
176
     1
 44
0.0
176
     1
173
     0
176
     1
  0
VISUALSTYLE
  5
34
102
{ACAD_REACTORS
330
2A
102
}
330
2A
100
AcDbVisualStyle
  2
Conceptual
 70
     9
177
     2
291
     0
 71
     3
176
     1
 72
     2
176
     1
 73
     0
176
     1
 90
        0
176
     1
 40
-0.6
176
     1
 41
-30.0
176
     1
 62
     5
 63
     7
421
 16777215
176
     1
 74
     2
176
     1
 91
        2
176
     1
 64
     7
176
     1
 65
   257
176
     1
 75
     1
176
     1
175
     1
176
     1
 42
40.0
176
     1
 92
        8
176
     1
 66
     7
176
     1
 43
1.0
176
     1
 76
     1
176
     1
 77
     6
176
     1
 78
     2
176
     1
 67
     7
176
     1
 79
     3
176
     1
170
     0
176
     1
171
     0
176
     1
290
     0
176
     1
 93
        1
176
     1
 44
0.0
176
     1
173
     0
176
     1
  0
VISUALSTYLE
  5
35
102
{ACAD_REACTORS
330
2A
102
}
330
2A
100
AcDbVisualStyle
  2
Dim
 70
    11
177
     2
291
     1
 71
     2
176
     1
 72
     2
176
     1
 73
     0
176
     1
 90
        0
176
     1
 40
-0.6
176
     1
 41
-30.0
176
     1
 62
     5
 63
     7
421
 16777215
176
     1
 74
     1
176
     1
 91
        4
176
     1
 64
     7
176
     1
 65
   257
176
     1
 75
     1
176
     1
175
     1
176
     1
 42
1.0
176
     1
 92
        8
176
     1
 66
     7
176
     1
 43
1.0
176
     1
 76
     1
176
     1
 77
     6
176
     1
 78
     2
176
     1
 67
     7
176
     1
 79
     5
176
     1
170
     0
176
     1
171
     0
176
     1
290
     0
176
     1
 93
        1
176
     1
 44
-50.0
176
     1
173
     0
176
     1
  0
VISUALSTYLE
  5
39
102
{ACAD_REACTORS
330
2A
102
}
330
2A
100
AcDbVisualStyle
  2
Facepattern
 70
    15
177
     2
291
     1
 71
     2
176
     1
 72
     2
176
     1
 73
     0
176
     1
 90
        0
176
     1
 40
-0.6
176
     1
 41
-30.0
176
     1
 62
     5
 63
     7
421
 16777215
176
     1
 74
     1
176
     1
 91
        4
176
     1
 64
     7
176
     1
 65
   257
176
     1
 75
     1
176
     1
175
     1
176
     1
 42
1.0
176
     1
 92
        8
176
     1
 66
     7
176
     1
 43
1.0
176
     1
 76
     1
176
     1
 77
     6
176
     1
 78
     2
176
     1
 67
     7
176
     1
 79
     5
176
     1
170
     0
176
     1
171
     0
176
     1
290
     0
176
     1
 93
        1
176
     1
 44
0.0
176
     1
173
     0
176
     1
  0
VISUALSTYLE
  5
2B
102
{ACAD_REACTORS
330
2A
102
}
330
2A
100
AcDbVisualStyle
  2
Flat
 70
     0
177
     2
291
     1
 71
     2
176
     1
 72
     1
176
     1
 73
     1
176
     1
 90
        2
176
     1
 40
-0.6
176
     1
 41
30.0
176
     1
 62
     5
 63
     7
421
 16777215
176
     1
 74
     0
176
     1
 91
        4
176
     1
 64
     7
176
     1
 65
   257
176
     1
 75
     1
176
     1
175
     1
176
     1
 42
1.0
176
     1
 92
        8
176
     1
 66
     7
176
     1
 43
1.0
176
     1
 76
     1
176
     1
 77
     6
176
     1
 78
     2
176
     1
 67
     7
176
     1
 79
     5
176
     1
170
     0
176
     1
171
     0
176
     1
290
     0
176
     1
 93
       13
176
     1
 44
0.0
176
     1
173
     0
176
     1
  0
VISUALSTYLE
  5
2C
102
{ACAD_REACTORS
330
2A
102
}
330
2A
100
AcDbVisualStyle
  2
FlatWithEdges
 70
     1
177
     2
291
     1
 71
     2
176
     1
 72
     1
176
     1
 73
     1
176
     1
 90
        2
176
     1
 40
-0.6
176
     1
 41
30.0
176
     1
 62
     5
 63
     7
421
 16777215
176
     1
 74
     1
176
     1
 91
        4
176
     1
 64
     7
176
     1
 65
   257
176
     1
 75
     1
176
     1
175
     1
176
     1
 42
1.0
176
     1
 92
        0
176
     1
 66
   257
176
     1
 43
1.0
176
     1
 76
     1
176
     1
 77
     6
176
     1
 78
     2
176
     1
 67
     7
176
     1
 79
     5
176
     1
170
     0
176
     1
171
     0
176
     1
290
     0
176
     1
 93
       13
176
     1
 44
0.0
176
     1
173
     0
176
     1
  0
VISUALSTYLE
  5
2D
102
{ACAD_REACTORS
330
2A
102
}
330
2A
100
AcDbVisualStyle
  2
Gouraud
 70
     2
177
     2
291
     1
 71
     2
176
     1
 72
     2
176
     1
 73
     1
176
     1
 90
        2
176
     1
 40
-0.6
176
     1
 41
30.0
176
     1
 62
     5
 63
     7
421
 16777215
176
     1
 74
     0
176
     1
 91
        4
176
     1
 64
     7
176
     1
 65
   257
176
     1
 75
     1
176
     1
175
     1
176
     1
 42
1.0
176
     1
 92
        0
176
     1
 66
     7
176
     1
 43
1.0
176
     1
 76
     1
176
     1
 77
     6
176
     1
 78
     2
176
     1
 67
     7
176
     1
 79
     5
176
     1
170
     0
176
     1
171
     0
176
     1
290
     0
176
     1
 93
       13
176
     1
 44
0.0
176
     1
173
     0
176
     1
  0
VISUALSTYLE
  5
2E
102
{ACAD_REACTORS
330
2A
102
}
330
2A
100
AcDbVisualStyle
  2
GouraudWithEdges
 70
     3
177
     2
291
     1
 71
     2
176
     1
 72
     2
176
     1
 73
     1
176
     1
 90
        2
176
     1
 40
-0.6
176
     1
 41
30.0
176
     1
 62
     5
 63
     7
421
 16777215
176
     1
 74
     1
176
     1
 91
        4
176
     1
 64
     7
176
     1
 65
   257
176
     1
 75
     1
176
     1
175
     1
176
     1
 42
1.0
176
     1
 92
        0
176
     1
 66
   257
176
     1
 43
1.0
176
     1
 76
     1
176
     1
 77
     6
176
     1
 78
     2
176
     1
 67
     7
176
     1
 79
     5
176
     1
170
     0
176
     1
171
     0
176
     1
290
     0
176
     1
 93
       13
176
     1
 44
0.0
176
     1
173
     0
176
     1
  0
VISUALSTYLE
  5
38
102
{ACAD_REACTORS
330
2A
102
}
330
2A
100
AcDbVisualStyle
  2
Linepattern
 70
    14
177
     2
291
     1
 71
     2
176
     1
 72
     2
176
     1
 73
     0
176
     1
 90
        0
176
     1
 40
-0.6
176
     1
 41
-30.0
176
     1
 62
     5
 63
     7
421
 16777215
176
     1
 74
     1
176
     1
 91
        4
176
     1
 64
     7
176
     1
 65
   257
176
     1
 75
     7
176
     1
175
     7
176
     1
 42
1.0
176
     1
 92
        8
176
     1
 66
     7
176
     1
 43
1.0
176
     1
 76
     1
176
     1
 77
     6
176
     1
 78
     2
176
     1
 67
     7
176
     1
 79
     5
176
     1
170
     0
176
     1
171
     0
176
     1
290
     0
176
     1
 93
        1
176
     1
 44
0.0
176
     1
173
     0
176
     1
  0
VISUALSTYLE
  5
33
102
{ACAD_REACTORS
330
2A
102
}
330
2A
100
AcDbVisualStyle
  2
Realistic
 70
     8
177
     2
291
     0
 71
     2
176
     1
 72
     2
176
     1
 73
     0
176
     1
 90
        0
176
     1
 40
-0.6
176
     1
 41
-30.0
176
     1
 62
     5
 63
     7
421
 16777215
176
     1
 74
     1
176
     1
 91
        0
176
     1
 64
     7
176
     1
 65
   257
176
     1
 75
     1
176
     1
175
     1
176
     1
 42
1.0
176
     1
 92
        8
176
     1
 66
     8
424
  7895160
176
     1
 43
1.0
176
     1
 76
     1
176
     1
 77
     6
176
     1
 78
     2
176
     1
 67
     7
176
     1
 79
     5
176
     1
170
     0
176
     1
171
     0
176
     1
290
     0
176
     1
 93
       13
176
     1
 44
0.0
176
     1
173
     0
176
     1
  0
VISUALSTYLE
  5
37
102
{ACAD_REACTORS
330
2A
102
}
330
2A
100
AcDbVisualStyle
  2
Thicken
 70
    13
177
     2
291
     1
 71
     2
176
     1
 72
     2
176
     1
 73
     0
176
     1
 90
        0
176
     1
 40
-0.6
176
     1
 41
-30.0
176
     1
 62
     5
 63
     7
421
 16777215
176
     1
 74
     1
176
     1
 91
        4
176
     1
 64
     7
176
     1
 65
   257
176
     1
 75
     1
176
     1
175
     1
176
     1
 42
1.0
176
     1
 92
       12
176
     1
 66
     7
176
     1
 43
1.0
176
     1
 76
     1
176
     1
 77
     6
176
     1
 78
     2
176
     1
 67
     7
176
     1
 79
     5
176
     1
170
     0
176
     1
171
     0
176
     1
290
     0
176
     1
 93
        1
176
     1
 44
0.0
176
     1
173
     0
176
     1
  0
ENDSEC
  0
EOF
