  0
SECTION
  2
HEADER
  9
$ACADVER
  1
AC1009
  9
$FILLMODE
 70
 0
  9
$SPLFRAME
 70
 1
  9
$EXTMIN
 10
0
 20
0
 30
0.0
  9
$EXTMAX
 10
41.6667
 20
41.6667
 30
0.0
  0
ENDSEC
  0
SECTION
  2
TABLES
  0
TABLE
  2
LAYER
 70
1
  0
LAYER
  2
0
 70
     0
 62
     7
  6
CONTINUOUS
  0
ENDTAB
  0
ENDSEC
  0
SECTION
  2
ENTITIES
  0
POLYLINE
  8
0
 62
     52
 66
     1
 10
0
 20
0
 30
0.0
 40
0.141732
 41
0.141732
  0
VERTEX
  8
0
 10
3.61486
 20
1.02713
 30
0.0
 40
0.0019685
 41
0.0019685
  0
VERTEX
  8
0
 10
3.50851
 20
1.02713
 30
0.0
 40
0.0019685
 41
0.0019685
  0
SEQEND
 8
0
  0
POLYLINE
  8
0
 62
     52
 66
     1
 10
0
 20
0
 30
0.0
 40
0.141732
 41
0.141732
  0
VERTEX
  8
0
 10
3.50851
 20
1.02713
 30
0.0
 40
0.0019685
 41
0.0019685
  0
VERTEX
  8
0
 10
3.50851
 20
1.21018
 30
0.0
 40
0.0019685
 41
0.0019685
  0
SEQEND
 8
0
  0
POLYLINE
  8
0
 62
     52
 66
     1
 10
0
 20
0
 30
0.0
 40
0.141732
 41
0.141732
  0
VERTEX
  8
0
 10
3.89833
 20
0.85981
 30
0.0
 40
0.0019685
 41
0.0019685
  0
VERTEX
  8
0
 10
4.42193
 20
0.863715
 30
0.0
 40
0.0019685
 41
0.0019685
  0
SEQEND
 8
0
  0
POLYLINE
  8
0
 62
     52
 66
     1
 10
0
 20
0
 30
0.0
 40
0.141732
 41
0.141732
  0
VERTEX
  8
0
 10
3.61486
 20
1.02713
 30
0.0
 40
0.0019685
 41
0.0019685
  0
VERTEX
  8
0
 10
3.89833
 20
0.85981
 30
0.0
 40
0.0019685
 41
0.0019685
  0
SEQEND
 8
0
  0
POLYLINE
  8
0
 62
     52
 66
     1
 10
0
 20
0
 30
0.0
 40
0.141732
 41
0.141732
  0
VERTEX
  8
0
 10
1.82813
 20
3.74886
 30
0.0
 40
0.0019685
 41
0.0019685
  0
VERTEX
  8
0
 10
1.76747
 20
3.74886
 30
0.0
 40
0.0019685
 41
0.0019685
  0
VERTEX
  8
0
 10
1.5855
 20
3.73801
 30
0.0
 40
0.0019685
 41
0.0019685
  0
VERTEX
  8
0
 10
1.34625
 20
3.70562
 30
0.0
 40
0.0019685
 41
0.0019685
  0
VERTEX
  8
0
 10
1.11176
 20
3.65235
 30
0.0
 40
0.0019685
 41
0.0019685
  0
VERTEX
  8
0
 10
0.883356
 20
3.57861
 30
0.0
 40
0.0019685
 41
0.0019685
  0
VERTEX
  8
0
 10
0.662381
 20
3.48492
 30
0.0
 40
0.0019685
 41
0.0019685
  0
VERTEX
  8
0
 10
0.450196
 20
3.37175
 30
0.0
 40
0.0019685
 41
0.0019685
  0
VERTEX
  8
0
 10
0.248156
 20
3.23969
 30
0.0
 40
0.0019685
 41
0.0019685
  0
VERTEX
  8
0
 10
0.103407
 20
3.12885
 30
0.0
 40
0.0019685
 41
0.0019685
  0
VERTEX
  8
0
 10
0.0575629
 20
3.08914
 30
0.0
 40
0.0019685
 41
0.0019685
  0
SEQEND
 8
0
  0
POLYLINE
  8
0
 62
     52
 66
     1
 10
0
 20
0
 30
0.0
 40
0.141732
 41
0.141732
  0
VERTEX
  8
0
 10
1.98465
 20
3.74892
 30
0.0
 40
0.0019685
 41
0.0019685
  0
VERTEX
  8
0
 10
1.82813
 20
3.74886
 30
0.0
 40
0.0019685
 41
0.0019685
  0
SEQEND
 8
0
  0
POLYLINE
  8
0
 62
     52
 66
     1
 10
0
 20
0
 30
0.0
 40
0.141732
 41
0.141732
  0
VERTEX
  8
0
 10
0.00130208
 20
3.00988
 30
0.0
 40
0.0019685
 41
0.0019685
  0
VERTEX
  8
0
 10
0.000976563
 20
0.871853
 30
0.0
 40
0.0019685
 41
0.0019685
  0
SEQEND
 8
0
  0
POLYLINE
  8
0
 62
     52
 66
     1
 10
0
 20
0
 30
0.0
 40
0.141732
 41
0.141732
  0
VERTEX
  8
0
 10
3.74132
 20
3.35493
 30
0.0
 40
0.0019685
 41
0.0019685
  0
VERTEX
  8
0
 10
3.74132
 20
3.35894
 30
0.0
 40
0.0019685
 41
0.0019685
  0
VERTEX
  8
0
 10
3.73665
 20
3.37088
 30
0.0
 40
0.0019685
 41
0.0019685
  0
VERTEX
  8
0
 10
3.72683
 20
3.38053
 30
0.0
 40
0.0019685
 41
0.0019685
  0
VERTEX
  8
0
 10
3.72424
 20
3.38172
 30
0.0
 40
0.0019685
 41
0.0019685
  0
SEQEND
 8
0
  0
POLYLINE
  8
0
 62
     52
 66
     1
 10
0
 20
0
 30
0.0
 40
0.141732
 41
0.141732
  0
VERTEX
  8
0
 10
0.000976563
 20
0.871853
 30
0.0
 40
0.0019685
 41
0.0019685
  0
VERTEX
  8
0
 10
0.00119358
 20
0.864312
 30
0.0
 40
0.0019685
 41
0.0019685
  0
VERTEX
  8
0
 10
0.00808376
 20
0.841797
 30
0.0
 40
0.0019685
 41
0.0019685
  0
VERTEX
  8
0
 10
0.0254992
 20
0.817492
 30
0.0
 40
0.0019685
 41
0.0019685
  0
VERTEX
  8
0
 10
0.0506728
 20
0.801378
 30
0.0
 40
0.0019685
 41
0.0019685
  0
VERTEX
  8
0
 10
0.0735135
 20
0.795736
 30
0.0
 40
0.0019685
 41
0.0019685
  0
VERTEX
  8
0
 10
0.0811089
 20
0.795844
 30
0.0
 40
0.0019685
 41
0.0019685
  0
SEQEND
 8
0
  0
POLYLINE
  8
0
 62
     52
 66
     1
 10
0
 20
0
 30
0.0
 40
0.141732
 41
0.141732
  0
VERTEX
  8
0
 10
2.84901
 20
0.44515
 30
0.0
 40
0.0019685
 41
0.0019685
  0
VERTEX
  8
0
 10
2.68033
 20
0.488607
 30
0.0
 40
0.0019685
 41
0.0019685
  0
VERTEX
  8
0
 10
2.169
 20
0.597711
 30
0.0
 40
0.0019685
 41
0.0019685
  0
VERTEX
  8
0
 10
1.48144
 20
0.70714
 30
0.0
 40
0.0019685
 41
0.0019685
  0
VERTEX
  8
0
 10
0.788411
 20
0.773275
 30
0.0
 40
0.0019685
 41
0.0019685
  0
VERTEX
  8
0
 10
0.266004
 20
0.795682
 30
0.0
 40
0.0019685
 41
0.0019685
  0
VERTEX
  8
0
 10
0.0919054
 20
0.795844
 30
0.0
 40
0.0019685
 41
0.0019685
  0
SEQEND
 8
0
  0
POLYLINE
  8
0
 62
     52
 66
     1
 10
0
 20
0
 30
0.0
 40
0.141732
 41
0.141732
  0
VERTEX
  8
0
 10
0.0919054
 20
0.795844
 30
0.0
 40
0.0019685
 41
0.0019685
  0
VERTEX
  8
0
 10
0.0811089
 20
0.795844
 30
0.0
 40
0.0019685
 41
0.0019685
  0
SEQEND
 8
0
  0
POLYLINE
  8
0
 62
     52
 66
     1
 10
0
 20
0
 30
0.0
 40
0.141732
 41
0.141732
  0
VERTEX
  8
0
 10
3.72424
 20
3.38172
 30
0.0
 40
0.0019685
 41
0.0019685
  0
VERTEX
  8
0
 10
3.62001
 20
3.4216
 30
0.0
 40
0.0019685
 41
0.0019685
  0
VERTEX
  8
0
 10
3.30117
 20
3.52485
 30
0.0
 40
0.0019685
 41
0.0019685
  0
VERTEX
  8
0
 10
2.86893
 20
3.634
 30
0.0
 40
0.0019685
 41
0.0019685
  0
VERTEX
  8
0
 10
2.42936
 20
3.70888
 30
0.0
 40
0.0019685
 41
0.0019685
  0
VERTEX
  8
0
 10
2.09603
 20
3.74338
 30
0.0
 40
0.0019685
 41
0.0019685
  0
VERTEX
  8
0
 10
1.98465
 20
3.74903
 30
0.0
 40
0.0019685
 41
0.0019685
  0
SEQEND
 8
0
  0
POLYLINE
  8
0
 62
     52
 66
     1
 10
0
 20
0
 30
0.0
 40
0.141732
 41
0.141732
  0
VERTEX
  8
0
 10
0.0574544
 20
3.08919
 30
0.0
 40
0.0019685
 41
0.0019685
  0
VERTEX
  8
0
 10
0.0508356
 20
3.08421
 30
0.0
 40
0.0019685
 41
0.0019685
  0
VERTEX
  8
0
 10
0.0231662
 20
3.05393
 30
0.0
 40
0.0019685
 41
0.0019685
  0
VERTEX
  8
0
 10
0.00379775
 20
3.01779
 30
0.0
 40
0.0019685
 41
0.0019685
  0
VERTEX
  8
0
 10
0.00130208
 20
3.00988
 30
0.0
 40
0.0019685
 41
0.0019685
  0
SEQEND
 8
0
  0
POLYLINE
  8
0
 62
     52
 66
     1
 10
0
 20
0
 30
0.0
 40
0.141732
 41
0.141732
  0
VERTEX
  8
0
 10
3.74278
 20
1.21018
 30
0.0
 40
0.0019685
 41
0.0019685
  0
VERTEX
  8
0
 10
3.74132
 20
3.35493
 30
0.0
 40
0.0019685
 41
0.0019685
  0
SEQEND
 8
0
  0
POLYLINE
  8
0
 62
     52
 66
     1
 10
0
 20
0
 30
0.0
 40
0.141732
 41
0.141732
  0
VERTEX
  8
0
 10
3.84033
 20
0.0153537
 30
0.0
 40
0.0019685
 41
0.0019685
  0
VERTEX
  8
0
 10
3.84467
 20
0.0125868
 30
0.0
 40
0.0019685
 41
0.0019685
  0
VERTEX
  8
0
 10
3.8686
 20
0.00417751
 30
0.0
 40
0.0019685
 41
0.0019685
  0
VERTEX
  8
0
 10
3.89399
 20
0.00363499
 30
0.0
 40
0.0019685
 41
0.0019685
  0
VERTEX
  8
0
 10
3.89903
 20
0.00472006
 30
0.0
 40
0.0019685
 41
0.0019685
  0
VERTEX
  8
0
 10
3.90408
 20
0.00585938
 30
0.0
 40
0.0019685
 41
0.0019685
  0
VERTEX
  8
0
 10
3.92686
 20
0.0169814
 30
0.0
 40
0.0019685
 41
0.0019685
  0
VERTEX
  8
0
 10
3.94515
 20
0.0346137
 30
0.0
 40
0.0019685
 41
0.0019685
  0
VERTEX
  8
0
 10
3.94792
 20
0.038954
 30
0.0
 40
0.0019685
 41
0.0019685
  0
SEQEND
 8
0
  0
POLYLINE
  8
0
 62
     52
 66
     1
 10
0
 20
0
 30
0.0
 40
0.141732
 41
0.141732
  0
VERTEX
  8
0
 10
3.84033
 20
0.0153537
 30
0.0
 40
0.0019685
 41
0.0019685
  0
VERTEX
  8
0
 10
3.78315
 20
0.0518121
 30
0.0
 40
0.0019685
 41
0.0019685
  0
VERTEX
  8
0
 10
3.60585
 20
0.152072
 30
0.0
 40
0.0019685
 41
0.0019685
  0
VERTEX
  8
0
 10
3.36171
 20
0.269586
 30
0.0
 40
0.0019685
 41
0.0019685
  0
VERTEX
  8
0
 10
3.10906
 20
0.367404
 30
0.0
 40
0.0019685
 41
0.0019685
  0
VERTEX
  8
0
 10
2.91465
 20
0.428276
 30
0.0
 40
0.0019685
 41
0.0019685
  0
VERTEX
  8
0
 10
2.84901
 20
0.445042
 30
0.0
 40
0.0019685
 41
0.0019685
  0
SEQEND
 8
0
  0
POLYLINE
  8
0
 62
     52
 66
     1
 10
0
 20
0
 30
0.0
 40
0.141732
 41
0.141732
  0
VERTEX
  8
0
 10
3.74278
 20
1.21018
 30
0.0
 40
0.0019685
 41
0.0019685
  0
VERTEX
  8
0
 10
3.50851
 20
1.21018
 30
0.0
 40
0.0019685
 41
0.0019685
  0
SEQEND
 8
0
  0
POLYLINE
  8
0
 62
     52
 66
     1
 10
0
 20
0
 30
0.0
 40
0.141732
 41
0.141732
  0
VERTEX
  8
0
 10
4.42193
 20
0.863715
 30
0.0
 40
0.0019685
 41
0.0019685
  0
VERTEX
  8
0
 10
3.94792
 20
0.038954
 30
0.0
 40
0.0019685
 41
0.0019685
  0
SEQEND
 8
0
  0
POLYLINE
  8
0
 62
     52
 66
     1
 10
0
 20
0
 30
0.0
 40
0.425197
 41
0.425197
  0
VERTEX
  8
0
 10
2.7909
 20
1.14068
 30
0.0
 40
0.00590551
 41
0.00590551
  0
VERTEX
  8
0
 10
3.32329
 20
0.998047
 30
0.0
 40
0.00590551
 41
0.00590551
  0
SEQEND
 8
0
  0
POLYLINE
  8
0
 62
     52
 66
     1
 10
0
 20
0
 30
0.0
 40
0.425197
 41
0.425197
  0
VERTEX
  8
0
 10
2.64828
 20
0.60829
 30
0.0
 40
0.00590551
 41
0.00590551
  0
VERTEX
  8
0
 10
3.18067
 20
0.465657
 30
0.0
 40
0.00590551
 41
0.00590551
  0
SEQEND
 8
0
  0
POLYLINE
  8
0
 62
     52
 66
     1
 10
0
 20
0
 30
0.0
 40
0.425197
 41
0.425197
  0
VERTEX
  8
0
 10
2.64828
 20
0.60829
 30
0.0
 40
0.00590551
 41
0.00590551
  0
VERTEX
  8
0
 10
2.7909
 20
1.14068
 30
0.0
 40
0.00590551
 41
0.00590551
  0
SEQEND
 8
0
  0
POLYLINE
  8
0
 62
     52
 66
     1
 10
0
 20
0
 30
0.0
 40
0.425197
 41
0.425197
  0
VERTEX
  8
0
 10
3.18067
 20
0.465657
 30
0.0
 40
0.00590551
 41
0.00590551
  0
VERTEX
  8
0
 10
3.32329
 20
0.998047
 30
0.0
 40
0.00590551
 41
0.00590551
  0
SEQEND
 8
0
  0
POLYLINE
  8
0
 62
     52
 66
     1
 10
0
 20
0
 30
0.0
 40
0.425197
 41
0.425197
  0
VERTEX
  8
0
 10
3.65961
 20
0.856174
 30
0.0
 40
0.00590551
 41
0.00590551
  0
VERTEX
  8
0
 10
4.13699
 20
0.580567
 30
0.0
 40
0.00590551
 41
0.00590551
  0
SEQEND
 8
0
  0
POLYLINE
  8
0
 62
     52
 66
     1
 10
0
 20
0
 30
0.0
 40
0.425197
 41
0.425197
  0
VERTEX
  8
0
 10
3.38406
 20
0.378851
 30
0.0
 40
0.00590551
 41
0.00590551
  0
VERTEX
  8
0
 10
3.86139
 20
0.103244
 30
0.0
 40
0.00590551
 41
0.00590551
  0
SEQEND
 8
0
  0
POLYLINE
  8
0
 62
     52
 66
     1
 10
0
 20
0
 30
0.0
 40
0.425197
 41
0.425197
  0
VERTEX
  8
0
 10
3.38406
 20
0.378851
 30
0.0
 40
0.00590551
 41
0.00590551
  0
VERTEX
  8
0
 10
3.65961
 20
0.856174
 30
0.0
 40
0.00590551
 41
0.00590551
  0
SEQEND
 8
0
  0
POLYLINE
  8
0
 62
     52
 66
     1
 10
0
 20
0
 30
0.0
 40
0.425197
 41
0.425197
  0
VERTEX
  8
0
 10
3.86139
 20
0.103244
 30
0.0
 40
0.00590551
 41
0.00590551
  0
VERTEX
  8
0
 10
4.13699
 20
0.580567
 30
0.0
 40
0.00590551
 41
0.00590551
  0
SEQEND
 8
0
  0
POLYLINE
  8
0
 62
     52
 66
     1
 10
0
 20
0
 30
0.0
 40
0.425197
 41
0.425197
  0
VERTEX
  8
0
 10
2.34517
 20
1.97715
 30
0.0
 40
0.00590551
 41
0.00590551
  0
VERTEX
  8
0
 10
2.89632
 20
1.97715
 30
0.0
 40
0.00590551
 41
0.00590551
  0
SEQEND
 8
0
  0
POLYLINE
  8
0
 62
     52
 66
     1
 10
0
 20
0
 30
0.0
 40
0.425197
 41
0.425197
  0
VERTEX
  8
0
 10
2.34517
 20
1.426
 30
0.0
 40
0.00590551
 41
0.00590551
  0
VERTEX
  8
0
 10
2.89632
 20
1.426
 30
0.0
 40
0.00590551
 41
0.00590551
  0
SEQEND
 8
0
  0
POLYLINE
  8
0
 62
     52
 66
     1
 10
0
 20
0
 30
0.0
 40
0.425197
 41
0.425197
  0
VERTEX
  8
0
 10
2.34517
 20
1.426
 30
0.0
 40
0.00590551
 41
0.00590551
  0
VERTEX
  8
0
 10
2.34517
 20
1.97715
 30
0.0
 40
0.00590551
 41
0.00590551
  0
SEQEND
 8
0
  0
POLYLINE
  8
0
 62
     52
 66
     1
 10
0
 20
0
 30
0.0
 40
0.425197
 41
0.425197
  0
VERTEX
  8
0
 10
2.89632
 20
1.426
 30
0.0
 40
0.00590551
 41
0.00590551
  0
VERTEX
  8
0
 10
2.89632
 20
1.97715
 30
0.0
 40
0.00590551
 41
0.00590551
  0
SEQEND
 8
0
  0
POLYLINE
  8
0
 62
     52
 66
     1
 10
0
 20
0
 30
0.0
 40
0.425197
 41
0.425197
  0
VERTEX
  8
0
 10
1.59711
 20
2.15717
 30
0.0
 40
0.00590551
 41
0.00590551
  0
VERTEX
  8
0
 10
2.14833
 20
2.15717
 30
0.0
 40
0.00590551
 41
0.00590551
  0
SEQEND
 8
0
  0
POLYLINE
  8
0
 62
     52
 66
     1
 10
0
 20
0
 30
0.0
 40
0.425197
 41
0.425197
  0
VERTEX
  8
0
 10
1.59711
 20
1.60601
 30
0.0
 40
0.00590551
 41
0.00590551
  0
VERTEX
  8
0
 10
2.14833
 20
1.60601
 30
0.0
 40
0.00590551
 41
0.00590551
  0
SEQEND
 8
0
  0
POLYLINE
  8
0
 62
     52
 66
     1
 10
0
 20
0
 30
0.0
 40
0.425197
 41
0.425197
  0
VERTEX
  8
0
 10
1.59711
 20
1.60601
 30
0.0
 40
0.00590551
 41
0.00590551
  0
VERTEX
  8
0
 10
1.59711
 20
2.15717
 30
0.0
 40
0.00590551
 41
0.00590551
  0
SEQEND
 8
0
  0
POLYLINE
  8
0
 62
     52
 66
     1
 10
0
 20
0
 30
0.0
 40
0.425197
 41
0.425197
  0
VERTEX
  8
0
 10
2.14833
 20
1.60601
 30
0.0
 40
0.00590551
 41
0.00590551
  0
VERTEX
  8
0
 10
2.14833
 20
2.15717
 30
0.0
 40
0.00590551
 41
0.00590551
  0
SEQEND
 8
0
  0
POLYLINE
  8
0
 62
     52
 66
     1
 10
0
 20
0
 30
0.0
 40
0.425197
 41
0.425197
  0
VERTEX
  8
0
 10
0.849393
 20
1.912
 30
0.0
 40
0.00590551
 41
0.00590551
  0
VERTEX
  8
0
 10
1.40061
 20
1.912
 30
0.0
 40
0.00590551
 41
0.00590551
  0
SEQEND
 8
0
  0
POLYLINE
  8
0
 62
     52
 66
     1
 10
0
 20
0
 30
0.0
 40
0.425197
 41
0.425197
  0
VERTEX
  8
0
 10
0.849393
 20
1.36079
 30
0.0
 40
0.00590551
 41
0.00590551
  0
VERTEX
  8
0
 10
1.40061
 20
1.36079
 30
0.0
 40
0.00590551
 41
0.00590551
  0
SEQEND
 8
0
  0
POLYLINE
  8
0
 62
     52
 66
     1
 10
0
 20
0
 30
0.0
 40
0.425197
 41
0.425197
  0
VERTEX
  8
0
 10
0.849393
 20
1.36079
 30
0.0
 40
0.00590551
 41
0.00590551
  0
VERTEX
  8
0
 10
0.849393
 20
1.912
 30
0.0
 40
0.00590551
 41
0.00590551
  0
SEQEND
 8
0
  0
POLYLINE
  8
0
 62
     52
 66
     1
 10
0
 20
0
 30
0.0
 40
0.425197
 41
0.425197
  0
VERTEX
  8
0
 10
1.40061
 20
1.36079
 30
0.0
 40
0.00590551
 41
0.00590551
  0
VERTEX
  8
0
 10
1.40061
 20
1.912
 30
0.0
 40
0.00590551
 41
0.00590551
  0
SEQEND
 8
0
  0
POLYLINE
  8
0
 62
     52
 66
     1
 10
0
 20
0
 30
0.0
 40
0.425197
 41
0.425197
  0
VERTEX
  8
0
 10
0.101074
 20
1.44444
 30
0.0
 40
0.00590551
 41
0.00590551
  0
VERTEX
  8
0
 10
0.652235
 20
1.44444
 30
0.0
 40
0.00590551
 41
0.00590551
  0
SEQEND
 8
0
  0
POLYLINE
  8
0
 62
     52
 66
     1
 10
0
 20
0
 30
0.0
 40
0.425197
 41
0.425197
  0
VERTEX
  8
0
 10
0.101074
 20
0.893229
 30
0.0
 40
0.00590551
 41
0.00590551
  0
VERTEX
  8
0
 10
0.652235
 20
0.893229
 30
0.0
 40
0.00590551
 41
0.00590551
  0
SEQEND
 8
0
  0
POLYLINE
  8
0
 62
     52
 66
     1
 10
0
 20
0
 30
0.0
 40
0.425197
 41
0.425197
  0
VERTEX
  8
0
 10
0.101074
 20
0.893229
 30
0.0
 40
0.00590551
 41
0.00590551
  0
VERTEX
  8
0
 10
0.101074
 20
1.44444
 30
0.0
 40
0.00590551
 41
0.00590551
  0
SEQEND
 8
0
  0
POLYLINE
  8
0
 62
     52
 66
     1
 10
0
 20
0
 30
0.0
 40
0.425197
 41
0.425197
  0
VERTEX
  8
0
 10
0.652235
 20
0.893229
 30
0.0
 40
0.00590551
 41
0.00590551
  0
VERTEX
  8
0
 10
0.652235
 20
1.44444
 30
0.0
 40
0.00590551
 41
0.00590551
  0
SEQEND
 8
0
  0
POLYLINE
  8
0
 62
     52
 66
     1
 10
0
 20
0
 30
0.0
 40
0.425197
 41
0.425197
  0
VERTEX
  8
0
 10
3.09239
 20
2.62592
 30
0.0
 40
0.00590551
 41
0.00590551
  0
VERTEX
  8
0
 10
3.64361
 20
2.62592
 30
0.0
 40
0.00590551
 41
0.00590551
  0
SEQEND
 8
0
  0
POLYLINE
  8
0
 62
     52
 66
     1
 10
0
 20
0
 30
0.0
 40
0.425197
 41
0.425197
  0
VERTEX
  8
0
 10
3.09239
 20
2.07476
 30
0.0
 40
0.00590551
 41
0.00590551
  0
VERTEX
  8
0
 10
3.64361
 20
2.07476
 30
0.0
 40
0.00590551
 41
0.00590551
  0
SEQEND
 8
0
  0
POLYLINE
  8
0
 62
     52
 66
     1
 10
0
 20
0
 30
0.0
 40
0.425197
 41
0.425197
  0
VERTEX
  8
0
 10
3.09239
 20
2.07476
 30
0.0
 40
0.00590551
 41
0.00590551
  0
VERTEX
  8
0
 10
3.09239
 20
2.62592
 30
0.0
 40
0.00590551
 41
0.00590551
  0
SEQEND
 8
0
  0
POLYLINE
  8
0
 62
     52
 66
     1
 10
0
 20
0
 30
0.0
 40
0.425197
 41
0.425197
  0
VERTEX
  8
0
 10
3.64361
 20
2.07476
 30
0.0
 40
0.00590551
 41
0.00590551
  0
VERTEX
  8
0
 10
3.64361
 20
2.62592
 30
0.0
 40
0.00590551
 41
0.00590551
  0
SEQEND
 8
0
  0
POLYLINE
  8
0
 62
     52
 66
     1
 10
0
 20
0
 30
0.0
 40
0.425197
 41
0.425197
  0
VERTEX
  8
0
 10
2.34517
 20
2.72592
 30
0.0
 40
0.00590551
 41
0.00590551
  0
VERTEX
  8
0
 10
2.89632
 20
2.72592
 30
0.0
 40
0.00590551
 41
0.00590551
  0
SEQEND
 8
0
  0
POLYLINE
  8
0
 62
     52
 66
     1
 10
0
 20
0
 30
0.0
 40
0.425197
 41
0.425197
  0
VERTEX
  8
0
 10
2.34517
 20
2.17475
 30
0.0
 40
0.00590551
 41
0.00590551
  0
VERTEX
  8
0
 10
2.89632
 20
2.17475
 30
0.0
 40
0.00590551
 41
0.00590551
  0
SEQEND
 8
0
  0
POLYLINE
  8
0
 62
     52
 66
     1
 10
0
 20
0
 30
0.0
 40
0.425197
 41
0.425197
  0
VERTEX
  8
0
 10
2.34517
 20
2.17475
 30
0.0
 40
0.00590551
 41
0.00590551
  0
VERTEX
  8
0
 10
2.34517
 20
2.72592
 30
0.0
 40
0.00590551
 41
0.00590551
  0
SEQEND
 8
0
  0
POLYLINE
  8
0
 62
     52
 66
     1
 10
0
 20
0
 30
0.0
 40
0.425197
 41
0.425197
  0
VERTEX
  8
0
 10
2.89632
 20
2.17475
 30
0.0
 40
0.00590551
 41
0.00590551
  0
VERTEX
  8
0
 10
2.89632
 20
2.72592
 30
0.0
 40
0.00590551
 41
0.00590551
  0
SEQEND
 8
0
  0
POLYLINE
  8
0
 62
     52
 66
     1
 10
0
 20
0
 30
0.0
 40
0.425197
 41
0.425197
  0
VERTEX
  8
0
 10
1.59711
 20
2.90593
 30
0.0
 40
0.00590551
 41
0.00590551
  0
VERTEX
  8
0
 10
2.14833
 20
2.90593
 30
0.0
 40
0.00590551
 41
0.00590551
  0
SEQEND
 8
0
  0
POLYLINE
  8
0
 62
     52
 66
     1
 10
0
 20
0
 30
0.0
 40
0.425197
 41
0.425197
  0
VERTEX
  8
0
 10
1.59711
 20
2.35476
 30
0.0
 40
0.00590551
 41
0.00590551
  0
VERTEX
  8
0
 10
2.14833
 20
2.35476
 30
0.0
 40
0.00590551
 41
0.00590551
  0
SEQEND
 8
0
  0
POLYLINE
  8
0
 62
     52
 66
     1
 10
0
 20
0
 30
0.0
 40
0.425197
 41
0.425197
  0
VERTEX
  8
0
 10
1.59711
 20
2.35476
 30
0.0
 40
0.00590551
 41
0.00590551
  0
VERTEX
  8
0
 10
1.59711
 20
2.90593
 30
0.0
 40
0.00590551
 41
0.00590551
  0
SEQEND
 8
0
  0
POLYLINE
  8
0
 62
     52
 66
     1
 10
0
 20
0
 30
0.0
 40
0.425197
 41
0.425197
  0
VERTEX
  8
0
 10
2.14833
 20
2.35476
 30
0.0
 40
0.00590551
 41
0.00590551
  0
VERTEX
  8
0
 10
2.14833
 20
2.90593
 30
0.0
 40
0.00590551
 41
0.00590551
  0
SEQEND
 8
0
  0
POLYLINE
  8
0
 62
     52
 66
     1
 10
0
 20
0
 30
0.0
 40
0.425197
 41
0.425197
  0
VERTEX
  8
0
 10
0.849121
 20
2.662
 30
0.0
 40
0.00590551
 41
0.00590551
  0
VERTEX
  8
0
 10
1.40028
 20
2.662
 30
0.0
 40
0.00590551
 41
0.00590551
  0
SEQEND
 8
0
  0
POLYLINE
  8
0
 62
     52
 66
     1
 10
0
 20
0
 30
0.0
 40
0.425197
 41
0.425197
  0
VERTEX
  8
0
 10
0.849121
 20
2.11079
 30
0.0
 40
0.00590551
 41
0.00590551
  0
VERTEX
  8
0
 10
1.40028
 20
2.11079
 30
0.0
 40
0.00590551
 41
0.00590551
  0
SEQEND
 8
0
  0
POLYLINE
  8
0
 62
     52
 66
     1
 10
0
 20
0
 30
0.0
 40
0.425197
 41
0.425197
  0
VERTEX
  8
0
 10
0.849121
 20
2.11079
 30
0.0
 40
0.00590551
 41
0.00590551
  0
VERTEX
  8
0
 10
0.849121
 20
2.662
 30
0.0
 40
0.00590551
 41
0.00590551
  0
SEQEND
 8
0
  0
POLYLINE
  8
0
 62
     52
 66
     1
 10
0
 20
0
 30
0.0
 40
0.425197
 41
0.425197
  0
VERTEX
  8
0
 10
1.40028
 20
2.11079
 30
0.0
 40
0.00590551
 41
0.00590551
  0
VERTEX
  8
0
 10
1.40028
 20
2.662
 30
0.0
 40
0.00590551
 41
0.00590551
  0
SEQEND
 8
0
  0
POLYLINE
  8
0
 62
     52
 66
     1
 10
0
 20
0
 30
0.0
 40
0.425197
 41
0.425197
  0
VERTEX
  8
0
 10
0.101074
 20
2.19243
 30
0.0
 40
0.00590551
 41
0.00590551
  0
VERTEX
  8
0
 10
0.652235
 20
2.19243
 30
0.0
 40
0.00590551
 41
0.00590551
  0
SEQEND
 8
0
  0
POLYLINE
  8
0
 62
     52
 66
     1
 10
0
 20
0
 30
0.0
 40
0.425197
 41
0.425197
  0
VERTEX
  8
0
 10
0.101074
 20
1.64128
 30
0.0
 40
0.00590551
 41
0.00590551
  0
VERTEX
  8
0
 10
0.652235
 20
1.64128
 30
0.0
 40
0.00590551
 41
0.00590551
  0
SEQEND
 8
0
  0
POLYLINE
  8
0
 62
     52
 66
     1
 10
0
 20
0
 30
0.0
 40
0.425197
 41
0.425197
  0
VERTEX
  8
0
 10
0.101074
 20
1.64128
 30
0.0
 40
0.00590551
 41
0.00590551
  0
VERTEX
  8
0
 10
0.101074
 20
2.19243
 30
0.0
 40
0.00590551
 41
0.00590551
  0
SEQEND
 8
0
  0
POLYLINE
  8
0
 62
     52
 66
     1
 10
0
 20
0
 30
0.0
 40
0.425197
 41
0.425197
  0
VERTEX
  8
0
 10
0.652235
 20
1.64128
 30
0.0
 40
0.00590551
 41
0.00590551
  0
VERTEX
  8
0
 10
0.652235
 20
2.19243
 30
0.0
 40
0.00590551
 41
0.00590551
  0
SEQEND
 8
0
  0
POLYLINE
  8
0
 62
     52
 66
     1
 10
0
 20
0
 30
0.0
 40
0.425197
 41
0.425197
  0
VERTEX
  8
0
 10
3.09321
 20
3.37358
 30
0.0
 40
0.00590551
 41
0.00590551
  0
VERTEX
  8
0
 10
3.64437
 20
3.37358
 30
0.0
 40
0.00590551
 41
0.00590551
  0
SEQEND
 8
0
  0
POLYLINE
  8
0
 62
     52
 66
     1
 10
0
 20
0
 30
0.0
 40
0.425197
 41
0.425197
  0
VERTEX
  8
0
 10
3.09321
 20
2.82238
 30
0.0
 40
0.00590551
 41
0.00590551
  0
VERTEX
  8
0
 10
3.64437
 20
2.82238
 30
0.0
 40
0.00590551
 41
0.00590551
  0
SEQEND
 8
0
  0
POLYLINE
  8
0
 62
     52
 66
     1
 10
0
 20
0
 30
0.0
 40
0.425197
 41
0.425197
  0
VERTEX
  8
0
 10
3.09321
 20
2.82238
 30
0.0
 40
0.00590551
 41
0.00590551
  0
VERTEX
  8
0
 10
3.09321
 20
3.37358
 30
0.0
 40
0.00590551
 41
0.00590551
  0
SEQEND
 8
0
  0
POLYLINE
  8
0
 62
     52
 66
     1
 10
0
 20
0
 30
0.0
 40
0.425197
 41
0.425197
  0
VERTEX
  8
0
 10
3.64437
 20
2.82238
 30
0.0
 40
0.00590551
 41
0.00590551
  0
VERTEX
  8
0
 10
3.64437
 20
3.37358
 30
0.0
 40
0.00590551
 41
0.00590551
  0
SEQEND
 8
0
  0
POLYLINE
  8
0
 62
     52
 66
     1
 10
0
 20
0
 30
0.0
 40
0.425197
 41
0.425197
  0
VERTEX
  8
0
 10
2.34494
 20
3.47467
 30
0.0
 40
0.00590551
 41
0.00590551
  0
VERTEX
  8
0
 10
2.89611
 20
3.47467
 30
0.0
 40
0.00590551
 41
0.00590551
  0
SEQEND
 8
0
  0
POLYLINE
  8
0
 62
     52
 66
     1
 10
0
 20
0
 30
0.0
 40
0.425197
 41
0.425197
  0
VERTEX
  8
0
 10
2.34494
 20
2.9235
 30
0.0
 40
0.00590551
 41
0.00590551
  0
VERTEX
  8
0
 10
2.89611
 20
2.9235
 30
0.0
 40
0.00590551
 41
0.00590551
  0
SEQEND
 8
0
  0
POLYLINE
  8
0
 62
     52
 66
     1
 10
0
 20
0
 30
0.0
 40
0.425197
 41
0.425197
  0
VERTEX
  8
0
 10
2.34494
 20
2.9235
 30
0.0
 40
0.00590551
 41
0.00590551
  0
VERTEX
  8
0
 10
2.34494
 20
3.47467
 30
0.0
 40
0.00590551
 41
0.00590551
  0
SEQEND
 8
0
  0
POLYLINE
  8
0
 62
     52
 66
     1
 10
0
 20
0
 30
0.0
 40
0.425197
 41
0.425197
  0
VERTEX
  8
0
 10
2.89611
 20
2.9235
 30
0.0
 40
0.00590551
 41
0.00590551
  0
VERTEX
  8
0
 10
2.89611
 20
3.47467
 30
0.0
 40
0.00590551
 41
0.00590551
  0
SEQEND
 8
0
  0
POLYLINE
  8
0
 62
     52
 66
     1
 10
0
 20
0
 30
0.0
 40
0.425197
 41
0.425197
  0
VERTEX
  8
0
 10
1.59711
 20
3.65468
 30
0.0
 40
0.00590551
 41
0.00590551
  0
VERTEX
  8
0
 10
2.14833
 20
3.65468
 30
0.0
 40
0.00590551
 41
0.00590551
  0
SEQEND
 8
0
  0
POLYLINE
  8
0
 62
     52
 66
     1
 10
0
 20
0
 30
0.0
 40
0.425197
 41
0.425197
  0
VERTEX
  8
0
 10
1.59711
 20
3.10346
 30
0.0
 40
0.00590551
 41
0.00590551
  0
VERTEX
  8
0
 10
2.14833
 20
3.10346
 30
0.0
 40
0.00590551
 41
0.00590551
  0
SEQEND
 8
0
  0
POLYLINE
  8
0
 62
     52
 66
     1
 10
0
 20
0
 30
0.0
 40
0.425197
 41
0.425197
  0
VERTEX
  8
0
 10
1.59711
 20
3.10346
 30
0.0
 40
0.00590551
 41
0.00590551
  0
VERTEX
  8
0
 10
1.59711
 20
3.65468
 30
0.0
 40
0.00590551
 41
0.00590551
  0
SEQEND
 8
0
  0
POLYLINE
  8
0
 62
     52
 66
     1
 10
0
 20
0
 30
0.0
 40
0.425197
 41
0.425197
  0
VERTEX
  8
0
 10
2.14833
 20
3.10346
 30
0.0
 40
0.00590551
 41
0.00590551
  0
VERTEX
  8
0
 10
2.14833
 20
3.65468
 30
0.0
 40
0.00590551
 41
0.00590551
  0
SEQEND
 8
0
  0
POLYLINE
  8
0
 62
     52
 66
     1
 10
0
 20
0
 30
0.0
 40
0.425197
 41
0.425197
  0
VERTEX
  8
0
 10
0.849121
 20
3.41292
 30
0.0
 40
0.00590551
 41
0.00590551
  0
VERTEX
  8
0
 10
1.40028
 20
3.41292
 30
0.0
 40
0.00590551
 41
0.00590551
  0
SEQEND
 8
0
  0
POLYLINE
  8
0
 62
     52
 66
     1
 10
0
 20
0
 30
0.0
 40
0.425197
 41
0.425197
  0
VERTEX
  8
0
 10
0.849121
 20
2.86176
 30
0.0
 40
0.00590551
 41
0.00590551
  0
VERTEX
  8
0
 10
1.40028
 20
2.86176
 30
0.0
 40
0.00590551
 41
0.00590551
  0
SEQEND
 8
0
  0
POLYLINE
  8
0
 62
     52
 66
     1
 10
0
 20
0
 30
0.0
 40
0.425197
 41
0.425197
  0
VERTEX
  8
0
 10
0.849121
 20
2.86176
 30
0.0
 40
0.00590551
 41
0.00590551
  0
VERTEX
  8
0
 10
0.849121
 20
3.41292
 30
0.0
 40
0.00590551
 41
0.00590551
  0
SEQEND
 8
0
  0
POLYLINE
  8
0
 62
     52
 66
     1
 10
0
 20
0
 30
0.0
 40
0.425197
 41
0.425197
  0
VERTEX
  8
0
 10
1.40028
 20
2.86176
 30
0.0
 40
0.00590551
 41
0.00590551
  0
VERTEX
  8
0
 10
1.40028
 20
3.41292
 30
0.0
 40
0.00590551
 41
0.00590551
  0
SEQEND
 8
0
  0
POLYLINE
  8
0
 62
     52
 66
     1
 10
0
 20
0
 30
0.0
 40
0.425197
 41
0.425197
  0
VERTEX
  8
0
 10
0.101074
 20
2.94049
 30
0.0
 40
0.00590551
 41
0.00590551
  0
VERTEX
  8
0
 10
0.652235
 20
2.94049
 30
0.0
 40
0.00590551
 41
0.00590551
  0
SEQEND
 8
0
  0
POLYLINE
  8
0
 62
     52
 66
     1
 10
0
 20
0
 30
0.0
 40
0.425197
 41
0.425197
  0
VERTEX
  8
0
 10
0.101074
 20
2.38932
 30
0.0
 40
0.00590551
 41
0.00590551
  0
VERTEX
  8
0
 10
0.652235
 20
2.38932
 30
0.0
 40
0.00590551
 41
0.00590551
  0
SEQEND
 8
0
  0
POLYLINE
  8
0
 62
     52
 66
     1
 10
0
 20
0
 30
0.0
 40
0.425197
 41
0.425197
  0
VERTEX
  8
0
 10
0.101074
 20
2.38932
 30
0.0
 40
0.00590551
 41
0.00590551
  0
VERTEX
  8
0
 10
0.101074
 20
2.94049
 30
0.0
 40
0.00590551
 41
0.00590551
  0
SEQEND
 8
0
  0
POLYLINE
  8
0
 62
     52
 66
     1
 10
0
 20
0
 30
0.0
 40
0.425197
 41
0.425197
  0
VERTEX
  8
0
 10
0.652235
 20
2.38932
 30
0.0
 40
0.00590551
 41
0.00590551
  0
VERTEX
  8
0
 10
0.652235
 20
2.94049
 30
0.0
 40
0.00590551
 41
0.00590551
  0
SEQEND
 8
0
  0
POLYLINE
  8
0
 62
     52
 66
     1
 10
0
 20
0
 30
0.0
 40
0.425197
 41
0.425197
  0
VERTEX
  8
0
 10
3.09239
 20
1.87717
 30
0.0
 40
0.00590551
 41
0.00590551
  0
VERTEX
  8
0
 10
3.64361
 20
1.87717
 30
0.0
 40
0.00590551
 41
0.00590551
  0
SEQEND
 8
0
  0
POLYLINE
  8
0
 62
     52
 66
     1
 10
0
 20
0
 30
0.0
 40
0.425197
 41
0.425197
  0
VERTEX
  8
0
 10
3.09239
 20
1.32601
 30
0.0
 40
0.00590551
 41
0.00590551
  0
VERTEX
  8
0
 10
3.64361
 20
1.32601
 30
0.0
 40
0.00590551
 41
0.00590551
  0
SEQEND
 8
0
  0
POLYLINE
  8
0
 62
     52
 66
     1
 10
0
 20
0
 30
0.0
 40
0.425197
 41
0.425197
  0
VERTEX
  8
0
 10
3.09239
 20
1.32601
 30
0.0
 40
0.00590551
 41
0.00590551
  0
VERTEX
  8
0
 10
3.09239
 20
1.87717
 30
0.0
 40
0.00590551
 41
0.00590551
  0
SEQEND
 8
0
  0
POLYLINE
  8
0
 62
     52
 66
     1
 10
0
 20
0
 30
0.0
 40
0.425197
 41
0.425197
  0
VERTEX
  8
0
 10
3.64361
 20
1.32601
 30
0.0
 40
0.00590551
 41
0.00590551
  0
VERTEX
  8
0
 10
3.64361
 20
1.87717
 30
0.0
 40
0.00590551
 41
0.00590551
  0
SEQEND
 8
0
  0
ENDSEC
  0
EOF
